  0
SECTION
  2
HEADER
  9
$ACADVER
  1
AC1012
  9
$DWGCODEPAGE
  3
dos850
  9
$INSBASE
 10
0.0
 20
0.0
 30
0.0
  9
$EXTMIN
 10
-15915.166817321502
 20
-11008.221064444911
 30
0.0
  9
$EXTMAX
 10
-15449.97214328934
 20
-10547.563398063325
 30
0.0
  9
$LIMMIN
 10
-15915.166817321502
 20
-11008.221064444911
  9
$LIMMAX
 10
-15449.97214328934
 20
-10547.563398063325
  9
$ORTHOMODE
 70
           0
  9
$REGENMODE
 70
           1
  9
$FILLMODE
 70
           1
  9
$QTEXTMODE
 70
           0
  9
$MIRRTEXT
 70
           1
  9
$DRAGMODE
 70
           2
  9
$LTSCALE
 40
5.0
  9
$OSMODE
 70
           0
  9
$ATTMODE
 70
           1
  9
$TEXTSIZE
 40
0.2
  9
$TRACEWID
 40
0.05
  9
$TEXTSTYLE
  7
TXT
  9
$CLAYER
  8
0
  9
$CELTYPE
  6
CONTINUOUS
  9
$CECOLOR
 62
         256
  9
$CELTSCALE
 40
1.0
  9
$DELOBJ
 70
           1
  9
$DISPSILH
 70
           0
  9
$DIMSCALE
 40
1.0
  9
$DIMASZ
 40
3.5
  9
$DIMEXO
 40
0.0625
  9
$DIMDLI
 40
0.38
  9
$DIMRND
 40
0.0
  9
$DIMDLE
 40
0.0
  9
$DIMEXE
 40
0.18
  9
$DIMTP
 40
0.0
  9
$DIMTM
 40
0.0
  9
$DIMTXT
 40
3.5
  9
$DIMCEN
 40
0.09
  9
$DIMTSZ
 40
0.0
  9
$DIMTOL
 70
           0
  9
$DIMLIM
 70
           0
  9
$DIMTIH
 70
           1
  9
$DIMTOH
 70
           1
  9
$DIMSE1
 70
           0
  9
$DIMSE2
 70
           0
  9
$DIMTAD
 70
           0
  9
$DIMZIN
 70
           0
  9
$DIMBLK
  1

  9
$DIMASO
 70
           1
  9
$DIMSHO
 70
           1
  9
$DIMPOST
  1

  9
$DIMAPOST
  1

  9
$DIMALT
 70
           0
  9
$DIMALTD
 70
           2
  9
$DIMALTF
 40
25.4
  9
$DIMLFAC
 40
1.0
  9
$DIMTOFL
 70
           0
  9
$DIMTVP
 40
0.0
  9
$DIMTIX
 70
           0
  9
$DIMSOXD
 70
           0
  9
$DIMSAH
 70
           0
  9
$DIMBLK1
  1

  9
$DIMBLK2
  1

  9
$DIMSTYLE
  2
STANDARD
  9
$DIMCLRD
 70
           0
  9
$DIMCLRE
 70
           0
  9
$DIMCLRT
 70
           0
  9
$DIMTFAC
 40
1.0
  9
$DIMGAP
 40
0.09
  9
$DIMJUST
 70
           0
  9
$DIMSD1
 70
           0
  9
$DIMSD2
 70
           0
  9
$DIMTOLJ
 70
           1
  9
$DIMTZIN
 70
           0
  9
$DIMALTZ
 70
           0
  9
$DIMALTTZ
 70
           0
  9
$DIMFIT
 70
           3
  9
$DIMUPT
 70
           0
  9
$DIMUNIT
 70
           2
  9
$DIMDEC
 70
           4
  9
$DIMTDEC
 70
           4
  9
$DIMALTU
 70
           2
  9
$DIMALTTD
 70
           2
  9
$DIMTXSTY
  7
TXT
  9
$DIMAUNIT
 70
           0
  9
$LUNITS
 70
           2
  9
$LUPREC
 70
           3
  9
$SKETCHINC
 40
0.1
  9
$FILLETRAD
 40
0.0
  9
$AUNITS
 70
           0
  9
$AUPREC
 70
           3
  9
$MENU
  1
acad
  9
$ELEVATION
 40
0.0
  9
$PELEVATION
 40
0.0
  9
$THICKNESS
 40
0.0
  9
$LIMCHECK
 70
           0
  9
$BLIPMODE
 70
           1
  9
$CHAMFERA
 40
0.0
  9
$CHAMFERB
 40
0.0
  9
$CHAMFERC
 40
0.0
  9
$CHAMFERD
 40
0.0
  9
$SKPOLY
 70
           0
  9
$TDCREATE
 40
0.000000000
  9
$TDUPDATE
 40
0.000000000
  9
$TDINDWG
 40
0.0000000000
  9
$TDUSRTIMER
 40
0.0000000000
  9
$USRTIMER
 70
           1
  9
$ANGBASE
 50
0.0
  9
$ANGDIR
 70
           0
  9
$PDMODE
 70
           2
  9
$PDSIZE
 40
0.5
  9
$PLINEWID
 40
0.0
  9
$COORDS
 70
           0
  9
$SPLFRAME
 70
           0
  9
$SPLINETYPE
 70
           6
  9
$SPLINESEGS
 70
           8
  9
$ATTDIA
 70
           0
  9
$ATTREQ
 70
           1
  9
$HANDLING
 70
           1
  9
$HANDSEED
  5
8A
  9
$SURFTAB1
 70
           6
  9
$SURFTAB2
 70
           6
  9
$SURFTYPE
 70
           6
  9
$SURFU
 70
           6
  9
$SURFV
 70
           6
  9
$UCSNAME
  2

  9
$UCSORG
 10
0.0
 20
0.0
 30
0.0
  9
$UCSXDIR
 10
1.0
 20
0.0
 30
0.0
  9
$UCSYDIR
 10
0.0
 20
1.0
 30
0.0
  9
$PUCSNAME
  2

  9
$PUCSORG
 10
0.0
 20
0.0
 30
0.0
  9
$PUCSXDIR
 10
1.0
 20
0.0
 30
0.0
  9
$PUCSYDIR
 10
0.0
 20
1.0
 30
0.0
  9
$USERI1
 70
           0
  9
$USERI2
 70
           0
  9
$USERI3
 70
           0
  9
$USERI4
 70
           0
  9
$USERI5
 70
           0
  9
$USERR1
 40
0.0
  9
$USERR2
 40
0.0
  9
$USERR3
 40
0.0
  9
$USERR4
 40
0.0
  9
$USERR5
 40
0.0
  9
$WORLDVIEW
 70
           1
  9
$SHADEDGE
 70
           3
  9
$SHADEDIF
 70
          70
  9
$TILEMODE
 70
           1
  9
$MAXACTVP
 70
          16
  9
$PINSBASE
 10
0.0
 20
0.0
 30
0.0
  9
$PLIMCHECK
 70
           0
  9
$PEXTMIN
 10
1.000000000000E+20
 20
1.000000000000E+20
 30
1.000000000000E+20
  9
$PEXTMAX
 10
-1.000000000000E+20
 20
-1.000000000000E+20
 30
-1.000000000000E+20
  9
$PLIMMIN
 10
0.0
 20
0.0
  9
$PLIMMAX
 10
12.0
 20
9.0
  9
$UNITMODE
 70
           0
  9
$VISRETAIN
 70
           0
  9
$PLINEGEN
 70
           1
  9
$PSLTSCALE
 70
           0
  9
$TREEDEPTH
 70
        3020
  9
$PICKSTYLE
 70
           1
  9
$CMLSTYLE
  2
STANDARD
  9
$CMLJUST
 70
           0
  9
$CMLSCALE
 40
1.0
  9
$SAVEIMAGES
 70
           0
  0
ENDSEC
  0
SECTION
  2
CLASSES
  0
CLASS
  1
LWPOLYLINE
  2
AcDbPolyline
  3
"AutoCAD"
 90
        0
280
           0
281
           1
  0
CLASS
  1
IMAGE
  2
AcDbRasterImage
  3
ISM
 90
      127
280
           0
281
           1
  0
CLASS
  1
OLE2FRAME
  2
AcDbOle2Frame
  3
""
 90
        0
280
           0
281
           1
  0
CLASS
  1
HATCH
  2
AcDbHatch
  3
"ACAD_SEDONA"
 90
        0
280
           0
281
           1
  0
CLASS
  1
DICTIONARYVAR
  2
AcDbDictionaryVar
  3
"AutoCAD"
 90
        0
280
           0
281
           0
  0
CLASS
  1
RASTERVARIABLES
  2
AcDbRasterVariables
  3
ISM
 90
        0
280
           0
281
           0
  0
CLASS
  1
IMAGEDEF
  2
AcDbRasterImageDef
  3
ISM
 90
        0
280
           0
281
           0
  0
CLASS
  1
IMAGEDEF_REACTOR
  2
AcDbRasterImageDefReactor
  3
ISM
 90
        1
280
           0
281
           0
  0
CLASS
  1
IDBUFFER
  2
AcDbIdBuffer
  3
"Acad"
 90
        0
280
           0
281
           0
  0
CLASS
  1
SPATIAL_FILTER
  2
AcDbSpatialFilter
  3
"Acad"
 90
        0
280
           0
281
           0
  0
CLASS
  1
XRECORD
  2
AcDbXrecord
  3
"<Built In>"
 90
        0
280
           0
281
           0
  0
ENDSEC
  0
SECTION
  2
TABLES
  0
TABLE
  2
VPORT
  5
7
100
AcDbSymbolTable
 70
           1
  0
VPORT
  5
15
100
AcDbSymbolTableRecord
100
AcDbViewportTableRecord
  2
*ACTIVE
 70
           0
 10
0.0
 20
0.0
 11
1.0
 21
1.0
 12
6.591288
 22
4.579184
 13
0.0
 23
0.0
 14
1.0
 24
1.0
 15
0.0
 25
0.0
 16
0.0
 26
0.0
 36
1.0
 17
0.0
 27
0.0
 37
0.0
 40
9.158369
 41
0.688564
 42
50.0
 43
0.0
 44
0.0
 50
0.0
 51
0.0
 71
           0
 72
         100
 73
           1
 74
           1
 75
           0
 76
           0
 77
           0
 78
           0
  0
ENDTAB
  0
TABLE
  2
LTYPE
  5
4
100
AcDbSymbolTable
 70
           5
  0
LTYPE
  5
11
100
AcDbSymbolTableRecord
100
AcDbLinetypeTableRecord
  2
BYBLOCK
 70
           0
  3

 72
          65
 73
           0
 40
0.0
  0
LTYPE
  5
12
100
AcDbSymbolTableRecord
100
AcDbLinetypeTableRecord
  2
BYLAYER
 70
           0
  3

 72
          65
 73
           0
 40
0.0
  0
LTYPE
  5
13
100
AcDbSymbolTableRecord
100
AcDbLinetypeTableRecord
  2
CONTINUOUS
 70
           0
  3
Solid line
 72
          65
 73
           0
 40
0.0
  0
LTYPE
  5
1D
100
AcDbSymbolTableRecord
100
AcDbLinetypeTableRecord
  2
GESTRICHELT
 70
           0
  3

 72
          65
 73
           2
 40
0.75
 49
0.5
 74
           0
 49
-0.25
 74
           0
  0
LTYPE
  5
1E
100
AcDbSymbolTableRecord
100
AcDbLinetypeTableRecord
  2
STRICHPUNKT
 70
           0
  3

 72
          65
 73
           4
 40
1.0
 49
0.5
 74
           0
 49
-0.25
 74
           0
 49
0.0
 74
           0
 49
-0.25
 74
           0
  0
ENDTAB
  0
TABLE
  2
LAYER
  5
2
100
AcDbSymbolTable
 70
           2
  0
LAYER
  5
14
100
AcDbSymbolTableRecord
100
AcDbLayerTableRecord
  2
0
 70
           0
 62
           7
  6
CONTINUOUS
  0
LAYER
  5
20
100
AcDbSymbolTableRecord
100
AcDbLayerTableRecord
  2
FREI
 70
           0
 62
           7
  6
CONTINUOUS
  0
ENDTAB
  0
TABLE
  2
STYLE
  5
3
100
AcDbSymbolTable
 70
           2
  0
STYLE
  5
17
100
AcDbSymbolTableRecord
100
AcDbTextStyleTableRecord
  2
TXT
 70
           0
 40
3.5
 41
1.0
 50
0.0
 71
           0
 42
3.5
  3
TXT
  4

  0
STYLE
  5
1F
100
AcDbSymbolTableRecord
100
AcDbTextStyleTableRecord
  2
GOTHICG
 70
           0
 40
3.5
 41
1.0
 50
0.0
 71
           0
 42
3.5
  3
GOTHICG
  4

  0
ENDTAB
  0
TABLE
  2
VIEW
  5
5
100
AcDbSymbolTable
 70
           0
  0
ENDTAB
  0
TABLE
  2
UCS
  5
6
100
AcDbSymbolTable
 70
           0
  0
ENDTAB
  0
TABLE
  2
APPID
  5
8
100
AcDbSymbolTable
 70
           2
  0
APPID
  5
16
100
AcDbSymbolTableRecord
100
AcDbRegAppTableRecord
  2
ACAD
 70
           0
  0
APPID
  5
21
100
AcDbSymbolTableRecord
100
AcDbRegAppTableRecord
  2
MegaCADPntStyle
 70
           0
  0
ENDTAB
  0
TABLE
  2
DIMSTYLE
  5
9
100
AcDbSymbolTable
 70
           1
  0
DIMSTYLE
105
18
100
AcDbSymbolTableRecord
100
AcDbDimStyleTableRecord
  2
STANDARD
 70
           0
  3

  4

  5

  6

  7

 40
1.0
 41
0.18
 42
0.0625
 43
0.38
 44
0.18
 45
0.0
 46
0.0
 47
0.0
 48
0.0
140
0.18
141
0.09
142
0.0
143
25.4
144
1.0
145
0.0
146
1.0
147
0.09
 71
           0
 72
           0
 73
           1
 74
           1
 75
           0
 76
           0
 77
           0
 78
           0
170
           0
171
           2
172
           0
173
           0
174
           0
175
           0
176
           0
177
           0
178
           0
270
           2
271
           4
272
           4
273
           2
274
           2
340
17
275
           0
280
           0
281
           0
282
           0
283
           1
284
           0
285
           0
286
           0
287
           0
288
           0
  0
ENDTAB
  0
TABLE
  2
BLOCK_RECORD
  5
1
100
AcDbSymbolTable
 70
           1
  0
BLOCK_RECORD
  5
A
100
AcDbSymbolTableRecord
100
AcDbBlockTableRecord
  2
*MODEL_SPACE
  0
BLOCK_RECORD
  5
B
100
AcDbSymbolTableRecord
100
AcDbBlockTableRecord
  2
*PAPER_SPACE
  0
BLOCK_RECORD
  5
22
100
AcDbSymbolTableRecord
100
AcDbBlockTableRecord
  2
ELIPPSE
  0
ENDTAB
  0
ENDSEC
  0
SECTION
  2
BLOCKS
  0
BLOCK
  5
D
100
AcDbEntity
  8
0
100
AcDbBlockBegin
  2
*MODEL_SPACE
 70
           0
 10
0.0
 20
0.0
 30
0.0
  3
*MODEL_SPACE
  1

  0
ENDBLK
  5
E
100
AcDbEntity
  8
0
100
AcDbBlockEnd
  0
BLOCK
  5
F
100
AcDbEntity
 67
           1
  8
0
100
AcDbBlockBegin
  2
*PAPER_SPACE
 70
           0
 10
0.0
 20
0.0
 30
0.0
  3
*PAPER_SPACE
  1

  0
ENDBLK
  5
10
100
AcDbEntity
 67
           1
  8
0
100
AcDbBlockEnd
  0
BLOCK
  5
85
100
AcDbEntity
  8
0
100
AcDbBlockBegin
  2
ELIPPSE
 70
          64
 10
0.0
 20
0.0
 30
0.0
  3
ELIPPSE
  1

  0
CIRCLE
  5
86
100
AcDbEntity
  8
0
  6
BYBLOCK
 62
           0
100
AcDbCircle
 10
0.0
 20
0.0
 30
0.0
 40
1.0
  0
ENDBLK
  5
87
100
AcDbEntity
  8
0
  6
BYBLOCK
 62
           0
100
AcDbBlockEnd
  0
ENDSEC
  0
SECTION
  2
ENTITIES
  0
LINE
  5
23
100
AcDbEntity
  8
FREI
  6
CONTINUOUS
 62
          15
100
AcDbLine
 10
-15604.958933397204
 20
-10547.563398063325
 30
0.0
 11
-15813.755707744755
 21
-10634.049853777837
 31
0.0
  0
LINE
  5
24
100
AcDbEntity
  8
FREI
  6
CONTINUOUS
 62
          15
100
AcDbLine
 10
-15682.569480305423
 20
-10950.761423258435
 30
0.0
 11
-15658.768917636893
 21
-11008.221064444908
 31
0.0
  0
LINE
  5
25
100
AcDbEntity
  8
FREI
  6
CONTINUOUS
 62
          15
100
AcDbLine
 10
-15813.755707744755
 20
-10634.049853777837
 30
0.0
 11
-15804.879798938464
 21
-10655.47819319637
 31
0.0
  0
LINE
  5
26
100
AcDbEntity
  8
FREI
  6
CONTINUOUS
 62
          15
100
AcDbLine
 10
-15658.768917636893
 20
-11008.221064444908
 30
0.0
 11
-15449.97214328934
 21
-10921.734608730396
 31
0.0
  0
LINE
  5
27
100
AcDbEntity
  8
FREI
  6
CONTINUOUS
 62
          15
100
AcDbLine
 10
-15449.97214328934
 20
-10921.734608730396
 30
0.0
 11
-15604.958933397204
 21
-10547.563398063325
 31
0.0
  0
LINE
  5
28
100
AcDbEntity
  8
FREI
  6
STRICHPUNKT
 62
          15
100
AcDbLine
 10
-15554.370530463117
 20
-10964.977836587652
 30
0.0
 11
-15709.357320570978
 21
-10590.806625920581
 31
0.0
  0
LINE
  5
29
100
AcDbEntity
  8
FREI
  6
STRICHPUNKT
 62
          15
100
AcDbLine
 10
-15682.569480305421
 20
-10655.478193196373
 30
0.0
 11
-15810.768430147726
 21
-10964.977836587655
 31
0.0
  0
LINE
  5
2A
100
AcDbEntity
  8
FREI
  6
CONTINUOUS
 62
          15
100
AcDbLine
 10
-15804.879798938464
 20
-10655.47819319637
 30
0.0
 11
-15915.166817321502
 21
-10921.734608730399
 31
0.0
  0
LINE
  5
2B
100
AcDbEntity
  8
FREI
  6
CONTINUOUS
 62
          15
100
AcDbLine
 10
-15682.569480305423
 20
-10950.761423258435
 30
0.0
 11
-15706.370042973953
 21
-11008.221064444911
 31
0.0
  0
LINE
  5
2C
100
AcDbEntity
  8
FREI
  6
CONTINUOUS
 62
          15
100
AcDbLine
 10
-15656.596152698232
 20
-10655.478193196373
 30
0.0
 11
-15804.879798938464
 21
-10655.47819319637
 31
0.0
  0
LINE
  5
2D
100
AcDbEntity
  8
FREI
  6
CONTINUOUS
 62
          15
100
AcDbLine
 10
-15598.215428653124
 20
-10655.478193196373
 30
0.0
 11
-15656.596152698232
 21
-10655.478193196373
 31
0.0
  0
LINE
  5
2E
100
AcDbEntity
  8
FREI
  6
CONTINUOUS
 62
          15
100
AcDbLine
 10
-15560.25916167238
 20
-10655.478193196373
 30
0.0
 11
-15598.215428653124
 21
-10655.478193196373
 31
0.0
  0
LINE
  5
2F
100
AcDbEntity
  8
FREI
  6
CONTINUOUS
 62
          15
100
AcDbLine
 10
-15682.569480305421
 20
-10744.813470917052
 30
0.0
 11
-15682.569480305421
 21
-10655.478193196373
 31
0.0
  0
LINE
  5
30
100
AcDbEntity
  8
FREI
  6
GESTRICHELT
 62
          15
100
AcDbLine
 10
-15682.569480305419
 20
-10767.788511829414
 30
0.0
 11
-15682.569480305421
 21
-10744.813470917052
 31
0.0
  0
LINE
  5
31
100
AcDbEntity
  8
FREI
  6
GESTRICHELT
 62
          15
100
AcDbLine
 10
-15682.569480305423
 20
-10859.495087399657
 30
0.0
 11
-15682.569480305421
 21
-10787.788511829414
 31
0.0
  0
LINE
  5
32
100
AcDbEntity
  8
FREI
  6
CONTINUOUS
 62
          15
100
AcDbLine
 10
-15682.569480305423
 20
-10950.761423258435
 30
0.0
 11
-15682.569480305423
 21
-10859.495087399657
 31
0.0
  0
LINE
  5
33
100
AcDbEntity
  8
FREI
  6
CONTINUOUS
 62
          15
100
AcDbLine
 10
-15915.166817321502
 20
-10921.734608730399
 30
0.0
 11
-15706.370042973953
 21
-11008.221064444911
 31
0.0
  0
CIRCLE
  5
34
100
AcDbEntity
  8
FREI
  6
CONTINUOUS
 62
          15
100
AcDbCircle
 10
-15682.569480305423
 20
-10777.788511829418
 30
0.0
 40
10.0
  0
LINE
  5
35
100
AcDbEntity
  8
FREI
  6
CONTINUOUS
 62
          15
100
AcDbLine
 10
-15658.059406978178
 20
-10815.443434239067
 30
0.0
 11
-15658.049792479265
 21
-10804.425218486649
 31
0.0
  0
LINE
  5
36
100
AcDbEntity
  8
FREI
  6
GESTRICHELT
 62
          15
100
AcDbLine
 10
-15658.067076562416
 20
-10815.445017696646
 30
0.0
 11
-15658.095128899851
 21
-10820.978710365907
 31
0.0
  0
LINE
  5
37
100
AcDbEntity
  8
FREI
  6
GESTRICHELT
 62
          15
100
AcDbLine
 10
-15658.057813972739
 20
-10777.788511829414
 30
0.0
 11
-15658.066624225481
 21
-10804.375337388563
 31
0.0
  0
LINE
  5
38
100
AcDbEntity
  8
FREI
  6
GESTRICHELT
 62
          15
100
AcDbLine
 10
-15707.084210022011
 20
-10777.194215351439
 30
0.0
 11
-15707.081424887036
 21
-10796.105281831024
 31
0.0
  0
ARC
  5
39
100
AcDbEntity
  8
FREI
  6
GESTRICHELT
 62
          15
100
AcDbCircle
 10
-15682.569480305423
 20
-10777.788511829418
 30
0.0
 40
24.511666332682
100
AcDbArc
 50
171.087470810002
 51
178.553410663232
  0
ARC
  5
3A
100
AcDbEntity
  8
FREI
  6
CONTINUOUS
 62
          15
100
AcDbCircle
 10
-15682.569480305423
 20
-10777.788511829418
 30
0.0
 40
24.511666332682
100
AcDbArc
 50
109.53100178678
 51
171.087470810002
  0
ARC
  5
3B
100
AcDbEntity
  8
FREI
  6
GESTRICHELT
 62
          15
100
AcDbCircle
 10
-15682.569480305423
 20
-10777.788511829418
 30
0.0
 40
24.511666332682
100
AcDbArc
 50
0.000000683099
 51
109.53100178678
  0
LINE
  5
3C
100
AcDbEntity
  8
FREI
  6
CONTINUOUS
 62
          15
100
AcDbLine
 10
-15707.081146638104
 20
-10859.495087399657
 30
0.0
 11
-15658.057813972739
 21
-10859.495087399657
 31
0.0
  0
LINE
  5
3D
100
AcDbEntity
  8
FREI
  6
CONTINUOUS
 62
          15
100
AcDbLine
 10
-15707.081146638104
 20
-10796.105404055637
 30
0.0
 11
-15707.081146638104
 21
-10859.495087399657
 31
0.0
  0
LINE
  5
3E
100
AcDbEntity
  8
FREI
  6
CONTINUOUS
 62
          15
100
AcDbLine
 10
-15658.057813972739
 20
-10859.495087399657
 30
0.0
 11
-15658.056348430353
 21
-10820.98649560663
 31
0.0
  0
ARC
  5
3F
100
AcDbEntity
  8
FREI
  6
CONTINUOUS
 62
          15
100
AcDbCircle
 10
-15613.575056413898
 20
-10676.572592152275
 30
0.0
 40
26.093904120701
100
AcDbArc
 50
22.507101035151
 51
69.812326881122
  0
ARC
  5
40
100
AcDbEntity
  8
FREI
  6
CONTINUOUS
 62
          15
100
AcDbCircle
 10
-15562.208425691269
 20
-10800.562391379091
 30
0.0
 40
26.093904120701
100
AcDbArc
 50
335.201835748251
 51
22.507101035151
  0
LINE
  5
41
100
AcDbEntity
  8
FREI
  6
CONTINUOUS
 62
          15
100
AcDbLine
 10
-15556.910735766125
 20
-10851.300988684623
 30
0.0
 11
-15538.520897271848
 21
-10811.5066454876
 31
0.0
  0
LINE
  5
42
100
AcDbEntity
  8
FREI
  6
CONTINUOUS
 62
          15
100
AcDbLine
 10
-15645.715749058789
 20
-10636.949815715947
 30
0.0
 11
-15604.568842385515
 21
-10652.078158560485
 31
0.0
  0
LINE
  5
43
100
AcDbEntity
  8
FREI
  6
CONTINUOUS
 62
          15
100
AcDbLine
 10
-15589.463854485313
 20
-10666.581904168022
 30
0.0
 11
-15538.097223762685
 21
-10790.571703394835
 31
0.0
  0
ARC
  5
44
100
AcDbEntity
  8
FREI
  6
CONTINUOUS
 62
          15
100
AcDbCircle
 10
-15702.700250050731
 20
-10786.131750766766
 30
0.0
 40
10.893393173657
100
AcDbArc
 50
140.165285169611
 51
264.705526113971
  0
LINE
  5
45
100
AcDbEntity
  8
FREI
  6
CONTINUOUS
 62
          15
100
AcDbLine
 10
-15640.554442014598
 20
-10694.18951000131
 30
0.0
 11
-15711.083173639383
 21
-10779.169648029405
 31
0.0
  0
LINE
  5
46
100
AcDbEntity
  8
FREI
  6
CONTINUOUS
 62
          15
100
AcDbLine
 10
-15658.137020359878
 20
-10651.759120314448
 30
0.0
 11
-15576.163111504853
 21
-10849.613192429828
 31
0.0
  0
ARC
  5
47
100
AcDbEntity
  8
FREI
  6
CONTINUOUS
 62
          15
100
AcDbCircle
 10
-15648.071237596792
 20
-10647.584463411957
 30
0.0
 40
10.893776096645
100
AcDbArc
 50
77.511072586301
 51
202.525620150222
  0
ARC
  5
48
100
AcDbEntity
  8
FREI
  6
CONTINUOUS
 62
          15
100
AcDbCircle
 10
-15566.099643239535
 20
-10845.444411449749
 30
0.0
 40
10.893776096645
100
AcDbArc
 50
202.501734733568
 51
327.488481380678
  0
LINE
  5
49
100
AcDbEntity
  8
FREI
  6
GESTRICHELT
 62
          15
100
AcDbLine
 10
-15633.484658034211
 20
-10803.570128520594
 30
0.0
 11
-15659.182516888015
 21
-10801.068375018858
 31
0.0
  0
LINE
  5
4A
100
AcDbEntity
  8
FREI
  6
CONTINUOUS
 62
          15
100
AcDbLine
 10
-15633.469633474699
 20
-10803.614653997462
 30
0.0
 11
-15593.615309754859
 21
-10807.496479307898
 31
0.0
  0
LINE
  5
4B
100
AcDbEntity
  8
FREI
  6
CONTINUOUS
 62
          15
100
AcDbLine
 10
-15659.155527176192
 20
-10801.112864809522
 30
0.0
 11
-15703.705022012507
 21
-10796.974231932967
 31
0.0
  0
ARC
  5
4C
100
AcDbEntity
  8
FREI
  6
CONTINUOUS
 62
          15
100
AcDbCircle
 10
-15682.569480305419
 20
-10843.154997639173
 30
0.0
 40
11.775264815914
100
AcDbArc
 50
78.645411513612
 51
318.642951543439
  0
LINE
  5
4D
100
AcDbEntity
  8
FREI
  6
GESTRICHELT
 62
          15
100
AcDbLine
 10
-15657.810742282343
 20
-10815.493817140759
 30
0.0
 11
-15656.370263995172
 21
-10815.785677936234
 31
0.0
  0
ARC
  5
4E
100
AcDbEntity
  8
FREI
  6
GESTRICHELT
 62
          15
100
AcDbCircle
 10
-15608.522508087375
 20
-10772.730989838728
 30
0.0
 40
2.716455679623
100
AcDbArc
 50
302.413090928363
 51
18.608604704482
  0
CIRCLE
  5
4F
100
AcDbEntity
  8
FREI
  6
CONTINUOUS
 62
          15
100
AcDbCircle
 10
-15591.992191049934
 20
-10740.270278789569
 30
0.0
 40
7.625528390755
  0
ARC
  5
50
100
AcDbEntity
  8
FREI
  6
GESTRICHELT
 62
          15
100
AcDbCircle
 10
-15596.70836043987
 20
-10751.082488376516
 30
0.0
 40
2.716455679623
100
AcDbArc
 50
258.637406711703
 51
318.708608284301
  0
ARC
  5
51
100
AcDbEntity
  8
FREI
  6
GESTRICHELT
 62
          15
100
AcDbCircle
 10
-15594.701866248974
 20
-10757.028268570251
 30
0.0
 40
2.716455679623
100
AcDbArc
 50
258.669531649356
 51
318.708608284301
  0
LINE
  5
52
100
AcDbEntity
  8
FREI
  6
GESTRICHELT
 62
          15
100
AcDbLine
 10
-15599.221199552061
 20
-10742.70037803155
 30
0.0
 11
-15603.158513046772
 21
-10744.02692616131
 31
0.0
  0
LINE
  5
53
100
AcDbEntity
  8
FREI
  6
GESTRICHELT
 62
          15
100
AcDbLine
 10
-15590.047455582118
 20
-10747.643384891024
 30
0.0
 11
-15594.667166556332
 21
-10752.875177767761
 31
0.0
  0
LINE
  5
54
100
AcDbEntity
  8
FREI
  6
GESTRICHELT
 62
          15
100
AcDbLine
 10
-15592.660672365435
 20
-10758.820957961496
 30
0.0
 11
-15583.161262870153
 21
-10748.04356343178
 31
0.0
  0
ARC
  5
55
100
AcDbEntity
  8
FREI
  6
GESTRICHELT
 62
          15
100
AcDbCircle
 10
-15592.00084217159
 20
-10740.263411893138
 30
0.0
 40
11.774881892926
100
AcDbArc
 50
318.647395568672
 51
198.639402770666
  0
ARC
  5
56
100
AcDbEntity
  8
FREI
  6
CONTINUOUS
 62
          15
100
AcDbCircle
 10
-15615.209974945163
 20
-10752.907694336325
 30
0.0
 40
2.716455679623
100
AcDbArc
 50
132.795679260576
 51
198.634226065905
  0
ARC
  5
57
100
AcDbEntity
  8
FREI
  6
GESTRICHELT
 62
          15
100
AcDbCircle
 10
-15615.209974945163
 20
-10752.907694336325
 30
0.0
 40
2.716455679623
100
AcDbArc
 50
84.731670676549
 51
132.795679260576
  0
LINE
  5
58
100
AcDbEntity
  8
FREI
  6
GESTRICHELT
 62
          15
100
AcDbLine
 10
-15608.824144552576
 20
-10756.961170044251
 30
0.0
 11
-15595.235010785107
 21
-10759.689030618505
 31
0.0
  0
LINE
  5
59
100
AcDbEntity
  8
FREI
  6
GESTRICHELT
 62
          15
100
AcDbLine
 10
-15597.243031405151
 20
-10753.743123561468
 30
0.0
 11
-15611.682914008308
 21
-10750.858485776778
 31
0.0
  0
ARC
  5
5A
100
AcDbEntity
  8
FREI
  6
CONTINUOUS
 62
          15
100
AcDbCircle
 10
-15614.640495544099
 20
-10767.341090821741
 30
0.0
 40
1.357844916823
100
AcDbArc
 50
258.667060351511
 51
18.608604704482
  0
ARC
  5
5B
100
AcDbEntity
  8
FREI
  6
CONTINUOUS
 62
          15
100
AcDbCircle
 10
-15608.522508087375
 20
-10772.730989838728
 30
0.0
 40
2.716455679623
100
AcDbArc
 50
258.669531649356
 51
302.413090928363
  0
LINE
  5
5C
100
AcDbEntity
  8
FREI
  6
CONTINUOUS
 62
          15
100
AcDbLine
 10
-15617.784313364837
 20
-10753.775766993338
 30
0.0
 11
-15613.351799905116
 21
-10766.907181356542
 31
0.0
  0
ARC
  5
5D
100
AcDbEntity
  8
FREI
  6
CONTINUOUS
 62
          15
100
AcDbCircle
 10
-15622.912629326844
 20
-10774.000314621793
 30
0.0
 40
1.357844916823
100
AcDbArc
 50
78.603100952973
 51
198.685618161791
  0
ARC
  5
5E
100
AcDbEntity
  8
FREI
  6
CONTINUOUS
 62
          15
100
AcDbCircle
 10
-15629.030616783568
 20
-10768.610415604806
 30
0.0
 40
2.716455679623
100
AcDbArc
 50
78.637401704415
 51
198.634226065905
  0
LINE
  5
5F
100
AcDbEntity
  8
FREI
  6
CONTINUOUS
 62
          15
100
AcDbLine
 10
-15622.643259961833
 20
-10772.664018176038
 30
0.0
 11
-15609.05565262351
 21
-10775.391751886982
 31
0.0
  0
LINE
  5
60
100
AcDbEntity
  8
FREI
  6
CONTINUOUS
 62
          15
100
AcDbLine
 10
-15614.908338479963
 20
-10768.677514130803
 30
0.0
 11
-15628.495945818288
 21
-10765.949780419858
 31
0.0
  0
LINE
  5
61
100
AcDbEntity
  8
FREI
  6
CONTINUOUS
 62
          15
100
AcDbLine
 10
-15628.728980318367
 20
-10784.380235399283
 30
0.0
 11
-15642.315061227544
 21
-10781.652628551641
 31
0.0
  0
LINE
  5
62
100
AcDbEntity
  8
FREI
  6
CONTINUOUS
 62
          15
100
AcDbLine
 10
-15636.463901800236
 20
-10788.366739444511
 30
0.0
 11
-15622.876294461914
 21
-10791.094473155459
 31
0.0
  0
ARC
  5
63
100
AcDbEntity
  8
FREI
  6
CONTINUOUS
 62
          15
100
AcDbCircle
 10
-15642.849732192823
 20
-10784.313263736589
 30
0.0
 40
2.716455679623
100
AcDbArc
 50
78.637401704415
 51
198.634226065905
  0
ARC
  5
64
100
AcDbEntity
  8
FREI
  6
CONTINUOUS
 62
          15
100
AcDbCircle
 10
-15636.7317447361
 20
-10789.703162753576
 30
0.0
 40
1.357844916823
100
AcDbArc
 50
78.667055344222
 51
198.659895497622
  0
LINE
  5
65
100
AcDbEntity
  8
FREI
  6
CONTINUOUS
 62
          15
100
AcDbLine
 10
-15631.60495520324
 20
-10769.478488261819
 30
0.0
 11
-15627.172441743516
 21
-10782.609902625019
 31
0.0
  0
LINE
  5
66
100
AcDbEntity
  8
FREI
  6
CONTINUOUS
 62
          15
100
AcDbLine
 10
-15619.765758647813
 20
-10787.565892176804
 30
0.0
 11
-15624.196745678384
 21
-10774.43460467691
 31
0.0
  0
ARC
  5
67
100
AcDbEntity
  8
FREI
  6
CONTINUOUS
 62
          15
100
AcDbCircle
 10
-15622.341623496632
 20
-10788.433837970511
 30
0.0
 40
2.716455679623
100
AcDbArc
 50
258.637406711703
 51
18.621406255528
  0
ARC
  5
68
100
AcDbEntity
  8
FREI
  6
CONTINUOUS
 62
          15
100
AcDbCircle
 10
-15628.461137382501
 20
-10783.043812090218
 30
0.0
 40
1.357844916823
100
AcDbArc
 50
258.667060351511
 51
18.608604704482
  0
LINE
  5
69
100
AcDbEntity
  8
FREI
  6
CONTINUOUS
 62
          15
100
AcDbLine
 10
-15642.549622156772
 20
-10800.08295666776
 30
0.0
 11
-15656.135703065944
 21
-10797.355349820122
 31
0.0
  0
LINE
  5
6A
100
AcDbEntity
  8
FREI
  6
CONTINUOUS
 62
          15
100
AcDbLine
 10
-15650.28454363864
 20
-10804.069460712992
 30
0.0
 11
-15636.696936300315
 21
-10806.79719442394
 31
0.0
  0
ARC
  5
6B
100
AcDbEntity
  8
FREI
  6
CONTINUOUS
 62
          15
100
AcDbCircle
 10
-15656.670374031226
 20
-10800.01598500507
 30
0.0
 40
2.716455679623
100
AcDbArc
 50
78.637401704415
 51
198.634226065905
  0
ARC
  5
6C
100
AcDbEntity
  8
FREI
  6
CONTINUOUS
 62
          15
100
AcDbCircle
 10
-15650.552386574504
 20
-10805.405884022057
 30
0.0
 40
1.357844916823
100
AcDbArc
 50
78.667055344222
 51
198.659895497622
  0
LINE
  5
6D
100
AcDbEntity
  8
FREI
  6
CONTINUOUS
 62
          15
100
AcDbLine
 10
-15645.424070612495
 20
-10785.181336393602
 30
0.0
 11
-15640.99308358192
 21
-10798.312623893496
 31
0.0
  0
LINE
  5
6E
100
AcDbEntity
  8
FREI
  6
CONTINUOUS
 62
          15
100
AcDbLine
 10
-15633.586400486216
 20
-10803.268613445285
 30
0.0
 11
-15638.017387516787
 21
-10790.13732594539
 31
0.0
  0
ARC
  5
6F
100
AcDbEntity
  8
FREI
  6
CONTINUOUS
 62
          15
100
AcDbCircle
 10
-15636.162265335037
 20
-10804.136559238988
 30
0.0
 40
2.716455679623
100
AcDbArc
 50
258.637406711703
 51
18.621406255528
  0
ARC
  5
70
100
AcDbEntity
  8
FREI
  6
CONTINUOUS
 62
          15
100
AcDbCircle
 10
-15642.282286674128
 20
-10798.752639075286
 30
0.0
 40
1.357844916823
100
AcDbArc
 50
258.637406711703
 51
18.845177758969
  0
ARC
  5
71
100
AcDbEntity
  8
FREI
  6
CONTINUOUS
 62
          15
100
AcDbCircle
 10
-15656.102928512533
 20
-10814.455360343763
 30
0.0
 40
1.357844916823
100
AcDbArc
 50
258.637406711703
 51
18.845177758969
  0
ARC
  5
72
100
AcDbEntity
  8
FREI
  6
CONTINUOUS
 62
          15
100
AcDbCircle
 10
-15649.982907173437
 20
-10819.839280507469
 30
0.0
 40
2.716455679623
100
AcDbArc
 50
258.637406711703
 51
18.621406255528
  0
LINE
  5
73
100
AcDbEntity
  8
FREI
  6
CONTINUOUS
 62
          15
100
AcDbLine
 10
-15647.407042324618
 20
-10818.971334713762
 30
0.0
 11
-15651.838029355195
 21
-10805.840047213864
 31
0.0
  0
LINE
  5
74
100
AcDbEntity
  8
FREI
  6
CONTINUOUS
 62
          15
100
AcDbLine
 10
-15659.244712450898
 20
-10800.884057662075
 30
0.0
 11
-15654.813725420325
 21
-10814.015345161974
 31
0.0
  0
ARC
  5
75
100
AcDbEntity
  8
FREI
  6
CONTINUOUS
 62
          15
100
AcDbCircle
 10
-15666.876839728227
 20
-10834.92385139531
 30
0.0
 40
5.4344430512
100
AcDbArc
 50
318.637481348987
 51
18.634221057158
  0
ARC
  5
76
100
AcDbEntity
  8
FREI
  6
CONTINUOUS
 62
          15
100
AcDbCircle
 10
-15673.029526877594
 20
-10833.687043180813
 30
0.0
 40
5.4344430512
100
AcDbArc
 50
318.637481348987
 51
18.634221057158
  0
ARC
  5
77
100
AcDbEntity
  8
FREI
  6
CONTINUOUS
 62
          15
100
AcDbCircle
 10
-15664.373028412905
 20
-10821.10860529053
 30
0.0
 40
1.357844916823
100
AcDbArc
 50
78.667055344222
 51
198.685618161791
  0
ARC
  5
78
100
AcDbEntity
  8
FREI
  6
CONTINUOUS
 62
          15
100
AcDbCircle
 10
-15670.491015869629
 20
-10815.718706273539
 30
0.0
 40
2.716455679623
100
AcDbArc
 50
78.637401704415
 51
198.752718090275
  0
LINE
  5
79
100
AcDbEntity
  8
FREI
  6
CONTINUOUS
 62
          15
100
AcDbLine
 10
-15664.105185477041
 20
-10819.772181981469
 30
0.0
 11
-15650.517578138719
 21
-10822.499915692417
 31
0.0
  0
LINE
  5
7A
100
AcDbEntity
  8
FREI
  6
CONTINUOUS
 62
          15
100
AcDbLine
 10
-15656.370263995172
 20
-10815.785677936234
 30
0.0
 11
-15669.956344904349
 21
-10813.058071088599
 31
0.0
  0
LINE
  5
7B
100
AcDbEntity
  8
FREI
  6
CONTINUOUS
 62
          15
100
AcDbLine
 10
-15673.065861742527
 20
-10816.592884647143
 30
0.0
 11
-15667.880850038249
 21
-10831.950897866787
 31
0.0
  0
LINE
  5
7C
100
AcDbEntity
  8
FREI
  6
CONTINUOUS
 62
          15
100
AcDbLine
 10
-15661.728162888887
 20
-10833.187706081288
 30
0.0
 11
-15665.657144764447
 21
-10821.54289534565
 31
0.0
  0
LINE
  5
7D
100
AcDbEntity
  8
FREI
  6
CONTINUOUS
 62
          15
100
AcDbLine
 10
-15662.798012272671
 20
-10838.515082167771
 30
0.0
 11
-15673.731427433131
 21
-10850.935022314508
 31
0.0
  0
LINE
  5
7E
100
AcDbEntity
  8
FREI
  6
CONTINUOUS
 62
          15
100
AcDbLine
 10
-15676.759844975541
 20
-10846.152330878042
 30
0.0
 11
-15668.950699422034
 21
-10837.27827395327
 31
0.0
  0
LINE
  5
7F
100
AcDbEntity
  8
FREI
  6
CONTINUOUS
 62
          15
100
AcDbLine
 10
-15681.283629604188
 20
-10836.745101074262
 30
0.0
 11
-15680.25138873168
 21
-10831.611331832359
 31
0.0
  0
CIRCLE
  5
80
100
AcDbEntity
  8
FREI
  6
CONTINUOUS
 62
          15
100
AcDbCircle
 10
-15682.569480305419
 20
-10843.154997639173
 30
0.0
 40
6.536878334769
  0
LINE
  5
81
100
AcDbEntity
  8
FREI
  6
GESTRICHELT
 62
          15
100
AcDbLine
 10
-15614.960750299922
 20
-10750.204891700014
 30
0.0
 11
-15611.682914008308
 21
-10750.858485776778
 31
0.0
  0
LINE
  5
82
100
AcDbEntity
  8
FREI
  6
GESTRICHELT
 62
          15
100
AcDbLine
 10
-15605.945116809411
 20
-10771.863170908331
 30
0.0
 11
-15610.377630269129
 21
-10758.731756545127
 31
0.0
  0
ARC
  5
83
100
AcDbEntity
  8
FREI
  6
GESTRICHELT
 62
          15
100
AcDbCircle
 10
-15609.091987488444
 20
-10758.297593353316
 30
0.0
 40
1.357844916823
100
AcDbArc
 50
78.667055344222
 51
198.659895497622
  0
TEXT
  5
84
100
AcDbEntity
  8
FREI
  6
CONTINUOUS
 62
          15
100
AcDbText
 10
-15871.393389301335
 20
-10902.26026475083
 30
0.0
 40
3.527777671814
  1
224-230
 41
0.899999979725
  7
GOTHICG
100
AcDbText
  0
ENDSEC
  0
SECTION
  2
OBJECTS
  0
DICTIONARY
  5
19
100
AcDbDictionary
  3
ACAD_GROUP
350
1A
  3
ACAD_MLINESTYLE
350
1B
  0
DICTIONARY
  5
1A
102
{ACAD_REACTORS
330
19
102
}
100
AcDbDictionary
  0
DICTIONARY
  5
1B
102
{ACAD_REACTORS
330
19
102
}
100
AcDbDictionary
  3
STANDARD
350
1C
  0
MLINESTYLE
  5
1C
102
{ACAD_REACTORS
330
1B
102
}
100
AcDbMlineStyle
  2
STANDARD
 70
           0
  3

 62
           0
 51
90.0
 52
90.0
 71
           2
 49
0.5
 62
         256
  6
BYLAYER
 49
-0.5
 62
         256
  6
BYLAYER
  0
ENDSEC
  0
EOF
