  0
SECTION
  2
HEADER
  9
$ACADVER
  1
AC1012
  9
$DWGCODEPAGE
  3
dos850
  9
$INSBASE
 10
0.0
 20
0.0
 30
0.0
  9
$EXTMIN
 10
-16031.255471674183
 20
-12526.110219922517
 30
0.0
  9
$EXTMAX
 10
-15446.495721721791
 20
-11950.486277780266
 30
0.0
  9
$LIMMIN
 10
-16031.255471674183
 20
-12526.110219922517
  9
$LIMMAX
 10
-15446.495721721791
 20
-11950.486277780266
  9
$ORTHOMODE
 70
           0
  9
$REGENMODE
 70
           1
  9
$FILLMODE
 70
           1
  9
$QTEXTMODE
 70
           0
  9
$MIRRTEXT
 70
           1
  9
$DRAGMODE
 70
           2
  9
$LTSCALE
 40
5.0
  9
$OSMODE
 70
           0
  9
$ATTMODE
 70
           1
  9
$TEXTSIZE
 40
0.2
  9
$TRACEWID
 40
0.05
  9
$TEXTSTYLE
  7
TXT
  9
$CLAYER
  8
0
  9
$CELTYPE
  6
CONTINUOUS
  9
$CECOLOR
 62
         256
  9
$CELTSCALE
 40
1.0
  9
$DELOBJ
 70
           1
  9
$DISPSILH
 70
           0
  9
$DIMSCALE
 40
1.0
  9
$DIMASZ
 40
3.5
  9
$DIMEXO
 40
0.0625
  9
$DIMDLI
 40
0.38
  9
$DIMRND
 40
0.0
  9
$DIMDLE
 40
0.0
  9
$DIMEXE
 40
0.18
  9
$DIMTP
 40
0.0
  9
$DIMTM
 40
0.0
  9
$DIMTXT
 40
3.5
  9
$DIMCEN
 40
0.09
  9
$DIMTSZ
 40
0.0
  9
$DIMTOL
 70
           0
  9
$DIMLIM
 70
           0
  9
$DIMTIH
 70
           1
  9
$DIMTOH
 70
           1
  9
$DIMSE1
 70
           0
  9
$DIMSE2
 70
           0
  9
$DIMTAD
 70
           0
  9
$DIMZIN
 70
           0
  9
$DIMBLK
  1

  9
$DIMASO
 70
           1
  9
$DIMSHO
 70
           1
  9
$DIMPOST
  1

  9
$DIMAPOST
  1

  9
$DIMALT
 70
           0
  9
$DIMALTD
 70
           2
  9
$DIMALTF
 40
25.4
  9
$DIMLFAC
 40
1.0
  9
$DIMTOFL
 70
           0
  9
$DIMTVP
 40
0.0
  9
$DIMTIX
 70
           0
  9
$DIMSOXD
 70
           0
  9
$DIMSAH
 70
           0
  9
$DIMBLK1
  1

  9
$DIMBLK2
  1

  9
$DIMSTYLE
  2
STANDARD
  9
$DIMCLRD
 70
           0
  9
$DIMCLRE
 70
           0
  9
$DIMCLRT
 70
           0
  9
$DIMTFAC
 40
1.0
  9
$DIMGAP
 40
0.09
  9
$DIMJUST
 70
           0
  9
$DIMSD1
 70
           0
  9
$DIMSD2
 70
           0
  9
$DIMTOLJ
 70
           1
  9
$DIMTZIN
 70
           0
  9
$DIMALTZ
 70
           0
  9
$DIMALTTZ
 70
           0
  9
$DIMFIT
 70
           3
  9
$DIMUPT
 70
           0
  9
$DIMUNIT
 70
           2
  9
$DIMDEC
 70
           4
  9
$DIMTDEC
 70
           4
  9
$DIMALTU
 70
           2
  9
$DIMALTTD
 70
           2
  9
$DIMTXSTY
  7
TXT
  9
$DIMAUNIT
 70
           0
  9
$LUNITS
 70
           2
  9
$LUPREC
 70
           3
  9
$SKETCHINC
 40
0.1
  9
$FILLETRAD
 40
0.0
  9
$AUNITS
 70
           0
  9
$AUPREC
 70
           3
  9
$MENU
  1
acad
  9
$ELEVATION
 40
0.0
  9
$PELEVATION
 40
0.0
  9
$THICKNESS
 40
0.0
  9
$LIMCHECK
 70
           0
  9
$BLIPMODE
 70
           1
  9
$CHAMFERA
 40
0.0
  9
$CHAMFERB
 40
0.0
  9
$CHAMFERC
 40
0.0
  9
$CHAMFERD
 40
0.0
  9
$SKPOLY
 70
           0
  9
$TDCREATE
 40
0.000000000
  9
$TDUPDATE
 40
0.000000000
  9
$TDINDWG
 40
0.0000000000
  9
$TDUSRTIMER
 40
0.0000000000
  9
$USRTIMER
 70
           1
  9
$ANGBASE
 50
0.0
  9
$ANGDIR
 70
           0
  9
$PDMODE
 70
           2
  9
$PDSIZE
 40
0.5
  9
$PLINEWID
 40
0.0
  9
$COORDS
 70
           0
  9
$SPLFRAME
 70
           0
  9
$SPLINETYPE
 70
           6
  9
$SPLINESEGS
 70
           8
  9
$ATTDIA
 70
           0
  9
$ATTREQ
 70
           1
  9
$HANDLING
 70
           1
  9
$HANDSEED
  5
88
  9
$SURFTAB1
 70
           6
  9
$SURFTAB2
 70
           6
  9
$SURFTYPE
 70
           6
  9
$SURFU
 70
           6
  9
$SURFV
 70
           6
  9
$UCSNAME
  2

  9
$UCSORG
 10
0.0
 20
0.0
 30
0.0
  9
$UCSXDIR
 10
1.0
 20
0.0
 30
0.0
  9
$UCSYDIR
 10
0.0
 20
1.0
 30
0.0
  9
$PUCSNAME
  2

  9
$PUCSORG
 10
0.0
 20
0.0
 30
0.0
  9
$PUCSXDIR
 10
1.0
 20
0.0
 30
0.0
  9
$PUCSYDIR
 10
0.0
 20
1.0
 30
0.0
  9
$USERI1
 70
           0
  9
$USERI2
 70
           0
  9
$USERI3
 70
           0
  9
$USERI4
 70
           0
  9
$USERI5
 70
           0
  9
$USERR1
 40
0.0
  9
$USERR2
 40
0.0
  9
$USERR3
 40
0.0
  9
$USERR4
 40
0.0
  9
$USERR5
 40
0.0
  9
$WORLDVIEW
 70
           1
  9
$SHADEDGE
 70
           3
  9
$SHADEDIF
 70
          70
  9
$TILEMODE
 70
           1
  9
$MAXACTVP
 70
          16
  9
$PINSBASE
 10
0.0
 20
0.0
 30
0.0
  9
$PLIMCHECK
 70
           0
  9
$PEXTMIN
 10
1.000000000000E+20
 20
1.000000000000E+20
 30
1.000000000000E+20
  9
$PEXTMAX
 10
-1.000000000000E+20
 20
-1.000000000000E+20
 30
-1.000000000000E+20
  9
$PLIMMIN
 10
0.0
 20
0.0
  9
$PLIMMAX
 10
12.0
 20
9.0
  9
$UNITMODE
 70
           0
  9
$VISRETAIN
 70
           0
  9
$PLINEGEN
 70
           1
  9
$PSLTSCALE
 70
           0
  9
$TREEDEPTH
 70
        3020
  9
$PICKSTYLE
 70
           1
  9
$CMLSTYLE
  2
STANDARD
  9
$CMLJUST
 70
           0
  9
$CMLSCALE
 40
1.0
  9
$SAVEIMAGES
 70
           0
  0
ENDSEC
  0
SECTION
  2
CLASSES
  0
CLASS
  1
LWPOLYLINE
  2
AcDbPolyline
  3
"AutoCAD"
 90
        0
280
           0
281
           1
  0
CLASS
  1
IMAGE
  2
AcDbRasterImage
  3
ISM
 90
      127
280
           0
281
           1
  0
CLASS
  1
OLE2FRAME
  2
AcDbOle2Frame
  3
""
 90
        0
280
           0
281
           1
  0
CLASS
  1
HATCH
  2
AcDbHatch
  3
"ACAD_SEDONA"
 90
        0
280
           0
281
           1
  0
CLASS
  1
DICTIONARYVAR
  2
AcDbDictionaryVar
  3
"AutoCAD"
 90
        0
280
           0
281
           0
  0
CLASS
  1
RASTERVARIABLES
  2
AcDbRasterVariables
  3
ISM
 90
        0
280
           0
281
           0
  0
CLASS
  1
IMAGEDEF
  2
AcDbRasterImageDef
  3
ISM
 90
        0
280
           0
281
           0
  0
CLASS
  1
IMAGEDEF_REACTOR
  2
AcDbRasterImageDefReactor
  3
ISM
 90
        1
280
           0
281
           0
  0
CLASS
  1
IDBUFFER
  2
AcDbIdBuffer
  3
"Acad"
 90
        0
280
           0
281
           0
  0
CLASS
  1
SPATIAL_FILTER
  2
AcDbSpatialFilter
  3
"Acad"
 90
        0
280
           0
281
           0
  0
CLASS
  1
XRECORD
  2
AcDbXrecord
  3
"<Built In>"
 90
        0
280
           0
281
           0
  0
ENDSEC
  0
SECTION
  2
TABLES
  0
TABLE
  2
VPORT
  5
7
100
AcDbSymbolTable
 70
           1
  0
VPORT
  5
15
100
AcDbSymbolTableRecord
100
AcDbViewportTableRecord
  2
*ACTIVE
 70
           0
 10
0.0
 20
0.0
 11
1.0
 21
1.0
 12
6.591288
 22
4.579184
 13
0.0
 23
0.0
 14
1.0
 24
1.0
 15
0.0
 25
0.0
 16
0.0
 26
0.0
 36
1.0
 17
0.0
 27
0.0
 37
0.0
 40
9.158369
 41
0.688564
 42
50.0
 43
0.0
 44
0.0
 50
0.0
 51
0.0
 71
           0
 72
         100
 73
           1
 74
           1
 75
           0
 76
           0
 77
           0
 78
           0
  0
ENDTAB
  0
TABLE
  2
LTYPE
  5
4
100
AcDbSymbolTable
 70
           5
  0
LTYPE
  5
11
100
AcDbSymbolTableRecord
100
AcDbLinetypeTableRecord
  2
BYBLOCK
 70
           0
  3

 72
          65
 73
           0
 40
0.0
  0
LTYPE
  5
12
100
AcDbSymbolTableRecord
100
AcDbLinetypeTableRecord
  2
BYLAYER
 70
           0
  3

 72
          65
 73
           0
 40
0.0
  0
LTYPE
  5
13
100
AcDbSymbolTableRecord
100
AcDbLinetypeTableRecord
  2
CONTINUOUS
 70
           0
  3
Solid line
 72
          65
 73
           0
 40
0.0
  0
LTYPE
  5
1D
100
AcDbSymbolTableRecord
100
AcDbLinetypeTableRecord
  2
GESTRICHELT
 70
           0
  3

 72
          65
 73
           2
 40
0.75
 49
0.5
 74
           0
 49
-0.25
 74
           0
  0
LTYPE
  5
1E
100
AcDbSymbolTableRecord
100
AcDbLinetypeTableRecord
  2
STRICHPUNKT
 70
           0
  3

 72
          65
 73
           4
 40
1.0
 49
0.5
 74
           0
 49
-0.25
 74
           0
 49
0.0
 74
           0
 49
-0.25
 74
           0
  0
ENDTAB
  0
TABLE
  2
LAYER
  5
2
100
AcDbSymbolTable
 70
           2
  0
LAYER
  5
14
100
AcDbSymbolTableRecord
100
AcDbLayerTableRecord
  2
0
 70
           0
 62
           7
  6
CONTINUOUS
  0
LAYER
  5
20
100
AcDbSymbolTableRecord
100
AcDbLayerTableRecord
  2
FREI
 70
           0
 62
           7
  6
CONTINUOUS
  0
ENDTAB
  0
TABLE
  2
STYLE
  5
3
100
AcDbSymbolTable
 70
           2
  0
STYLE
  5
17
100
AcDbSymbolTableRecord
100
AcDbTextStyleTableRecord
  2
TXT
 70
           0
 40
3.5
 41
1.0
 50
0.0
 71
           0
 42
3.5
  3
TXT
  4

  0
STYLE
  5
1F
100
AcDbSymbolTableRecord
100
AcDbTextStyleTableRecord
  2
GOTHICG
 70
           0
 40
3.5
 41
1.0
 50
0.0
 71
           0
 42
3.5
  3
GOTHICG
  4

  0
ENDTAB
  0
TABLE
  2
VIEW
  5
5
100
AcDbSymbolTable
 70
           0
  0
ENDTAB
  0
TABLE
  2
UCS
  5
6
100
AcDbSymbolTable
 70
           0
  0
ENDTAB
  0
TABLE
  2
APPID
  5
8
100
AcDbSymbolTable
 70
           2
  0
APPID
  5
16
100
AcDbSymbolTableRecord
100
AcDbRegAppTableRecord
  2
ACAD
 70
           0
  0
APPID
  5
21
100
AcDbSymbolTableRecord
100
AcDbRegAppTableRecord
  2
MegaCADPntStyle
 70
           0
  0
ENDTAB
  0
TABLE
  2
DIMSTYLE
  5
9
100
AcDbSymbolTable
 70
           1
  0
DIMSTYLE
105
18
100
AcDbSymbolTableRecord
100
AcDbDimStyleTableRecord
  2
STANDARD
 70
           0
  3

  4

  5

  6

  7

 40
1.0
 41
0.18
 42
0.0625
 43
0.38
 44
0.18
 45
0.0
 46
0.0
 47
0.0
 48
0.0
140
0.18
141
0.09
142
0.0
143
25.4
144
1.0
145
0.0
146
1.0
147
0.09
 71
           0
 72
           0
 73
           1
 74
           1
 75
           0
 76
           0
 77
           0
 78
           0
170
           0
171
           2
172
           0
173
           0
174
           0
175
           0
176
           0
177
           0
178
           0
270
           2
271
           4
272
           4
273
           2
274
           2
340
17
275
           0
280
           0
281
           0
282
           0
283
           1
284
           0
285
           0
286
           0
287
           0
288
           0
  0
ENDTAB
  0
TABLE
  2
BLOCK_RECORD
  5
1
100
AcDbSymbolTable
 70
           1
  0
BLOCK_RECORD
  5
A
100
AcDbSymbolTableRecord
100
AcDbBlockTableRecord
  2
*MODEL_SPACE
  0
BLOCK_RECORD
  5
B
100
AcDbSymbolTableRecord
100
AcDbBlockTableRecord
  2
*PAPER_SPACE
  0
BLOCK_RECORD
  5
22
100
AcDbSymbolTableRecord
100
AcDbBlockTableRecord
  2
ELIPPSE
  0
ENDTAB
  0
ENDSEC
  0
SECTION
  2
BLOCKS
  0
BLOCK
  5
D
100
AcDbEntity
  8
0
100
AcDbBlockBegin
  2
*MODEL_SPACE
 70
           0
 10
0.0
 20
0.0
 30
0.0
  3
*MODEL_SPACE
  1

  0
ENDBLK
  5
E
100
AcDbEntity
  8
0
100
AcDbBlockEnd
  0
BLOCK
  5
F
100
AcDbEntity
 67
           1
  8
0
100
AcDbBlockBegin
  2
*PAPER_SPACE
 70
           0
 10
0.0
 20
0.0
 30
0.0
  3
*PAPER_SPACE
  1

  0
ENDBLK
  5
10
100
AcDbEntity
 67
           1
  8
0
100
AcDbBlockEnd
  0
BLOCK
  5
83
100
AcDbEntity
  8
0
100
AcDbBlockBegin
  2
ELIPPSE
 70
          64
 10
0.0
 20
0.0
 30
0.0
  3
ELIPPSE
  1

  0
CIRCLE
  5
84
100
AcDbEntity
  8
0
  6
BYBLOCK
 62
           0
100
AcDbCircle
 10
0.0
 20
0.0
 30
0.0
 40
1.0
  0
ENDBLK
  5
85
100
AcDbEntity
  8
0
  6
BYBLOCK
 62
           0
100
AcDbBlockEnd
  0
ENDSEC
  0
SECTION
  2
ENTITIES
  0
LINE
  5
23
100
AcDbEntity
  8
FREI
  6
CONTINUOUS
 62
          15
100
AcDbLine
 10
-15639.750855066162
 20
-11950.486277780266
 30
0.0
 11
-15903.056521831877
 21
-12059.551056004315
 31
0.0
  0
LINE
  5
24
100
AcDbEntity
  8
FREI
  6
CONTINUOUS
 62
          15
100
AcDbLine
 10
-15738.875596697988
 20
-12455.918872145518
 30
0.0
 11
-15709.801388487507
 21
-12526.110219922517
 31
0.0
  0
LINE
  5
25
100
AcDbEntity
  8
FREI
  6
CONTINUOUS
 62
          15
100
AcDbLine
 10
-15903.056521831877
 20
-12059.551056004315
 30
0.0
 11
-15893.116485239652
 21
-12083.548427155747
 31
0.0
  0
LINE
  5
26
100
AcDbEntity
  8
FREI
  6
CONTINUOUS
 62
          15
100
AcDbLine
 10
-15709.801388487507
 20
-12526.110219922517
 30
0.0
 11
-15446.495721721791
 21
-12417.045441698465
 31
0.0
  0
LINE
  5
27
100
AcDbEntity
  8
FREI
  6
CONTINUOUS
 62
          15
100
AcDbLine
 10
-15446.495721721791
 20
-12417.045441698465
 30
0.0
 11
-15639.750855066162
 21
-11950.486277780266
 31
0.0
  0
LINE
  5
28
100
AcDbEntity
  8
FREI
  6
STRICHPUNKT
 62
          15
100
AcDbLine
 10
-15578.148555104648
 20
-12471.577830810489
 30
0.0
 11
-15771.40368844902
 21
-12005.018666892291
 31
0.0
  0
LINE
  5
29
100
AcDbEntity
  8
FREI
  6
STRICHPUNKT
 62
          15
100
AcDbLine
 10
-15738.875596697986
 20
-12083.548427155751
 30
0.0
 11
-15899.602638291326
 21
-12471.577830810489
 31
0.0
  0
LINE
  5
2A
100
AcDbEntity
  8
FREI
  6
CONTINUOUS
 62
          15
100
AcDbLine
 10
-15893.116485239652
 20
-12083.548427155747
 30
0.0
 11
-16031.255471674183
 21
-12417.045441698465
 31
0.0
  0
LINE
  5
2B
100
AcDbEntity
  8
FREI
  6
CONTINUOUS
 62
          15
100
AcDbLine
 10
-15738.875596697988
 20
-12455.918872145518
 30
0.0
 11
-15767.949804908467
 21
-12526.110219922517
 31
0.0
  0
LINE
  5
2C
100
AcDbEntity
  8
FREI
  6
CONTINUOUS
 62
          15
100
AcDbLine
 10
-15893.116485239652
 20
-12083.548427155747
 30
0.0
 11
-15584.634708156322
 21
-12083.548427155747
 31
0.0
  0
LINE
  5
2D
100
AcDbEntity
  8
FREI
  6
CONTINUOUS
 62
          15
100
AcDbLine
 10
-16031.255471674183
 20
-12417.045441698465
 30
0.0
 11
-15767.949804908467
 21
-12526.110219922517
 31
0.0
  0
LINE
  5
2E
100
AcDbEntity
  8
FREI
  6
CONTINUOUS
 62
          15
100
AcDbLine
 10
-15738.875596697988
 20
-12204.814274785051
 30
0.0
 11
-15738.875596697986
 21
-12083.548427155751
 31
0.0
  0
LINE
  5
2F
100
AcDbEntity
  8
FREI
  6
GESTRICHELT
 62
          15
100
AcDbLine
 10
-15738.875596697988
 20
-12227.789315697417
 30
0.0
 11
-15738.875596697988
 21
-12204.814274785051
 31
0.0
  0
LINE
  5
30
100
AcDbEntity
  8
FREI
  6
GESTRICHELT
 62
          15
100
AcDbLine
 10
-15738.875596697986
 20
-12319.495891267659
 30
0.0
 11
-15738.875596697988
 21
-12247.789315697417
 31
0.0
  0
LINE
  5
31
100
AcDbEntity
  8
FREI
  6
CONTINUOUS
 62
          15
100
AcDbLine
 10
-15738.875596697988
 20
-12455.918872145518
 30
0.0
 11
-15738.875596697986
 21
-12319.495891267659
 31
0.0
  0
CIRCLE
  5
32
100
AcDbEntity
  8
FREI
  6
CONTINUOUS
 62
          15
100
AcDbCircle
 10
-15738.875596697986
 20
-12237.789315697413
 30
0.0
 40
10.0
  0
LINE
  5
33
100
AcDbEntity
  8
FREI
  6
CONTINUOUS
 62
          15
100
AcDbLine
 10
-15714.365523370743
 20
-12275.444238107066
 30
0.0
 11
-15714.355908871828
 21
-12264.426022354655
 31
0.0
  0
LINE
  5
34
100
AcDbEntity
  8
FREI
  6
GESTRICHELT
 62
          15
100
AcDbLine
 10
-15714.373192954981
 20
-12275.445821564648
 30
0.0
 11
-15714.401245292418
 21
-12280.97951423391
 31
0.0
  0
LINE
  5
35
100
AcDbEntity
  8
FREI
  6
GESTRICHELT
 62
          15
100
AcDbLine
 10
-15714.363930365304
 20
-12237.789315697417
 30
0.0
 11
-15714.372740618046
 21
-12264.376141256569
 31
0.0
  0
LINE
  5
36
100
AcDbEntity
  8
FREI
  6
GESTRICHELT
 62
          15
100
AcDbLine
 10
-15763.390326414577
 20
-12237.195019219438
 30
0.0
 11
-15763.387541279601
 21
-12256.106085699023
 31
0.0
  0
ARC
  5
37
100
AcDbEntity
  8
FREI
  6
GESTRICHELT
 62
          15
100
AcDbCircle
 10
-15738.875596697986
 20
-12237.789315697413
 30
0.0
 40
24.511666332682
100
AcDbArc
 50
171.087470810002
 51
178.553410663232
  0
ARC
  5
38
100
AcDbEntity
  8
FREI
  6
CONTINUOUS
 62
          15
100
AcDbCircle
 10
-15738.875596697986
 20
-12237.789315697413
 30
0.0
 40
24.511666332682
100
AcDbArc
 50
109.53100178678
 51
171.087470810002
  0
ARC
  5
39
100
AcDbEntity
  8
FREI
  6
GESTRICHELT
 62
          15
100
AcDbCircle
 10
-15738.875596697986
 20
-12237.789315697413
 30
0.0
 40
24.511666332682
100
AcDbArc
 50
0.000000683099
 51
109.53100178678
  0
LINE
  5
3A
100
AcDbEntity
  8
FREI
  6
CONTINUOUS
 62
          15
100
AcDbLine
 10
-15763.387263030669
 20
-12319.495891267656
 30
0.0
 11
-15714.363930365304
 21
-12319.495891267656
 31
0.0
  0
LINE
  5
3B
100
AcDbEntity
  8
FREI
  6
CONTINUOUS
 62
          15
100
AcDbLine
 10
-15763.387263030669
 20
-12256.10620792364
 30
0.0
 11
-15763.387263030669
 21
-12319.495891267656
 31
0.0
  0
LINE
  5
3C
100
AcDbEntity
  8
FREI
  6
CONTINUOUS
 62
          15
100
AcDbLine
 10
-15714.363930365304
 20
-12319.495891267656
 30
0.0
 11
-15714.362464822916
 21
-12280.987299474633
 31
0.0
  0
ARC
  5
3D
100
AcDbEntity
  8
FREI
  6
CONTINUOUS
 62
          15
100
AcDbCircle
 10
-15669.881172806461
 20
-12136.573396020278
 30
0.0
 40
26.093904120701
100
AcDbArc
 50
22.507101035151
 51
69.812326881122
  0
ARC
  5
3E
100
AcDbEntity
  8
FREI
  6
CONTINUOUS
 62
          15
100
AcDbCircle
 10
-15618.514542083834
 20
-12260.563195247094
 30
0.0
 40
26.093904120701
100
AcDbArc
 50
335.201835748251
 51
22.507101035151
  0
LINE
  5
3F
100
AcDbEntity
  8
FREI
  6
CONTINUOUS
 62
          15
100
AcDbLine
 10
-15613.216852158692
 20
-12311.301792552626
 30
0.0
 11
-15594.827013664411
 21
-12271.507449355599
 31
0.0
  0
LINE
  5
40
100
AcDbEntity
  8
FREI
  6
CONTINUOUS
 62
          15
100
AcDbLine
 10
-15702.021865451352
 20
-12096.950619583953
 30
0.0
 11
-15660.87495877808
 21
-12112.078962428492
 31
0.0
  0
LINE
  5
41
100
AcDbEntity
  8
FREI
  6
CONTINUOUS
 62
          15
100
AcDbLine
 10
-15645.769970877878
 20
-12126.582708036025
 30
0.0
 11
-15594.403340155251
 21
-12250.572507262837
 31
0.0
  0
ARC
  5
42
100
AcDbEntity
  8
FREI
  6
CONTINUOUS
 62
          15
100
AcDbCircle
 10
-15759.006366443296
 20
-12246.132554634769
 30
0.0
 40
10.893393173657
100
AcDbArc
 50
140.165285169611
 51
264.705526113971
  0
LINE
  5
43
100
AcDbEntity
  8
FREI
  6
CONTINUOUS
 62
          15
100
AcDbLine
 10
-15696.860558407165
 20
-12154.190313869309
 30
0.0
 11
-15767.38929003195
 21
-12239.170451897404
 31
0.0
  0
LINE
  5
44
100
AcDbEntity
  8
FREI
  6
CONTINUOUS
 62
          15
100
AcDbLine
 10
-15714.443136752445
 20
-12111.75992418245
 30
0.0
 11
-15632.469227897418
 21
-12309.61399629783
 31
0.0
  0
ARC
  5
45
100
AcDbEntity
  8
FREI
  6
CONTINUOUS
 62
          15
100
AcDbCircle
 10
-15704.377353989355
 20
-12107.585267279959
 30
0.0
 40
10.893776096645
100
AcDbArc
 50
77.511072586301
 51
202.525620150222
  0
ARC
  5
46
100
AcDbEntity
  8
FREI
  6
CONTINUOUS
 62
          15
100
AcDbCircle
 10
-15622.4057596321
 20
-12305.445215317752
 30
0.0
 40
10.893776096645
100
AcDbArc
 50
202.501734733568
 51
327.488481380678
  0
LINE
  5
47
100
AcDbEntity
  8
FREI
  6
GESTRICHELT
 62
          15
100
AcDbLine
 10
-15689.790774426776
 20
-12263.570932388593
 30
0.0
 11
-15715.48863328058
 21
-12261.069178886864
 31
0.0
  0
LINE
  5
48
100
AcDbEntity
  8
FREI
  6
CONTINUOUS
 62
          15
100
AcDbLine
 10
-15689.775749867262
 20
-12263.615457865464
 30
0.0
 11
-15649.921426147426
 21
-12267.497283175897
 31
0.0
  0
LINE
  5
49
100
AcDbEntity
  8
FREI
  6
CONTINUOUS
 62
          15
100
AcDbLine
 10
-15715.461643568757
 20
-12261.113668677524
 30
0.0
 11
-15760.011138405072
 21
-12256.97503580097
 31
0.0
  0
ARC
  5
4A
100
AcDbEntity
  8
FREI
  6
CONTINUOUS
 62
          15
100
AcDbCircle
 10
-15738.875596697986
 20
-12303.155801507171
 30
0.0
 40
11.775264815914
100
AcDbArc
 50
78.645411513612
 51
318.642951543439
  0
LINE
  5
4B
100
AcDbEntity
  8
FREI
  6
GESTRICHELT
 62
          15
100
AcDbLine
 10
-15714.116858674908
 20
-12275.494621008758
 30
0.0
 11
-15712.676380387737
 21
-12275.786481804236
 31
0.0
  0
ARC
  5
4C
100
AcDbEntity
  8
FREI
  6
GESTRICHELT
 62
          15
100
AcDbCircle
 10
-15664.828624479942
 20
-12232.731793706731
 30
0.0
 40
2.716455679623
100
AcDbArc
 50
302.413090928363
 51
18.608604704482
  0
CIRCLE
  5
4D
100
AcDbEntity
  8
FREI
  6
CONTINUOUS
 62
          15
100
AcDbCircle
 10
-15648.298307442497
 20
-12200.271082657568
 30
0.0
 40
7.625528390755
  0
ARC
  5
4E
100
AcDbEntity
  8
FREI
  6
GESTRICHELT
 62
          15
100
AcDbCircle
 10
-15653.014476832434
 20
-12211.083292244522
 30
0.0
 40
2.716455679623
100
AcDbArc
 50
258.637406711703
 51
318.708608284301
  0
ARC
  5
4F
100
AcDbEntity
  8
FREI
  6
GESTRICHELT
 62
          15
100
AcDbCircle
 10
-15651.007982641539
 20
-12217.029072438254
 30
0.0
 40
2.716455679623
100
AcDbArc
 50
258.669531649356
 51
318.708608284301
  0
LINE
  5
50
100
AcDbEntity
  8
FREI
  6
GESTRICHELT
 62
          15
100
AcDbLine
 10
-15655.527315944626
 20
-12202.701181899549
 30
0.0
 11
-15659.464629439335
 21
-12204.027730029306
 31
0.0
  0
LINE
  5
51
100
AcDbEntity
  8
FREI
  6
GESTRICHELT
 62
          15
100
AcDbLine
 10
-15646.353571974683
 20
-12207.644188759023
 30
0.0
 11
-15650.973282948897
 21
-12212.875981635767
 31
0.0
  0
LINE
  5
52
100
AcDbEntity
  8
FREI
  6
GESTRICHELT
 62
          15
100
AcDbLine
 10
-15648.966788758
 20
-12218.821761829495
 30
0.0
 11
-15639.467379262715
 21
-12208.044367299783
 31
0.0
  0
ARC
  5
53
100
AcDbEntity
  8
FREI
  6
GESTRICHELT
 62
          15
100
AcDbCircle
 10
-15648.306958564157
 20
-12200.264215761141
 30
0.0
 40
11.774881892926
100
AcDbArc
 50
318.647395568672
 51
198.639402770666
  0
ARC
  5
54
100
AcDbEntity
  8
FREI
  6
CONTINUOUS
 62
          15
100
AcDbCircle
 10
-15671.516091337729
 20
-12212.908498204331
 30
0.0
 40
2.716455679623
100
AcDbArc
 50
132.795679260576
 51
198.634226065905
  0
ARC
  5
55
100
AcDbEntity
  8
FREI
  6
GESTRICHELT
 62
          15
100
AcDbCircle
 10
-15671.516091337729
 20
-12212.908498204331
 30
0.0
 40
2.716455679623
100
AcDbArc
 50
84.731670676549
 51
132.795679260576
  0
LINE
  5
56
100
AcDbEntity
  8
FREI
  6
GESTRICHELT
 62
          15
100
AcDbLine
 10
-15665.130260945141
 20
-12216.961973912254
 30
0.0
 11
-15651.541127177672
 21
-12219.689834486508
 31
0.0
  0
LINE
  5
57
100
AcDbEntity
  8
FREI
  6
GESTRICHELT
 62
          15
100
AcDbLine
 10
-15653.549147797716
 20
-12213.743927429467
 30
0.0
 11
-15667.989030400873
 21
-12210.859289644781
 31
0.0
  0
ARC
  5
58
100
AcDbEntity
  8
FREI
  6
CONTINUOUS
 62
          15
100
AcDbCircle
 10
-15670.946611936663
 20
-12227.341894689744
 30
0.0
 40
1.357844916823
100
AcDbArc
 50
258.667060351511
 51
18.608604704482
  0
ARC
  5
59
100
AcDbEntity
  8
FREI
  6
CONTINUOUS
 62
          15
100
AcDbCircle
 10
-15664.828624479942
 20
-12232.731793706731
 30
0.0
 40
2.716455679623
100
AcDbArc
 50
258.669531649356
 51
302.413090928363
  0
LINE
  5
5A
100
AcDbEntity
  8
FREI
  6
CONTINUOUS
 62
          15
100
AcDbLine
 10
-15674.090429757398
 20
-12213.776570861341
 30
0.0
 11
-15669.657916297681
 21
-12226.907985224541
 31
0.0
  0
ARC
  5
5B
100
AcDbEntity
  8
FREI
  6
CONTINUOUS
 62
          15
100
AcDbCircle
 10
-15679.21874571941
 20
-12234.001118489796
 30
0.0
 40
1.357844916823
100
AcDbArc
 50
78.603100952973
 51
198.685618161791
  0
ARC
  5
5C
100
AcDbEntity
  8
FREI
  6
CONTINUOUS
 62
          15
100
AcDbCircle
 10
-15685.336733176129
 20
-12228.611219472808
 30
0.0
 40
2.716455679623
100
AcDbArc
 50
78.637401704415
 51
198.634226065905
  0
LINE
  5
5D
100
AcDbEntity
  8
FREI
  6
CONTINUOUS
 62
          15
100
AcDbLine
 10
-15678.949376354398
 20
-12232.664822044037
 30
0.0
 11
-15665.361769016075
 21
-12235.392555754985
 31
0.0
  0
LINE
  5
5E
100
AcDbEntity
  8
FREI
  6
CONTINUOUS
 62
          15
100
AcDbLine
 10
-15671.214454872526
 20
-12228.678317998809
 30
0.0
 11
-15684.802062210849
 21
-12225.950584287861
 31
0.0
  0
LINE
  5
5F
100
AcDbEntity
  8
FREI
  6
CONTINUOUS
 62
          15
100
AcDbLine
 10
-15685.035096710933
 20
-12244.381039267282
 30
0.0
 11
-15698.621177620107
 21
-12241.653432419644
 31
0.0
  0
LINE
  5
60
100
AcDbEntity
  8
FREI
  6
CONTINUOUS
 62
          15
100
AcDbLine
 10
-15692.770018192801
 20
-12248.367543312514
 30
0.0
 11
-15679.182410854477
 21
-12251.095277023462
 31
0.0
  0
ARC
  5
61
100
AcDbEntity
  8
FREI
  6
CONTINUOUS
 62
          15
100
AcDbCircle
 10
-15699.155848585388
 20
-12244.314067604588
 30
0.0
 40
2.716455679623
100
AcDbArc
 50
78.637401704415
 51
198.634226065905
  0
ARC
  5
62
100
AcDbEntity
  8
FREI
  6
CONTINUOUS
 62
          15
100
AcDbCircle
 10
-15693.037861128665
 20
-12249.703966621579
 30
0.0
 40
1.357844916823
100
AcDbArc
 50
78.667055344222
 51
198.659895497622
  0
LINE
  5
63
100
AcDbEntity
  8
FREI
  6
CONTINUOUS
 62
          15
100
AcDbLine
 10
-15687.911071595805
 20
-12229.479292129818
 30
0.0
 11
-15683.478558136083
 21
-12242.610706493022
 31
0.0
  0
LINE
  5
64
100
AcDbEntity
  8
FREI
  6
CONTINUOUS
 62
          15
100
AcDbLine
 10
-15676.071875040376
 20
-12247.566696044811
 30
0.0
 11
-15680.502862070953
 21
-12234.435408544912
 31
0.0
  0
ARC
  5
65
100
AcDbEntity
  8
FREI
  6
CONTINUOUS
 62
          15
100
AcDbCircle
 10
-15678.647739889195
 20
-12248.434641838514
 30
0.0
 40
2.716455679623
100
AcDbArc
 50
258.637406711703
 51
18.621406255528
  0
ARC
  5
66
100
AcDbEntity
  8
FREI
  6
CONTINUOUS
 62
          15
100
AcDbCircle
 10
-15684.767253775066
 20
-12243.044615958221
 30
0.0
 40
1.357844916823
100
AcDbArc
 50
258.667060351511
 51
18.608604704482
  0
LINE
  5
67
100
AcDbEntity
  8
FREI
  6
CONTINUOUS
 62
          15
100
AcDbLine
 10
-15698.855738549335
 20
-12260.083760535759
 30
0.0
 11
-15712.441819458511
 21
-12257.356153688121
 31
0.0
  0
LINE
  5
68
100
AcDbEntity
  8
FREI
  6
CONTINUOUS
 62
          15
100
AcDbLine
 10
-15706.590660031201
 20
-12264.070264580994
 30
0.0
 11
-15693.003052692879
 21
-12266.797998291939
 31
0.0
  0
ARC
  5
69
100
AcDbEntity
  8
FREI
  6
CONTINUOUS
 62
          15
100
AcDbCircle
 10
-15712.976490423789
 20
-12260.016788873068
 30
0.0
 40
2.716455679623
100
AcDbArc
 50
78.637401704415
 51
198.634226065905
  0
ARC
  5
6A
100
AcDbEntity
  8
FREI
  6
CONTINUOUS
 62
          15
100
AcDbCircle
 10
-15706.858502967068
 20
-12265.406687890059
 30
0.0
 40
1.357844916823
100
AcDbArc
 50
78.667055344222
 51
198.659895497622
  0
LINE
  5
6B
100
AcDbEntity
  8
FREI
  6
CONTINUOUS
 62
          15
100
AcDbLine
 10
-15701.730187005061
 20
-12245.182140261601
 30
0.0
 11
-15697.299199974485
 21
-12258.313427761499
 31
0.0
  0
LINE
  5
6C
100
AcDbEntity
  8
FREI
  6
CONTINUOUS
 62
          15
100
AcDbLine
 10
-15689.892516878783
 20
-12263.269417313284
 30
0.0
 11
-15694.323503909356
 21
-12250.138129813389
 31
0.0
  0
ARC
  5
6D
100
AcDbEntity
  8
FREI
  6
CONTINUOUS
 62
          15
100
AcDbCircle
 10
-15692.4683817276
 20
-12264.137363106991
 30
0.0
 40
2.716455679623
100
AcDbArc
 50
258.637406711703
 51
18.621406255528
  0
ARC
  5
6E
100
AcDbEntity
  8
FREI
  6
CONTINUOUS
 62
          15
100
AcDbCircle
 10
-15698.588403066693
 20
-12258.753442943285
 30
0.0
 40
1.357844916823
100
AcDbArc
 50
258.637406711703
 51
18.845177758969
  0
ARC
  5
6F
100
AcDbEntity
  8
FREI
  6
CONTINUOUS
 62
          15
100
AcDbCircle
 10
-15712.409044905096
 20
-12274.456164211762
 30
0.0
 40
1.357844916823
100
AcDbArc
 50
258.637406711703
 51
18.845177758969
  0
ARC
  5
70
100
AcDbEntity
  8
FREI
  6
CONTINUOUS
 62
          15
100
AcDbCircle
 10
-15706.289023566002
 20
-12279.840084375472
 30
0.0
 40
2.716455679623
100
AcDbArc
 50
258.637406711703
 51
18.621406255528
  0
LINE
  5
71
100
AcDbEntity
  8
FREI
  6
CONTINUOUS
 62
          15
100
AcDbLine
 10
-15703.713158717184
 20
-12278.972138581765
 30
0.0
 11
-15708.144145747756
 21
-12265.840851081866
 31
0.0
  0
LINE
  5
72
100
AcDbEntity
  8
FREI
  6
CONTINUOUS
 62
          15
100
AcDbLine
 10
-15715.550828843461
 20
-12260.884861530078
 30
0.0
 11
-15711.119841812888
 21
-12274.016149029976
 31
0.0
  0
ARC
  5
73
100
AcDbEntity
  8
FREI
  6
CONTINUOUS
 62
          15
100
AcDbCircle
 10
-15723.182956120792
 20
-12294.924655263309
 30
0.0
 40
5.4344430512
100
AcDbArc
 50
318.637481348987
 51
18.634221057158
  0
ARC
  5
74
100
AcDbEntity
  8
FREI
  6
CONTINUOUS
 62
          15
100
AcDbCircle
 10
-15729.335643270158
 20
-12293.687847048812
 30
0.0
 40
5.4344430512
100
AcDbArc
 50
318.637481348987
 51
18.634221057158
  0
ARC
  5
75
100
AcDbEntity
  8
FREI
  6
CONTINUOUS
 62
          15
100
AcDbCircle
 10
-15720.679144805472
 20
-12281.109409158533
 30
0.0
 40
1.357844916823
100
AcDbArc
 50
78.667055344222
 51
198.685618161791
  0
ARC
  5
76
100
AcDbEntity
  8
FREI
  6
CONTINUOUS
 62
          15
100
AcDbCircle
 10
-15726.797132262194
 20
-12275.719510141545
 30
0.0
 40
2.716455679623
100
AcDbArc
 50
78.637401704415
 51
198.752718090275
  0
LINE
  5
77
100
AcDbEntity
  8
FREI
  6
CONTINUOUS
 62
          15
100
AcDbLine
 10
-15720.411301869604
 20
-12279.772985849471
 30
0.0
 11
-15706.823694531282
 21
-12282.500719560416
 31
0.0
  0
LINE
  5
78
100
AcDbEntity
  8
FREI
  6
CONTINUOUS
 62
          15
100
AcDbLine
 10
-15712.676380387737
 20
-12275.786481804236
 30
0.0
 11
-15726.262461296912
 21
-12273.058874956598
 31
0.0
  0
LINE
  5
79
100
AcDbEntity
  8
FREI
  6
CONTINUOUS
 62
          15
100
AcDbLine
 10
-15729.371978135088
 20
-12276.593688515146
 30
0.0
 11
-15724.186966430814
 21
-12291.95170173479
 31
0.0
  0
LINE
  5
7A
100
AcDbEntity
  8
FREI
  6
CONTINUOUS
 62
          15
100
AcDbLine
 10
-15718.03427928145
 20
-12293.18850994929
 30
0.0
 11
-15721.963261157012
 21
-12281.543699213653
 31
0.0
  0
LINE
  5
7B
100
AcDbEntity
  8
FREI
  6
CONTINUOUS
 62
          15
100
AcDbLine
 10
-15719.104128665236
 20
-12298.515886035773
 30
0.0
 11
-15730.037543825696
 21
-12310.935826182511
 31
0.0
  0
LINE
  5
7C
100
AcDbEntity
  8
FREI
  6
CONTINUOUS
 62
          15
100
AcDbLine
 10
-15733.065961368102
 20
-12306.153134746044
 30
0.0
 11
-15725.256815814599
 21
-12297.279077821277
 31
0.0
  0
LINE
  5
7D
100
AcDbEntity
  8
FREI
  6
CONTINUOUS
 62
          15
100
AcDbLine
 10
-15737.589745996753
 20
-12296.745904942265
 30
0.0
 11
-15736.557505124245
 21
-12291.612135700361
 31
0.0
  0
CIRCLE
  5
7E
100
AcDbEntity
  8
FREI
  6
CONTINUOUS
 62
          15
100
AcDbCircle
 10
-15738.875596697986
 20
-12303.155801507171
 30
0.0
 40
6.536878334769
  0
LINE
  5
7F
100
AcDbEntity
  8
FREI
  6
GESTRICHELT
 62
          15
100
AcDbLine
 10
-15671.266866692487
 20
-12210.205695568016
 30
0.0
 11
-15667.989030400873
 21
-12210.859289644781
 31
0.0
  0
LINE
  5
80
100
AcDbEntity
  8
FREI
  6
GESTRICHELT
 62
          15
100
AcDbLine
 10
-15662.251233201976
 20
-12231.863974776334
 30
0.0
 11
-15666.683746661696
 21
-12218.732560413133
 31
0.0
  0
ARC
  5
81
100
AcDbEntity
  8
FREI
  6
GESTRICHELT
 62
          15
100
AcDbCircle
 10
-15665.398103881009
 20
-12218.298397221315
 30
0.0
 40
1.357844916823
100
AcDbArc
 50
78.667055344222
 51
198.659895497622
  0
TEXT
  5
82
100
AcDbEntity
  8
FREI
  6
CONTINUOUS
 62
          15
100
AcDbText
 10
-15671.025118150104
 20
-12059.94360918016
 30
0.0
 40
3.527777671814
  1
280-230
 41
0.899999979725
  7
GOTHICG
100
AcDbText
  0
ENDSEC
  0
SECTION
  2
OBJECTS
  0
DICTIONARY
  5
19
100
AcDbDictionary
  3
ACAD_GROUP
350
1A
  3
ACAD_MLINESTYLE
350
1B
  0
DICTIONARY
  5
1A
102
{ACAD_REACTORS
330
19
102
}
100
AcDbDictionary
  0
DICTIONARY
  5
1B
102
{ACAD_REACTORS
330
19
102
}
100
AcDbDictionary
  3
STANDARD
350
1C
  0
MLINESTYLE
  5
1C
102
{ACAD_REACTORS
330
1B
102
}
100
AcDbMlineStyle
  2
STANDARD
 70
           0
  3

 62
           0
 51
90.0
 52
90.0
 71
           2
 49
0.5
 62
         256
  6
BYLAYER
 49
-0.5
 62
         256
  6
BYLAYER
  0
ENDSEC
  0
EOF
