  0
SECTION
  2
HEADER
  9
$ACADVER
  1
AC1012
  9
$DWGCODEPAGE
  3
dos850
  9
$INSBASE
 10
0.0
 20
0.0
 30
0.0
  9
$EXTMIN
 10
-14395.189613840746
 20
-6464.132102422359
 30
0.0
  9
$EXTMAX
 10
-13804.415432270511
 20
-6240.705169251226
 30
0.0
  9
$LIMMIN
 10
-14395.189613840746
 20
-6464.132102422359
  9
$LIMMAX
 10
-13804.415432270511
 20
-6240.705169251226
  9
$ORTHOMODE
 70
           0
  9
$REGENMODE
 70
           1
  9
$FILLMODE
 70
           1
  9
$QTEXTMODE
 70
           0
  9
$MIRRTEXT
 70
           1
  9
$DRAGMODE
 70
           2
  9
$LTSCALE
 40
5.0
  9
$OSMODE
 70
           0
  9
$ATTMODE
 70
           1
  9
$TEXTSIZE
 40
0.2
  9
$TRACEWID
 40
0.05
  9
$TEXTSTYLE
  7
TXT
  9
$CLAYER
  8
0
  9
$CELTYPE
  6
CONTINUOUS
  9
$CECOLOR
 62
         256
  9
$CELTSCALE
 40
1.0
  9
$DELOBJ
 70
           1
  9
$DISPSILH
 70
           0
  9
$DIMSCALE
 40
1.0
  9
$DIMASZ
 40
3.5
  9
$DIMEXO
 40
0.0625
  9
$DIMDLI
 40
0.38
  9
$DIMRND
 40
0.0
  9
$DIMDLE
 40
0.0
  9
$DIMEXE
 40
0.18
  9
$DIMTP
 40
0.0
  9
$DIMTM
 40
0.0
  9
$DIMTXT
 40
3.5
  9
$DIMCEN
 40
0.09
  9
$DIMTSZ
 40
0.0
  9
$DIMTOL
 70
           0
  9
$DIMLIM
 70
           0
  9
$DIMTIH
 70
           1
  9
$DIMTOH
 70
           1
  9
$DIMSE1
 70
           0
  9
$DIMSE2
 70
           0
  9
$DIMTAD
 70
           0
  9
$DIMZIN
 70
           0
  9
$DIMBLK
  1

  9
$DIMASO
 70
           1
  9
$DIMSHO
 70
           1
  9
$DIMPOST
  1

  9
$DIMAPOST
  1

  9
$DIMALT
 70
           0
  9
$DIMALTD
 70
           2
  9
$DIMALTF
 40
25.4
  9
$DIMLFAC
 40
1.0
  9
$DIMTOFL
 70
           0
  9
$DIMTVP
 40
0.0
  9
$DIMTIX
 70
           0
  9
$DIMSOXD
 70
           0
  9
$DIMSAH
 70
           0
  9
$DIMBLK1
  1

  9
$DIMBLK2
  1

  9
$DIMSTYLE
  2
STANDARD
  9
$DIMCLRD
 70
           0
  9
$DIMCLRE
 70
           0
  9
$DIMCLRT
 70
           0
  9
$DIMTFAC
 40
1.0
  9
$DIMGAP
 40
0.09
  9
$DIMJUST
 70
           0
  9
$DIMSD1
 70
           0
  9
$DIMSD2
 70
           0
  9
$DIMTOLJ
 70
           1
  9
$DIMTZIN
 70
           0
  9
$DIMALTZ
 70
           0
  9
$DIMALTTZ
 70
           0
  9
$DIMFIT
 70
           3
  9
$DIMUPT
 70
           0
  9
$DIMUNIT
 70
           2
  9
$DIMDEC
 70
           4
  9
$DIMTDEC
 70
           4
  9
$DIMALTU
 70
           2
  9
$DIMALTTD
 70
           2
  9
$DIMTXSTY
  7
TXT
  9
$DIMAUNIT
 70
           0
  9
$LUNITS
 70
           2
  9
$LUPREC
 70
           3
  9
$SKETCHINC
 40
0.1
  9
$FILLETRAD
 40
0.0
  9
$AUNITS
 70
           0
  9
$AUPREC
 70
           3
  9
$MENU
  1
acad
  9
$ELEVATION
 40
0.0
  9
$PELEVATION
 40
0.0
  9
$THICKNESS
 40
0.0
  9
$LIMCHECK
 70
           0
  9
$BLIPMODE
 70
           1
  9
$CHAMFERA
 40
0.0
  9
$CHAMFERB
 40
0.0
  9
$CHAMFERC
 40
0.0
  9
$CHAMFERD
 40
0.0
  9
$SKPOLY
 70
           0
  9
$TDCREATE
 40
0.000000000
  9
$TDUPDATE
 40
0.000000000
  9
$TDINDWG
 40
0.0000000000
  9
$TDUSRTIMER
 40
0.0000000000
  9
$USRTIMER
 70
           1
  9
$ANGBASE
 50
0.0
  9
$ANGDIR
 70
           0
  9
$PDMODE
 70
           2
  9
$PDSIZE
 40
0.5
  9
$PLINEWID
 40
0.0
  9
$COORDS
 70
           0
  9
$SPLFRAME
 70
           0
  9
$SPLINETYPE
 70
           6
  9
$SPLINESEGS
 70
           8
  9
$ATTDIA
 70
           0
  9
$ATTREQ
 70
           1
  9
$HANDLING
 70
           1
  9
$HANDSEED
  5
3AB
  9
$SURFTAB1
 70
           6
  9
$SURFTAB2
 70
           6
  9
$SURFTYPE
 70
           6
  9
$SURFU
 70
           6
  9
$SURFV
 70
           6
  9
$UCSNAME
  2

  9
$UCSORG
 10
0.0
 20
0.0
 30
0.0
  9
$UCSXDIR
 10
1.0
 20
0.0
 30
0.0
  9
$UCSYDIR
 10
0.0
 20
1.0
 30
0.0
  9
$PUCSNAME
  2

  9
$PUCSORG
 10
0.0
 20
0.0
 30
0.0
  9
$PUCSXDIR
 10
1.0
 20
0.0
 30
0.0
  9
$PUCSYDIR
 10
0.0
 20
1.0
 30
0.0
  9
$USERI1
 70
           0
  9
$USERI2
 70
           0
  9
$USERI3
 70
           0
  9
$USERI4
 70
           0
  9
$USERI5
 70
           0
  9
$USERR1
 40
0.0
  9
$USERR2
 40
0.0
  9
$USERR3
 40
0.0
  9
$USERR4
 40
0.0
  9
$USERR5
 40
0.0
  9
$WORLDVIEW
 70
           1
  9
$SHADEDGE
 70
           3
  9
$SHADEDIF
 70
          70
  9
$TILEMODE
 70
           1
  9
$MAXACTVP
 70
          16
  9
$PINSBASE
 10
0.0
 20
0.0
 30
0.0
  9
$PLIMCHECK
 70
           0
  9
$PEXTMIN
 10
1.000000000000E+20
 20
1.000000000000E+20
 30
1.000000000000E+20
  9
$PEXTMAX
 10
-1.000000000000E+20
 20
-1.000000000000E+20
 30
-1.000000000000E+20
  9
$PLIMMIN
 10
0.0
 20
0.0
  9
$PLIMMAX
 10
12.0
 20
9.0
  9
$UNITMODE
 70
           0
  9
$VISRETAIN
 70
           0
  9
$PLINEGEN
 70
           1
  9
$PSLTSCALE
 70
           0
  9
$TREEDEPTH
 70
        3020
  9
$PICKSTYLE
 70
           1
  9
$CMLSTYLE
  2
STANDARD
  9
$CMLJUST
 70
           0
  9
$CMLSCALE
 40
1.0
  9
$SAVEIMAGES
 70
           0
  0
ENDSEC
  0
SECTION
  2
CLASSES
  0
CLASS
  1
LWPOLYLINE
  2
AcDbPolyline
  3
"AutoCAD"
 90
        0
280
           0
281
           1
  0
CLASS
  1
IMAGE
  2
AcDbRasterImage
  3
ISM
 90
      127
280
           0
281
           1
  0
CLASS
  1
OLE2FRAME
  2
AcDbOle2Frame
  3
""
 90
        0
280
           0
281
           1
  0
CLASS
  1
HATCH
  2
AcDbHatch
  3
"ACAD_SEDONA"
 90
        0
280
           0
281
           1
  0
CLASS
  1
DICTIONARYVAR
  2
AcDbDictionaryVar
  3
"AutoCAD"
 90
        0
280
           0
281
           0
  0
CLASS
  1
RASTERVARIABLES
  2
AcDbRasterVariables
  3
ISM
 90
        0
280
           0
281
           0
  0
CLASS
  1
IMAGEDEF
  2
AcDbRasterImageDef
  3
ISM
 90
        0
280
           0
281
           0
  0
CLASS
  1
IMAGEDEF_REACTOR
  2
AcDbRasterImageDefReactor
  3
ISM
 90
        1
280
           0
281
           0
  0
CLASS
  1
IDBUFFER
  2
AcDbIdBuffer
  3
"Acad"
 90
        0
280
           0
281
           0
  0
CLASS
  1
SPATIAL_FILTER
  2
AcDbSpatialFilter
  3
"Acad"
 90
        0
280
           0
281
           0
  0
CLASS
  1
XRECORD
  2
AcDbXrecord
  3
"<Built In>"
 90
        0
280
           0
281
           0
  0
ENDSEC
  0
SECTION
  2
TABLES
  0
TABLE
  2
VPORT
  5
7
100
AcDbSymbolTable
 70
           1
  0
VPORT
  5
15
100
AcDbSymbolTableRecord
100
AcDbViewportTableRecord
  2
*ACTIVE
 70
           0
 10
0.0
 20
0.0
 11
1.0
 21
1.0
 12
6.591288
 22
4.579184
 13
0.0
 23
0.0
 14
1.0
 24
1.0
 15
0.0
 25
0.0
 16
0.0
 26
0.0
 36
1.0
 17
0.0
 27
0.0
 37
0.0
 40
9.158369
 41
0.688564
 42
50.0
 43
0.0
 44
0.0
 50
0.0
 51
0.0
 71
           0
 72
         100
 73
           1
 74
           1
 75
           0
 76
           0
 77
           0
 78
           0
  0
ENDTAB
  0
TABLE
  2
LTYPE
  5
4
100
AcDbSymbolTable
 70
           5
  0
LTYPE
  5
11
100
AcDbSymbolTableRecord
100
AcDbLinetypeTableRecord
  2
BYBLOCK
 70
           0
  3

 72
          65
 73
           0
 40
0.0
  0
LTYPE
  5
12
100
AcDbSymbolTableRecord
100
AcDbLinetypeTableRecord
  2
BYLAYER
 70
           0
  3

 72
          65
 73
           0
 40
0.0
  0
LTYPE
  5
13
100
AcDbSymbolTableRecord
100
AcDbLinetypeTableRecord
  2
CONTINUOUS
 70
           0
  3
Solid line
 72
          65
 73
           0
 40
0.0
  0
LTYPE
  5
1D
100
AcDbSymbolTableRecord
100
AcDbLinetypeTableRecord
  2
GESTRICHELT
 70
           0
  3

 72
          65
 73
           2
 40
0.75
 49
0.5
 74
           0
 49
-0.25
 74
           0
  0
LTYPE
  5
1E
100
AcDbSymbolTableRecord
100
AcDbLinetypeTableRecord
  2
STRICHPUNKT
 70
           0
  3

 72
          65
 73
           4
 40
1.0
 49
0.5
 74
           0
 49
-0.25
 74
           0
 49
0.0
 74
           0
 49
-0.25
 74
           0
  0
ENDTAB
  0
TABLE
  2
LAYER
  5
2
100
AcDbSymbolTable
 70
           3
  0
LAYER
  5
14
100
AcDbSymbolTableRecord
100
AcDbLayerTableRecord
  2
0
 70
           0
 62
           7
  6
CONTINUOUS
  0
LAYER
  5
20
100
AcDbSymbolTableRecord
100
AcDbLayerTableRecord
  2
FREI
 70
           0
 62
           7
  6
CONTINUOUS
  0
LAYER
  5
21
100
AcDbSymbolTableRecord
100
AcDbLayerTableRecord
  2
Frei
 70
           0
 62
           7
  6
CONTINUOUS
  0
ENDTAB
  0
TABLE
  2
STYLE
  5
3
100
AcDbSymbolTable
 70
           2
  0
STYLE
  5
17
100
AcDbSymbolTableRecord
100
AcDbTextStyleTableRecord
  2
TXT
 70
           0
 40
3.5
 41
1.0
 50
0.0
 71
           0
 42
3.5
  3
TXT
  4

  0
STYLE
  5
1F
100
AcDbSymbolTableRecord
100
AcDbTextStyleTableRecord
  2
GOTHICG
 70
           0
 40
3.5
 41
1.0
 50
0.0
 71
           0
 42
3.5
  3
GOTHICG
  4

  0
ENDTAB
  0
TABLE
  2
VIEW
  5
5
100
AcDbSymbolTable
 70
           0
  0
ENDTAB
  0
TABLE
  2
UCS
  5
6
100
AcDbSymbolTable
 70
           0
  0
ENDTAB
  0
TABLE
  2
APPID
  5
8
100
AcDbSymbolTable
 70
           2
  0
APPID
  5
16
100
AcDbSymbolTableRecord
100
AcDbRegAppTableRecord
  2
ACAD
 70
           0
  0
APPID
  5
22
100
AcDbSymbolTableRecord
100
AcDbRegAppTableRecord
  2
MegaCADPntStyle
 70
           0
  0
ENDTAB
  0
TABLE
  2
DIMSTYLE
  5
9
100
AcDbSymbolTable
 70
           1
  0
DIMSTYLE
105
18
100
AcDbSymbolTableRecord
100
AcDbDimStyleTableRecord
  2
STANDARD
 70
           0
  3

  4

  5

  6

  7

 40
1.0
 41
0.18
 42
0.0625
 43
0.38
 44
0.18
 45
0.0
 46
0.0
 47
0.0
 48
0.0
140
0.18
141
0.09
142
0.0
143
25.4
144
1.0
145
0.0
146
1.0
147
0.09
 71
           0
 72
           0
 73
           1
 74
           1
 75
           0
 76
           0
 77
           0
 78
           0
170
           0
171
           2
172
           0
173
           0
174
           0
175
           0
176
           0
177
           0
178
           0
270
           2
271
           4
272
           4
273
           2
274
           2
340
17
275
           0
280
           0
281
           0
282
           0
283
           1
284
           0
285
           0
286
           0
287
           0
288
           0
  0
ENDTAB
  0
TABLE
  2
BLOCK_RECORD
  5
1
100
AcDbSymbolTable
 70
           3
  0
BLOCK_RECORD
  5
A
100
AcDbSymbolTableRecord
100
AcDbBlockTableRecord
  2
*MODEL_SPACE
  0
BLOCK_RECORD
  5
B
100
AcDbSymbolTableRecord
100
AcDbBlockTableRecord
  2
*PAPER_SPACE
  0
BLOCK_RECORD
  5
23
100
AcDbSymbolTableRecord
100
AcDbBlockTableRecord
  2
ELIPPSE
  0
BLOCK_RECORD
  5
24
100
AcDbSymbolTableRecord
100
AcDbBlockTableRecord
  2
MAK1
  0
BLOCK_RECORD
  5
25
100
AcDbSymbolTableRecord
100
AcDbBlockTableRecord
  2
MAK2
  0
ENDTAB
  0
ENDSEC
  0
SECTION
  2
BLOCKS
  0
BLOCK
  5
D
100
AcDbEntity
  8
0
100
AcDbBlockBegin
  2
*MODEL_SPACE
 70
           0
 10
0.0
 20
0.0
 30
0.0
  3
*MODEL_SPACE
  1

  0
ENDBLK
  5
E
100
AcDbEntity
  8
0
100
AcDbBlockEnd
  0
BLOCK
  5
F
100
AcDbEntity
 67
           1
  8
0
100
AcDbBlockBegin
  2
*PAPER_SPACE
 70
           0
 10
0.0
 20
0.0
 30
0.0
  3
*PAPER_SPACE
  1

  0
ENDBLK
  5
10
100
AcDbEntity
 67
           1
  8
0
100
AcDbBlockEnd
  0
BLOCK
  5
34F
100
AcDbEntity
  8
0
100
AcDbBlockBegin
  2
ELIPPSE
 70
          64
 10
0.0
 20
0.0
 30
0.0
  3
ELIPPSE
  1

  0
CIRCLE
  5
350
100
AcDbEntity
  8
0
  6
BYBLOCK
 62
           0
100
AcDbCircle
 10
0.0
 20
0.0
 30
0.0
 40
1.0
  0
ENDBLK
  5
351
100
AcDbEntity
  8
0
  6
BYBLOCK
 62
           0
100
AcDbBlockEnd
  0
BLOCK
  5
352
100
AcDbEntity
  8
0
100
AcDbBlockBegin
  2
MAK1
 70
          64
 10
0.0
 20
0.0
 30
0.0
  3
MAK1
  1

  0
LINE
  5
353
100
AcDbEntity
  8
Frei
  6
CONTINUOUS
 62
           2
100
AcDbLine
 10
191.903508353415
 20
615.106916893557
 30
0.0
 11
192.293358480832
 21
615.496767020978
 31
0.0
  0
LINE
  5
354
100
AcDbEntity
  8
Frei
  6
CONTINUOUS
 62
           2
100
AcDbLine
 10
191.903508353415
 20
614.046256721777
 30
0.0
 11
193.354018652612
 21
615.496767020976
 31
0.0
  0
LINE
  5
355
100
AcDbEntity
  8
Frei
  6
CONTINUOUS
 62
           2
100
AcDbLine
 10
191.903508353415
 20
612.985596549997
 30
0.0
 11
193.903508353416
 21
614.985596549998
 31
0.0
  0
LINE
  5
356
100
AcDbEntity
  8
Frei
  6
CONTINUOUS
 62
           2
100
AcDbLine
 10
191.903508353415
 20
611.924936378219
 30
0.0
 11
193.903508353415
 21
613.924936378216
 31
0.0
  0
LINE
  5
357
100
AcDbEntity
  8
Frei
  6
CONTINUOUS
 62
           2
100
AcDbLine
 10
191.903508353416
 20
610.864276206439
 30
0.0
 11
193.903508353416
 21
612.864276206439
 31
0.0
  0
LINE
  5
358
100
AcDbEntity
  8
Frei
  6
CONTINUOUS
 62
           2
100
AcDbLine
 10
191.903508353416
 20
609.803616034659
 30
0.0
 11
193.903508353416
 21
611.80361603466
 31
0.0
  0
LINE
  5
359
100
AcDbEntity
  8
Frei
  6
CONTINUOUS
 62
           2
100
AcDbLine
 10
191.903508353413
 20
608.742955862879
 30
0.0
 11
193.903508353413
 21
610.742955862878
 31
0.0
  0
LINE
  5
35A
100
AcDbEntity
  8
Frei
  6
CONTINUOUS
 62
           2
100
AcDbLine
 10
191.903508353416
 20
607.682295691099
 30
0.0
 11
193.903508353413
 21
609.682295691098
 31
0.0
  0
LINE
  5
35B
100
AcDbEntity
  8
Frei
  6
CONTINUOUS
 62
           2
100
AcDbLine
 10
191.903508353415
 20
606.621635519319
 30
0.0
 11
193.903508353415
 21
608.621635519318
 31
0.0
  0
LINE
  5
35C
100
AcDbEntity
  8
Frei
  6
CONTINUOUS
 62
           2
100
AcDbLine
 10
191.903508353415
 20
605.56097534754
 30
0.0
 11
193.903508353415
 21
607.56097534754
 31
0.0
  0
LINE
  5
35D
100
AcDbEntity
  8
Frei
  6
CONTINUOUS
 62
           2
100
AcDbLine
 10
191.903508353411
 20
604.500315175758
 30
0.0
 11
193.903508353415
 21
606.500315175759
 31
0.0
  0
LINE
  5
35E
100
AcDbEntity
  8
Frei
  6
CONTINUOUS
 62
           2
100
AcDbLine
 10
191.903508353415
 20
603.439655003979
 30
0.0
 11
193.903508353415
 21
605.439655003979
 31
0.0
  0
LINE
  5
35F
100
AcDbEntity
  8
Frei
  6
CONTINUOUS
 62
           2
100
AcDbLine
 10
191.903508353416
 20
602.3789948322
 30
0.0
 11
193.903508353416
 21
604.3789948322
 31
0.0
  0
LINE
  5
360
100
AcDbEntity
  8
Frei
  6
CONTINUOUS
 62
           2
100
AcDbLine
 10
191.903508353415
 20
601.31833466042
 30
0.0
 11
193.903508353415
 21
603.31833466042
 31
0.0
  0
LINE
  5
361
100
AcDbEntity
  8
Frei
  6
CONTINUOUS
 62
           2
100
AcDbLine
 10
191.903508353413
 20
600.25767448864
 30
0.0
 11
193.903508353413
 21
602.257674488641
 31
0.0
  0
LINE
  5
362
100
AcDbEntity
  8
Frei
  6
CONTINUOUS
 62
           2
100
AcDbLine
 10
191.903508353413
 20
599.197014316862
 30
0.0
 11
193.903508353413
 21
601.197014316861
 31
0.0
  0
LINE
  5
363
100
AcDbEntity
  8
Frei
  6
CONTINUOUS
 62
           2
100
AcDbLine
 10
191.903508353415
 20
598.136354145082
 30
0.0
 11
193.903508353415
 21
600.136354145082
 31
0.0
  0
LINE
  5
364
100
AcDbEntity
  8
Frei
  6
CONTINUOUS
 62
           2
100
AcDbLine
 10
191.903508353416
 20
597.075693973302
 30
0.0
 11
193.903508353413
 21
599.075693973301
 31
0.0
  0
LINE
  5
365
100
AcDbEntity
  8
Frei
  6
CONTINUOUS
 62
           2
100
AcDbLine
 10
191.903508353415
 20
596.015033801523
 30
0.0
 11
193.903508353413
 21
598.015033801521
 31
0.0
  0
LINE
  5
366
100
AcDbEntity
  8
Frei
  6
CONTINUOUS
 62
           2
100
AcDbLine
 10
192.445901744646
 20
595.496767020974
 30
0.0
 11
193.903508353415
 21
596.954373629743
 31
0.0
  0
LINE
  5
367
100
AcDbEntity
  8
Frei
  6
CONTINUOUS
 62
           2
100
AcDbLine
 10
193.506561916427
 20
595.496767020977
 30
0.0
 11
193.903508353418
 21
595.893713457963
 31
0.0
  0
LINE
  5
368
100
AcDbEntity
  8
Frei
  6
CONTINUOUS
 62
           2
100
AcDbLine
 10
192.573740611435
 20
595.496767020977
 30
0.0
 11
191.903508353416
 21
596.166999278995
 31
0.0
  0
LINE
  5
369
100
AcDbEntity
  8
Frei
  6
CONTINUOUS
 62
           2
100
AcDbLine
 10
193.63440078321
 20
595.496767020975
 30
0.0
 11
191.903508353415
 21
597.227659450775
 31
0.0
  0
LINE
  5
36A
100
AcDbEntity
  8
Frei
  6
CONTINUOUS
 62
           2
100
AcDbLine
 10
193.903508353413
 20
596.288319622554
 30
0.0
 11
191.903508353415
 21
598.288319622555
 31
0.0
  0
LINE
  5
36B
100
AcDbEntity
  8
Frei
  6
CONTINUOUS
 62
           2
100
AcDbLine
 10
193.903508353416
 20
597.348979794334
 30
0.0
 11
191.903508353418
 21
599.348979794334
 31
0.0
  0
LINE
  5
36C
100
AcDbEntity
  8
Frei
  6
CONTINUOUS
 62
           2
100
AcDbLine
 10
193.903508353415
 20
598.409639966115
 30
0.0
 11
191.903508353415
 21
600.409639966113
 31
0.0
  0
LINE
  5
36D
100
AcDbEntity
  8
Frei
  6
CONTINUOUS
 62
           2
100
AcDbLine
 10
193.903508353411
 20
599.470300137894
 30
0.0
 11
191.903508353413
 21
601.470300137892
 31
0.0
  0
LINE
  5
36E
100
AcDbEntity
  8
Frei
  6
CONTINUOUS
 62
           2
100
AcDbLine
 10
193.903508353415
 20
600.530960309672
 30
0.0
 11
191.903508353413
 21
602.530960309672
 31
0.0
  0
LINE
  5
36F
100
AcDbEntity
  8
Frei
  6
CONTINUOUS
 62
           2
100
AcDbLine
 10
193.903508353415
 20
601.591620481452
 30
0.0
 11
191.903508353415
 21
603.591620481454
 31
0.0
  0
LINE
  5
370
100
AcDbEntity
  8
Frei
  6
CONTINUOUS
 62
           2
100
AcDbLine
 10
193.903508353413
 20
602.652280653234
 30
0.0
 11
191.903508353416
 21
604.652280653235
 31
0.0
  0
LINE
  5
371
100
AcDbEntity
  8
Frei
  6
CONTINUOUS
 62
           2
100
AcDbLine
 10
193.903508353415
 20
603.712940825014
 30
0.0
 11
191.903508353413
 21
605.712940825014
 31
0.0
  0
LINE
  5
372
100
AcDbEntity
  8
Frei
  6
CONTINUOUS
 62
           2
100
AcDbLine
 10
193.903508353413
 20
604.77360099679
 30
0.0
 11
191.903508353415
 21
606.773600996792
 31
0.0
  0
LINE
  5
373
100
AcDbEntity
  8
Frei
  6
CONTINUOUS
 62
           2
100
AcDbLine
 10
193.903508353416
 20
605.834261168573
 30
0.0
 11
191.903508353413
 21
607.834261168573
 31
0.0
  0
LINE
  5
374
100
AcDbEntity
  8
Frei
  6
CONTINUOUS
 62
           2
100
AcDbLine
 10
193.903508353415
 20
606.894921340352
 30
0.0
 11
191.903508353415
 21
608.894921340352
 31
0.0
  0
LINE
  5
375
100
AcDbEntity
  8
Frei
  6
CONTINUOUS
 62
           2
100
AcDbLine
 10
193.903508353413
 20
607.955581512131
 30
0.0
 11
191.903508353411
 21
609.95558151213
 31
0.0
  0
LINE
  5
376
100
AcDbEntity
  8
Frei
  6
CONTINUOUS
 62
           2
100
AcDbLine
 10
193.903508353415
 20
609.016241683911
 30
0.0
 11
191.903508353415
 21
611.016241683909
 31
0.0
  0
LINE
  5
377
100
AcDbEntity
  8
Frei
  6
CONTINUOUS
 62
           2
100
AcDbLine
 10
193.903508353415
 20
610.076901855693
 30
0.0
 11
191.903508353415
 21
612.076901855691
 31
0.0
  0
LINE
  5
378
100
AcDbEntity
  8
Frei
  6
CONTINUOUS
 62
           2
100
AcDbLine
 10
193.903508353418
 20
611.13756202747
 30
0.0
 11
191.903508353413
 21
613.13756202747
 31
0.0
  0
LINE
  5
379
100
AcDbEntity
  8
Frei
  6
CONTINUOUS
 62
           2
100
AcDbLine
 10
193.903508353415
 20
612.198222199249
 30
0.0
 11
191.903508353413
 21
614.198222199249
 31
0.0
  0
LINE
  5
37A
100
AcDbEntity
  8
Frei
  6
CONTINUOUS
 62
           2
100
AcDbLine
 10
193.903508353413
 20
613.258882371029
 30
0.0
 11
191.903508353416
 21
615.258882371029
 31
0.0
  0
LINE
  5
37B
100
AcDbEntity
  8
Frei
  6
CONTINUOUS
 62
           2
100
AcDbLine
 10
193.903508353413
 20
614.319542542809
 30
0.0
 11
192.726283875249
 21
615.496767020976
 31
0.0
  0
LINE
  5
37C
100
AcDbEntity
  8
Frei
  6
CONTINUOUS
 62
           2
100
AcDbLine
 10
193.903508353415
 20
615.380202714589
 30
0.0
 11
193.786944047028
 21
615.496767020974
 31
0.0
  0
ENDBLK
  5
37D
100
AcDbEntity
  8
0
  6
BYBLOCK
 62
           0
100
AcDbBlockEnd
  0
BLOCK
  5
37E
100
AcDbEntity
  8
0
100
AcDbBlockBegin
  2
MAK2
 70
          64
 10
0.0
 20
0.0
 30
0.0
  3
MAK2
  1

  0
LINE
  5
37F
100
AcDbEntity
  8
Frei
  6
CONTINUOUS
 62
           2
100
AcDbLine
 10
-32.096491646587
 20
614.906213139099
 30
0.0
 11
-31.50593776471
 21
615.496767020977
 31
0.0
  0
LINE
  5
380
100
AcDbEntity
  8
Frei
  6
CONTINUOUS
 62
           2
100
AcDbLine
 10
-32.096491646587
 20
613.845552967321
 30
0.0
 11
-30.445277592929
 21
615.496767020977
 31
0.0
  0
LINE
  5
381
100
AcDbEntity
  8
Frei
  6
CONTINUOUS
 62
           2
100
AcDbLine
 10
-32.096491646587
 20
612.78489279554
 30
0.0
 11
-30.096491646585
 21
614.78489279554
 31
0.0
  0
LINE
  5
382
100
AcDbEntity
  8
Frei
  6
CONTINUOUS
 62
           2
100
AcDbLine
 10
-32.096491646587
 20
611.72423262376
 30
0.0
 11
-30.096491646587
 21
613.724232623759
 31
0.0
  0
LINE
  5
383
100
AcDbEntity
  8
Frei
  6
CONTINUOUS
 62
           2
100
AcDbLine
 10
-32.096491646584
 20
610.66357245198
 30
0.0
 11
-30.096491646587
 21
612.663572451979
 31
0.0
  0
LINE
  5
384
100
AcDbEntity
  8
Frei
  6
CONTINUOUS
 62
           2
100
AcDbLine
 10
-32.096491646587
 20
609.6029122802
 30
0.0
 11
-30.096491646585
 21
611.602912280202
 31
0.0
  0
LINE
  5
385
100
AcDbEntity
  8
Frei
  6
CONTINUOUS
 62
           2
100
AcDbLine
 10
-32.096491646585
 20
608.542252108422
 30
0.0
 11
-30.096491646587
 21
610.542252108421
 31
0.0
  0
LINE
  5
386
100
AcDbEntity
  8
Frei
  6
CONTINUOUS
 62
           2
100
AcDbLine
 10
-32.096491646585
 20
607.481591936641
 30
0.0
 11
-30.096491646585
 21
609.481591936641
 31
0.0
  0
LINE
  5
387
100
AcDbEntity
  8
Frei
  6
CONTINUOUS
 62
           2
100
AcDbLine
 10
-32.096491646585
 20
606.420931764862
 30
0.0
 11
-30.096491646585
 21
608.420931764861
 31
0.0
  0
LINE
  5
388
100
AcDbEntity
  8
Frei
  6
CONTINUOUS
 62
           2
100
AcDbLine
 10
-32.096491646589
 20
605.360271593082
 30
0.0
 11
-30.096491646589
 21
607.360271593083
 31
0.0
  0
LINE
  5
389
100
AcDbEntity
  8
Frei
  6
CONTINUOUS
 62
           2
100
AcDbLine
 10
-32.096491646585
 20
604.299611421303
 30
0.0
 11
-30.096491646585
 21
606.299611421303
 31
0.0
  0
LINE
  5
38A
100
AcDbEntity
  8
Frei
  6
CONTINUOUS
 62
           2
100
AcDbLine
 10
-32.096491646587
 20
603.238951249523
 30
0.0
 11
-30.096491646591
 21
605.238951249523
 31
0.0
  0
LINE
  5
38B
100
AcDbEntity
  8
Frei
  6
CONTINUOUS
 62
           2
100
AcDbLine
 10
-32.096491646587
 20
602.178291077742
 30
0.0
 11
-30.096491646587
 21
604.178291077742
 31
0.0
  0
LINE
  5
38C
100
AcDbEntity
  8
Frei
  6
CONTINUOUS
 62
           2
100
AcDbLine
 10
-32.096491646587
 20
601.117630905965
 30
0.0
 11
-30.096491646587
 21
603.117630905961
 31
0.0
  0
LINE
  5
38D
100
AcDbEntity
  8
Frei
  6
CONTINUOUS
 62
           2
100
AcDbLine
 10
-32.096491646587
 20
600.056970734183
 30
0.0
 11
-30.096491646587
 21
602.056970734183
 31
0.0
  0
LINE
  5
38E
100
AcDbEntity
  8
Frei
  6
CONTINUOUS
 62
           2
100
AcDbLine
 10
-32.096491646585
 20
598.996310562403
 30
0.0
 11
-30.096491646589
 21
600.996310562403
 31
0.0
  0
LINE
  5
38F
100
AcDbEntity
  8
Frei
  6
CONTINUOUS
 62
           2
100
AcDbLine
 10
-32.096491646587
 20
597.935650390626
 30
0.0
 11
-30.096491646589
 21
599.935650390624
 31
0.0
  0
LINE
  5
390
100
AcDbEntity
  8
Frei
  6
CONTINUOUS
 62
           2
100
AcDbLine
 10
-32.096491646585
 20
596.874990218843
 30
0.0
 11
-30.096491646589
 21
598.874990218843
 31
0.0
  0
LINE
  5
391
100
AcDbEntity
  8
Frei
  6
CONTINUOUS
 62
           2
100
AcDbLine
 10
-32.096491646585
 20
595.814330047065
 30
0.0
 11
-30.096491646585
 21
597.814330047066
 31
0.0
  0
LINE
  5
392
100
AcDbEntity
  8
Frei
  6
CONTINUOUS
 62
           2
100
AcDbLine
 10
-31.353394500895
 20
595.496767020977
 30
0.0
 11
-30.096491646587
 21
596.753669875284
 31
0.0
  0
LINE
  5
393
100
AcDbEntity
  8
Frei
  6
CONTINUOUS
 62
           2
100
AcDbLine
 10
-30.292734329112
 20
595.496767020976
 30
0.0
 11
-30.096491646589
 21
595.693009703504
 31
0.0
  0
LINE
  5
394
100
AcDbEntity
  8
Frei
  6
CONTINUOUS
 62
           2
100
AcDbLine
 10
-31.225555634112
 20
595.496767020976
 30
0.0
 11
-32.096491646589
 21
596.367703033455
 31
0.0
  0
LINE
  5
395
100
AcDbEntity
  8
Frei
  6
CONTINUOUS
 62
           2
100
AcDbLine
 10
-30.164895462327
 20
595.496767020976
 30
0.0
 11
-32.096491646585
 21
597.428363205233
 31
0.0
  0
LINE
  5
396
100
AcDbEntity
  8
Frei
  6
CONTINUOUS
 62
           2
100
AcDbLine
 10
-30.096491646589
 20
596.489023377013
 30
0.0
 11
-32.096491646589
 21
598.489023377013
 31
0.0
  0
LINE
  5
397
100
AcDbEntity
  8
Frei
  6
CONTINUOUS
 62
           2
100
AcDbLine
 10
-30.096491646589
 20
597.549683548792
 30
0.0
 11
-32.096491646587
 21
599.549683548792
 31
0.0
  0
LINE
  5
398
100
AcDbEntity
  8
Frei
  6
CONTINUOUS
 62
           2
100
AcDbLine
 10
-30.096491646589
 20
598.610343720574
 30
0.0
 11
-32.096491646585
 21
600.610343720572
 31
0.0
  0
LINE
  5
399
100
AcDbEntity
  8
Frei
  6
CONTINUOUS
 62
           2
100
AcDbLine
 10
-30.096491646587
 20
599.671003892353
 30
0.0
 11
-32.096491646584
 21
601.671003892351
 31
0.0
  0
LINE
  5
39A
100
AcDbEntity
  8
Frei
  6
CONTINUOUS
 62
           2
100
AcDbLine
 10
-30.096491646585
 20
600.731664064132
 30
0.0
 11
-32.096491646587
 21
602.731664064131
 31
0.0
  0
LINE
  5
39B
100
AcDbEntity
  8
Frei
  6
CONTINUOUS
 62
           2
100
AcDbLine
 10
-30.096491646589
 20
601.792324235912
 30
0.0
 11
-32.096491646585
 21
603.79232423591
 31
0.0
  0
LINE
  5
39C
100
AcDbEntity
  8
Frei
  6
CONTINUOUS
 62
           2
100
AcDbLine
 10
-30.096491646591
 20
602.852984407689
 30
0.0
 11
-32.096491646587
 21
604.852984407692
 31
0.0
  0
LINE
  5
39D
100
AcDbEntity
  8
Frei
  6
CONTINUOUS
 62
           2
100
AcDbLine
 10
-30.096491646589
 20
603.91364457947
 30
0.0
 11
-32.096491646585
 21
605.913644579469
 31
0.0
  0
LINE
  5
39E
100
AcDbEntity
  8
Frei
  6
CONTINUOUS
 62
           2
100
AcDbLine
 10
-30.096491646587
 20
604.97430475125
 30
0.0
 11
-32.096491646585
 21
606.97430475125
 31
0.0
  0
LINE
  5
39F
100
AcDbEntity
  8
Frei
  6
CONTINUOUS
 62
           2
100
AcDbLine
 10
-30.096491646587
 20
606.034964923032
 30
0.0
 11
-32.096491646585
 21
608.03496492303
 31
0.0
  0
LINE
  5
3A0
100
AcDbEntity
  8
Frei
  6
CONTINUOUS
 62
           2
100
AcDbLine
 10
-30.096491646589
 20
607.095625094811
 30
0.0
 11
-32.096491646585
 21
609.095625094812
 31
0.0
  0
LINE
  5
3A1
100
AcDbEntity
  8
Frei
  6
CONTINUOUS
 62
           2
100
AcDbLine
 10
-30.096491646589
 20
608.15628526659
 30
0.0
 11
-32.096491646584
 21
610.15628526659
 31
0.0
  0
LINE
  5
3A2
100
AcDbEntity
  8
Frei
  6
CONTINUOUS
 62
           2
100
AcDbLine
 10
-30.096491646589
 20
609.216945438369
 30
0.0
 11
-32.096491646587
 21
611.21694543837
 31
0.0
  0
LINE
  5
3A3
100
AcDbEntity
  8
Frei
  6
CONTINUOUS
 62
           2
100
AcDbLine
 10
-30.096491646589
 20
610.277605610149
 30
0.0
 11
-32.096491646584
 21
612.27760561015
 31
0.0
  0
LINE
  5
3A4
100
AcDbEntity
  8
Frei
  6
CONTINUOUS
 62
           2
100
AcDbLine
 10
-30.096491646587
 20
611.338265781929
 30
0.0
 11
-32.096491646587
 21
613.338265781929
 31
0.0
  0
LINE
  5
3A5
100
AcDbEntity
  8
Frei
  6
CONTINUOUS
 62
           2
100
AcDbLine
 10
-30.096491646585
 20
612.398925953708
 30
0.0
 11
-32.096491646585
 21
614.398925953709
 31
0.0
  0
LINE
  5
3A6
100
AcDbEntity
  8
Frei
  6
CONTINUOUS
 62
           2
100
AcDbLine
 10
-30.096491646587
 20
613.459586125489
 30
0.0
 11
-32.096491646589
 21
615.459586125487
 31
0.0
  0
LINE
  5
3A7
100
AcDbEntity
  8
Frei
  6
CONTINUOUS
 62
           2
100
AcDbLine
 10
-30.096491646587
 20
614.520246297267
 30
0.0
 11
-31.073012370292
 21
615.496767020979
 31
0.0
  0
ENDBLK
  5
3A8
100
AcDbEntity
  8
0
  6
BYBLOCK
 62
           0
100
AcDbBlockEnd
  0
ENDSEC
  0
SECTION
  2
ENTITIES
  0
INSERT
  5
26
100
AcDbEntity
  8
FREI
  6
CONTINUOUS
 62
           7
100
AcDbBlockReference
  2
MAK1
 10
-14111.659927830726
 20
-6942.122019222677
 30
0.0
 50
356.087999999999
  0
INSERT
  5
27
100
AcDbEntity
  8
FREI
  6
CONTINUOUS
 62
           7
100
AcDbBlockReference
  2
MAK2
 10
-14111.659927830726
 20
-6942.122019222677
 30
0.0
 50
356.087999999999
  0
LINE
  5
28
100
AcDbEntity
  8
FREI
  6
CONTINUOUS
 62
          15
100
AcDbLine
 10
-14255.955769173295
 20
-6240.705169251226
 30
0.0
 11
-14349.267601956937
 21
-6279.356195920101
 31
0.0
  0
LINE
  5
29
100
AcDbEntity
  8
FREI
  6
CONTINUOUS
 62
          15
100
AcDbLine
 10
-14287.304348270514
 20
-6428.948723338629
 30
0.0
 11
-14272.730915483917
 21
-6464.132102422359
 31
0.0
  0
LINE
  5
2A
100
AcDbEntity
  8
FREI
  6
CONTINUOUS
 62
          15
100
AcDbLine
 10
-14349.267601956937
 20
-6279.356195920101
 30
0.0
 11
-14341.965154385278
 21
-6296.985863886116
 31
0.0
  0
LINE
  5
2B
100
AcDbEntity
  8
FREI
  6
CONTINUOUS
 62
          15
100
AcDbLine
 10
-14272.730915483917
 20
-6464.132102422359
 30
0.0
 11
-14179.419082700279
 21
-6425.481075753484
 31
0.0
  0
LINE
  5
2C
100
AcDbEntity
  8
FREI
  6
CONTINUOUS
 62
          15
100
AcDbLine
 10
-14228.641905239552
 20
-6306.646670000882
 30
0.0
 11
-14255.955769173295
 21
-6240.705169251226
 31
0.0
  0
LINE
  5
2D
100
AcDbEntity
  8
FREI
  6
GESTRICHELT
 62
          15
100
AcDbLine
 10
-14199.646955873437
 20
-6376.646670000882
 30
0.0
 11
-14228.641905239552
 21
-6306.646670000882
 31
0.0
  0
LINE
  5
2E
100
AcDbEntity
  8
FREI
  6
CONTINUOUS
 62
          15
100
AcDbLine
 10
-14179.419082700279
 20
-6425.481075753484
 30
0.0
 11
-14199.646955873437
 21
-6376.646670000882
 31
0.0
  0
LINE
  5
2F
100
AcDbEntity
  8
FREI
  6
STRICHPUNKT
 62
          15
100
AcDbLine
 10
-14226.074999092096
 20
-6444.806589087922
 30
0.0
 11
-14302.611685565116
 21
-6260.030682585665
 31
0.0
  0
LINE
  5
30
100
AcDbEntity
  8
FREI
  6
STRICHPUNKT
 62
          15
100
AcDbLine
 10
-14287.304348270511
 20
-6296.985863886116
 30
0.0
 11
-14348.533697448926
 21
-6444.80658908792
 31
0.0
  0
LINE
  5
31
100
AcDbEntity
  8
FREI
  6
CONTINUOUS
 62
          15
100
AcDbLine
 10
-14341.965154385278
 20
-6296.985863886116
 30
0.0
 11
-14395.189613840746
 21
-6425.481075753484
 31
0.0
  0
LINE
  5
32
100
AcDbEntity
  8
FREI
  6
CONTINUOUS
 62
          15
100
AcDbLine
 10
-14287.304348270511
 20
-6428.948723338629
 30
0.0
 11
-14301.877781057105
 21
-6464.132102422359
 31
0.0
  0
LINE
  5
33
100
AcDbEntity
  8
FREI
  6
CONTINUOUS
 62
          15
100
AcDbLine
 10
-14232.643542155747
 20
-6296.985863886114
 30
0.0
 11
-14341.965154385278
 21
-6296.985863886116
 31
0.0
  0
LINE
  5
34
100
AcDbEntity
  8
FREI
  6
CONTINUOUS
 62
          15
100
AcDbLine
 10
-14395.189613840746
 20
-6425.481075753484
 30
0.0
 11
-14301.877781057105
 21
-6464.132102422359
 31
0.0
  0
LINE
  5
35
100
AcDbEntity
  8
FREI
  6
CONTINUOUS
 62
          15
100
AcDbLine
 10
-14287.304348270511
 20
-6306.646670000881
 30
0.0
 11
-14287.304348270511
 21
-6296.985863886116
 31
0.0
  0
LINE
  5
36
100
AcDbEntity
  8
FREI
  6
GESTRICHELT
 62
          15
100
AcDbLine
 10
-14287.304348270511
 20
-6344.64667000088
 30
0.0
 11
-14287.304348270511
 21
-6306.646670000881
 31
0.0
  0
LINE
  5
37
100
AcDbEntity
  8
FREI
  6
GESTRICHELT
 62
          15
100
AcDbLine
 10
-14287.304348270511
 20
-6376.646670000883
 30
0.0
 11
-14287.304348270511
 21
-6358.64667000088
 31
0.0
  0
LINE
  5
38
100
AcDbEntity
  8
FREI
  6
CONTINUOUS
 62
          15
100
AcDbLine
 10
-14287.304348270511
 20
-6428.948723338629
 30
0.0
 11
-14287.304348270511
 21
-6376.646670000883
 31
0.0
  0
CIRCLE
  5
39
100
AcDbEntity
  8
FREI
  6
CONTINUOUS
 62
          15
100
AcDbCircle
 10
-14287.304348270514
 20
-6351.64667000088
 30
0.0
 40
7.0
  0
CIRCLE
  5
3A
100
AcDbEntity
  8
Frei
  6
CONTINUOUS
 62
           7
100
AcDbCircle
 10
-13824.415432270511
 20
-6351.64667000088
 30
0.0
 40
6.25
  0
CIRCLE
  5
3B
100
AcDbEntity
  8
FREI
  6
CONTINUOUS
 62
          15
100
AcDbCircle
 10
-14221.708901462207
 20
-6324.476146302958
 30
0.0
 40
6.25
  0
ARC
  5
3C
100
AcDbEntity
  8
FREI
  6
CONTINUOUS
 62
          15
100
AcDbCircle
 10
-14287.304348270514
 20
-6351.64667000088
 30
0.0
 40
17.25
100
AcDbArc
 50
111.69299050693
 51
293.307009493072
  0
LINE
  5
3D
100
AcDbEntity
  8
FREI
  6
CONTINUOUS
 62
          15
100
AcDbLine
 10
-14227.715439103304
 20
-6309.377007070337
 30
0.0
 11
-14293.680518997207
 21
-6335.618352969325
 31
0.0
  0
LINE
  5
3E
100
AcDbEntity
  8
FREI
  6
CONTINUOUS
 62
          15
100
AcDbLine
 10
-14276.155990032545
 20
-6365.626518224211
 30
0.0
 11
-14280.479250165343
 21
-6367.489035223754
 31
0.0
  0
ARC
  5
3F
100
AcDbEntity
  8
FREI
  6
CONTINUOUS
 62
          15
100
AcDbCircle
 10
-14221.708901462207
 20
-6324.476146302958
 30
0.0
 40
16.25
100
AcDbArc
 50
43.67717964189
 51
111.692990506929
  0
ARC
  5
40
100
AcDbEntity
  8
FREI
  6
GESTRICHELT
 62
          15
100
AcDbCircle
 10
-14221.708901462207
 20
-6324.476146302958
 30
0.0
 40
16.25
100
AcDbArc
 50
308.476123909225
 51
43.67717964189
  0
ARC
  5
41
100
AcDbEntity
  8
FREI
  6
CONTINUOUS
 62
          15
100
AcDbCircle
 10
-14221.708901462207
 20
-6324.476146302958
 30
0.0
 40
16.25
100
AcDbArc
 50
223.699876090772
 51
308.476123909225
  0
ARC
  5
42
100
AcDbEntity
  8
FREI
  6
GESTRICHELT
 62
          15
100
AcDbCircle
 10
-14221.708901462207
 20
-6324.476146302958
 30
0.0
 40
16.25
100
AcDbArc
 50
216.333269103465
 51
223.699876090772
  0
ARC
  5
43
100
AcDbEntity
  8
FREI
  6
CONTINUOUS
 62
          15
100
AcDbCircle
 10
-14221.708901462207
 20
-6324.476146302958
 30
0.0
 40
16.25
100
AcDbArc
 50
210.049825852107
 51
216.333269103465
  0
LINE
  5
44
100
AcDbEntity
  8
FREI
  6
CONTINUOUS
 62
          15
100
AcDbLine
 10
-14243.781873974698
 20
-6331.731346435979
 30
0.0
 11
-14272.754209830266
 21
-6363.214137573009
 31
0.0
  0
ARC
  5
45
100
AcDbEntity
  8
FREI
  6
CONTINUOUS
 62
          15
100
AcDbCircle
 10
-14240.102694567715
 20
-6335.117146030051
 30
0.0
 40
5.0
100
AcDbArc
 50
30.049825852111
 51
137.377894256055
  0
ARC
  5
46
100
AcDbEntity
  8
FREI
  6
CONTINUOUS
 62
          15
100
AcDbCircle
 10
-14280.112568644232
 20
-6356.442538384864
 30
0.0
 40
10.0
100
AcDbArc
 50
293.30700949307
 51
317.377894256059
  0
LINE
  5
47
100
AcDbEntity
  8
Frei
  6
GESTRICHELT
 62
           7
100
AcDbLine
 10
-13841.974399932737
 20
-6350.445564357485
 30
0.0
 11
-13840.780475668358
 21
-6332.986339149848
 31
0.0
  0
LINE
  5
48
100
AcDbEntity
  8
Frei
  6
GESTRICHELT
 62
           7
100
AcDbLine
 10
-13840.780475668358
 20
-6332.986339149848
 30
0.0
 11
-13844.771155715815
 21
-6332.713442175133
 31
0.0
  0
LINE
  5
49
100
AcDbEntity
  8
Frei
  6
CONTINUOUS
 62
           7
100
AcDbLine
 10
-13844.771155715815
 20
-6332.713442175133
 30
0.0
 11
-13844.12302540087
 21
-6323.235577062417
 31
0.0
  0
LINE
  5
4A
100
AcDbEntity
  8
Frei
  6
CONTINUOUS
 62
           7
100
AcDbLine
 10
-13844.12302540087
 20
-6323.235577062417
 30
0.0
 11
-13873.654057752072
 21
-6321.216139449528
 31
0.0
  0
LINE
  5
4B
100
AcDbEntity
  8
Frei
  6
CONTINUOUS
 62
           7
100
AcDbLine
 10
-13873.654057752072
 20
-6321.216139449528
 30
0.0
 11
-13873.688169873909
 21
-6321.71497445546
 31
0.0
  0
LINE
  5
4C
100
AcDbEntity
  8
Frei
  6
CONTINUOUS
 62
           7
100
AcDbLine
 10
-13873.688169873909
 20
-6321.71497445546
 30
0.0
 11
-14101.530039475485
 21
-6306.134693145924
 31
0.0
  0
LINE
  5
4D
100
AcDbEntity
  8
Frei
  6
CONTINUOUS
 62
           7
100
AcDbLine
 10
-14101.530039475485
 20
-6306.134693145924
 30
0.0
 11
-14101.495927353648
 21
-6305.635858139992
 31
0.0
  0
LINE
  5
4E
100
AcDbEntity
  8
Frei
  6
CONTINUOUS
 62
           7
100
AcDbLine
 10
-14101.495927353648
 20
-6305.635858139992
 30
0.0
 11
-14131.02695970485
 21
-6303.616420527103
 31
0.0
  0
LINE
  5
4F
100
AcDbEntity
  8
Frei
  6
CONTINUOUS
 62
           7
100
AcDbLine
 10
-14131.02695970485
 20
-6303.616420527103
 30
0.0
 11
-14131.675090019795
 21
-6313.094285639819
 31
0.0
  0
LINE
  5
50
100
AcDbEntity
  8
Frei
  6
CONTINUOUS
 62
           7
100
AcDbLine
 10
-14131.675090019795
 20
-6313.094285639819
 30
0.0
 11
-14142.150625144375
 21
-6312.377931081191
 31
0.0
  0
LINE
  5
51
100
AcDbEntity
  8
Frei
  6
CONTINUOUS
 62
           7
100
AcDbLine
 10
-14142.150625144375
 20
-6312.377931081191
 30
0.0
 11
-14142.184737266216
 21
-6312.876766087125
 31
0.0
  0
LINE
  5
52
100
AcDbEntity
  8
Frei
  6
CONTINUOUS
 62
           7
100
AcDbLine
 10
-14142.184737266216
 20
-6312.876766087125
 30
0.0
 11
-14153.159107396728
 21
-6312.126299406657
 31
0.0
  0
LINE
  5
53
100
AcDbEntity
  8
Frei
  6
CONTINUOUS
 62
           7
100
AcDbLine
 10
-14153.159107396728
 20
-6312.126299406657
 30
0.0
 11
-14155.478731681807
 21
-6346.047079810066
 31
0.0
  0
LINE
  5
54
100
AcDbEntity
  8
Frei
  6
CONTINUOUS
 62
           7
100
AcDbLine
 10
-14155.478731681807
 20
-6346.047079810066
 30
0.0
 11
-14144.504361551291
 21
-6346.797546490529
 31
0.0
  0
LINE
  5
55
100
AcDbEntity
  8
Frei
  6
CONTINUOUS
 62
           7
100
AcDbLine
 10
-14144.504361551291
 20
-6346.797546490529
 30
0.0
 11
-14144.538473673128
 21
-6347.296381496461
 31
0.0
  0
LINE
  5
56
100
AcDbEntity
  8
Frei
  6
CONTINUOUS
 62
           7
100
AcDbLine
 10
-14144.538473673128
 20
-6347.296381496461
 30
0.0
 11
-14134.062938548548
 21
-6348.012736055088
 31
0.0
  0
LINE
  5
57
100
AcDbEntity
  8
Frei
  6
CONTINUOUS
 62
           7
100
AcDbLine
 10
-14134.062938548548
 20
-6348.012736055088
 30
0.0
 11
-14134.7110688635
 21
-6357.490601167808
 31
0.0
  0
LINE
  5
58
100
AcDbEntity
  8
Frei
  6
CONTINUOUS
 62
           7
100
AcDbLine
 10
-14134.7110688635
 20
-6357.490601167808
 30
0.0
 11
-14105.180036512298
 21
-6359.510038780695
 31
0.0
  0
LINE
  5
59
100
AcDbEntity
  8
Frei
  6
CONTINUOUS
 62
           7
100
AcDbLine
 10
-14105.180036512298
 20
-6359.510038780695
 30
0.0
 11
-14105.145924390457
 21
-6359.011203774763
 31
0.0
  0
LINE
  5
5A
100
AcDbEntity
  8
Frei
  6
CONTINUOUS
 62
           7
100
AcDbLine
 10
-13881.980111520937
 20
-6374.271727001939
 30
0.0
 11
-13877.304054788881
 21
-6374.591485084297
 31
0.0
  0
LINE
  5
5B
100
AcDbEntity
  8
Frei
  6
GESTRICHELT
 62
           7
100
AcDbLine
 10
-13909.914874862716
 20
-6372.361492188903
 30
0.0
 11
-13881.980111520937
 21
-6374.271727001939
 31
0.0
  0
LINE
  5
5C
100
AcDbEntity
  8
Frei
  6
CONTINUOUS
 62
           7
100
AcDbLine
 10
-14072.535104316627
 20
-6361.241196670159
 30
0.0
 11
-13909.914874862716
 21
-6372.361492188903
 31
0.0
  0
LINE
  5
5D
100
AcDbEntity
  8
Frei
  6
GESTRICHELT
 62
           7
100
AcDbLine
 10
-14100.469867658398
 20
-6359.330961857121
 30
0.0
 11
-14072.535104316627
 21
-6361.241196670159
 31
0.0
  0
LINE
  5
5E
100
AcDbEntity
  8
Frei
  6
CONTINUOUS
 62
           7
100
AcDbLine
 10
-14105.145924390457
 20
-6359.011203774763
 30
0.0
 11
-14100.469867658398
 21
-6359.330961857121
 31
0.0
  0
LINE
  5
5F
100
AcDbEntity
  8
Frei
  6
CONTINUOUS
 62
           7
100
AcDbLine
 10
-13877.304054788881
 20
-6374.591485084297
 30
0.0
 11
-13877.338166910718
 21
-6375.090320090229
 31
0.0
  0
LINE
  5
60
100
AcDbEntity
  8
Frei
  6
CONTINUOUS
 62
           7
100
AcDbLine
 10
-13877.338166910718
 20
-6375.090320090229
 30
0.0
 11
-13847.80713455952
 21
-6377.109757703122
 31
0.0
  0
LINE
  5
61
100
AcDbEntity
  8
Frei
  6
CONTINUOUS
 62
           7
100
AcDbLine
 10
-13847.80713455952
 20
-6377.109757703122
 30
0.0
 11
-13847.159004244571
 21
-6367.631892590406
 31
0.0
  0
LINE
  5
62
100
AcDbEntity
  8
Frei
  6
GESTRICHELT
 62
           7
100
AcDbLine
 10
-13847.159004244571
 20
-6367.631892590406
 30
0.0
 11
-13843.168324197111
 21
-6367.904789565119
 31
0.0
  0
LINE
  5
63
100
AcDbEntity
  8
Frei
  6
GESTRICHELT
 62
           7
100
AcDbLine
 10
-13843.168324197111
 20
-6367.904789565119
 30
0.0
 11
-13841.974399932737
 21
-6350.445564357485
 31
0.0
  0
LINE
  5
64
100
AcDbEntity
  8
Frei
  6
CONTINUOUS
 62
           7
100
AcDbLine
 10
-13844.771155715815
 20
-6332.713442175133
 30
0.0
 11
-13847.159004244571
 21
-6367.631892590406
 31
0.0
  0
LINE
  5
65
100
AcDbEntity
  8
Frei
  6
CONTINUOUS
 62
           7
100
AcDbLine
 10
-13875.974582806462
 20
-6355.150092157747
 30
0.0
 11
-13877.304054788881
 21
-6374.591485084297
 31
0.0
  0
LINE
  5
66
100
AcDbEntity
  8
Frei
  6
GESTRICHELT
 62
           7
100
AcDbLine
 10
-13875.454301562477
 20
-6347.541814412606
 30
0.0
 11
-13875.974582806462
 21
-6355.150092157747
 31
0.0
  0
LINE
  5
67
100
AcDbEntity
  8
Frei
  6
CONTINUOUS
 62
           7
100
AcDbLine
 10
-13873.688169873909
 20
-6321.71497445546
 30
0.0
 11
-13875.454301562477
 21
-6347.541814412606
 31
0.0
  0
LINE
  5
68
100
AcDbEntity
  8
Frei
  6
CONTINUOUS
 62
           7
100
AcDbLine
 10
-14103.816427861435
 20
-6339.569451893553
 30
0.0
 11
-14105.145924390457
 21
-6359.011203774763
 31
0.0
  0
LINE
  5
69
100
AcDbEntity
  8
Frei
  6
CONTINUOUS
 62
           7
100
AcDbLine
 10
-14103.296146617449
 20
-6331.961174148412
 30
0.0
 11
-14103.816427861435
 21
-6339.569451893553
 31
0.0
  0
LINE
  5
6A
100
AcDbEntity
  8
Frei
  6
CONTINUOUS
 62
           7
100
AcDbLine
 10
-14101.530039475485
 20
-6306.134693145924
 30
0.0
 11
-14103.296146617449
 21
-6331.961174148412
 31
0.0
  0
LINE
  5
6B
100
AcDbEntity
  8
Frei
  6
CONTINUOUS
 62
           7
100
AcDbLine
 10
-14131.675090019795
 20
-6313.094285639819
 30
0.0
 11
-14134.062938548548
 21
-6348.012736055088
 31
0.0
  0
LINE
  5
6C
100
AcDbEntity
  8
Frei
  6
CONTINUOUS
 62
           7
100
AcDbLine
 10
-14142.150625144375
 20
-6312.377931081191
 30
0.0
 11
-14144.538473673128
 21
-6347.296381496461
 31
0.0
  0
LINE
  5
6D
100
AcDbEntity
  8
Frei
  6
GESTRICHELT
 62
           7
100
AcDbLine
 10
-14167.43303732268
 20
-6322.175886752416
 30
0.0
 11
-14185.568836097707
 21
-6320.935695967667
 31
0.0
  0
LINE
  5
6E
100
AcDbEntity
  8
Frei
  6
CONTINUOUS
 62
           7
100
AcDbLine
 10
-14162.389769178048
 20
-6322.520763465903
 30
0.0
 11
-14167.43303732268
 21
-6322.175886752416
 31
0.0
  0
LINE
  5
6F
100
AcDbEntity
  8
Frei
  6
GESTRICHELT
 62
           7
100
AcDbLine
 10
-14168.251728246825
 20
-6334.147926894796
 30
0.0
 11
-14186.387527021852
 21
-6332.907736110044
 31
0.0
  0
LINE
  5
70
100
AcDbEntity
  8
Frei
  6
CONTINUOUS
 62
           7
100
AcDbLine
 10
-14163.208460102189
 20
-6334.492803608281
 30
0.0
 11
-14168.251728246825
 21
-6334.147926894796
 31
0.0
  0
LINE
  5
71
100
AcDbEntity
  8
Frei
  6
GESTRICHELT
 62
           7
100
AcDbLine
 10
-14186.386163130614
 20
-6321.648385006011
 30
0.0
 11
-14185.568836097707
 21
-6320.935695967667
 31
0.0
  0
LINE
  5
72
100
AcDbEntity
  8
Frei
  6
GESTRICHELT
 62
           7
100
AcDbLine
 10
-14187.10022671914
 20
-6332.090418371595
 30
0.0
 11
-14186.387527021852
 21
-6332.907736110044
 31
0.0
  0
LINE
  5
73
100
AcDbEntity
  8
Frei
  6
GESTRICHELT
 62
           7
100
AcDbLine
 10
-14186.386163130614
 20
-6321.648385006011
 30
0.0
 11
-14187.10022671914
 21
-6332.090418371595
 31
0.0
  0
LINE
  5
74
100
AcDbEntity
  8
Frei
  6
CONTINUOUS
 62
           7
100
AcDbLine
 10
-14167.48535099049
 20
-6322.940890140814
 30
0.0
 11
-14162.442082845857
 21
-6323.285766854301
 31
0.0
  0
LINE
  5
75
100
AcDbEntity
  8
Frei
  6
GESTRICHELT
 62
           7
100
AcDbLine
 10
-14186.386163130614
 20
-6321.648385006011
 30
0.0
 11
-14167.48535099049
 21
-6322.940890140814
 31
0.0
  0
LINE
  5
76
100
AcDbEntity
  8
Frei
  6
CONTINUOUS
 62
           7
100
AcDbLine
 10
-14168.199414579016
 20
-6333.382923506398
 30
0.0
 11
-14163.156146434379
 21
-6333.727800219885
 31
0.0
  0
LINE
  5
77
100
AcDbEntity
  8
Frei
  6
GESTRICHELT
 62
           7
100
AcDbLine
 10
-14187.10022671914
 20
-6332.090418371595
 30
0.0
 11
-14168.199414579016
 21
-6333.382923506398
 31
0.0
  0
LINE
  5
78
100
AcDbEntity
  8
Frei
  6
GESTRICHELT
 62
           7
100
AcDbLine
 10
-14185.568836097707
 20
-6320.935695967667
 30
0.0
 11
-14186.387527021852
 21
-6332.907736110044
 31
0.0
  0
LINE
  5
79
100
AcDbEntity
  8
Frei
  6
CONTINUOUS
 62
           7
100
AcDbLine
 10
-14153.773125589836
 20
-6321.105329513442
 30
0.0
 11
-14162.253320690692
 21
-6320.525423442175
 31
0.0
  0
LINE
  5
7A
100
AcDbEntity
  8
Frei
  6
CONTINUOUS
 62
           7
100
AcDbLine
 10
-14162.253320690692
 20
-6320.525423442175
 30
0.0
 11
-14163.344908589548
 21
-6336.488143632011
 31
0.0
  0
LINE
  5
7B
100
AcDbEntity
  8
Frei
  6
CONTINUOUS
 62
           7
100
AcDbLine
 10
-14163.344908589548
 20
-6336.488143632011
 30
0.0
 11
-14154.864713488696
 21
-6337.06804970328
 31
0.0
  0
LINE
  5
7C
100
AcDbEntity
  8
Frei
  6
CONTINUOUS
 62
           7
100
AcDbLine
 10
-14162.480937917117
 20
-6323.853959879459
 30
0.0
 11
-14157.160034512737
 21
-6324.217822284997
 31
0.0
  0
LINE
  5
7D
100
AcDbEntity
  8
Frei
  6
CONTINUOUS
 62
           7
100
AcDbLine
 10
-14163.117291363124
 20
-6333.159607194727
 30
0.0
 11
-14157.796387958744
 21
-6333.523469600267
 31
0.0
  0
LINE
  5
7E
100
AcDbEntity
  8
Frei
  6
CONTINUOUS
 62
           7
100
AcDbLine
 10
-14157.160034512737
 20
-6324.217822284997
 30
0.0
 11
-14157.796387958744
 21
-6333.523469600267
 31
0.0
  0
LINE
  5
7F
100
AcDbEntity
  8
Frei
  6
CONTINUOUS
 62
           7
100
AcDbLine
 10
-14162.480937917117
 20
-6323.853959879459
 30
0.0
 11
-14157.796387958744
 21
-6333.523469600267
 31
0.0
  0
LINE
  5
80
100
AcDbEntity
  8
Frei
  6
CONTINUOUS
 62
           7
100
AcDbLine
 10
-14157.160034512737
 20
-6324.217822284997
 30
0.0
 11
-14163.117291363124
 21
-6333.159607194727
 31
0.0
  0
CIRCLE
  5
81
100
AcDbEntity
  8
Frei
  6
CONTINUOUS
 62
           7
100
AcDbCircle
 10
-14119.310979580136
 20
-6337.494670330144
 30
0.0
 40
5.7225
  0
ARC
  5
82
100
AcDbEntity
  8
Frei
  6
CONTINUOUS
 62
           7
100
AcDbCircle
 10
-14119.310979580136
 20
-6337.494670330144
 30
0.0
 40
6.5785
100
AcDbArc
 50
106.088
 51
16.088
  0
CIRCLE
  5
83
100
AcDbEntity
  8
Frei
  6
CONTINUOUS
 62
           7
100
AcDbCircle
 10
-13859.523114684231
 20
-6343.231507900077
 30
0.0
 40
5.7225
  0
ARC
  5
84
100
AcDbEntity
  8
Frei
  6
CONTINUOUS
 62
           7
100
AcDbCircle
 10
-13859.523114684231
 20
-6343.231507900077
 30
0.0
 40
6.57849
100
AcDbArc
 50
106.087999999994
 51
16.088000000002
  0
LINE
  5
85
100
AcDbEntity
  8
Frei
  6
CONTINUOUS
 62
           7
100
AcDbLine
 10
-14110.614562171362
 20
-6320.983606247163
 30
0.0
 11
-14118.092453321766
 21
-6327.504275861948
 31
0.0
  0
LINE
  5
86
100
AcDbEntity
  8
Frei
  6
CONTINUOUS
 62
           7
100
AcDbLine
 10
-14111.436006341286
 20
-6320.041568904112
 30
0.0
 11
-14118.913891351509
 21
-6326.562148728598
 31
0.0
  0
CIRCLE
  5
87
100
AcDbEntity
  8
Frei
  6
CONTINUOUS
 62
           7
100
AcDbCircle
 10
-14114.764228125921
 20
-6323.772897441281
 30
0.0
 40
5.0
  0
LINE
  5
88
100
AcDbEntity
  8
Frei
  6
CONTINUOUS
 62
           7
100
AcDbLine
 10
-13859.919903611855
 20
-6354.164049968897
 30
0.0
 11
-13867.398187690083
 21
-6360.684602503688
 31
0.0
  0
LINE
  5
89
100
AcDbEntity
  8
Frei
  6
CONTINUOUS
 62
           7
100
AcDbLine
 10
-13860.741541175601
 20
-6353.221909190698
 30
0.0
 11
-13868.219831394006
 21
-6359.742551515789
 31
0.0
  0
CIRCLE
  5
8A
100
AcDbEntity
  8
Frei
  6
CONTINUOUS
 62
           7
100
AcDbCircle
 10
-13864.069866138449
 20
-6356.953280788942
 30
0.0
 40
5.0
  0
LINE
  5
8B
100
AcDbEntity
  8
Frei
  6
CONTINUOUS
 62
           7
100
AcDbLine
 10
-14167.482934415821
 20
-6317.190867525323
 30
0.0
 11
-14170.082982187145
 21
-6317.013066959386
 31
0.0
  0
LINE
  5
8C
100
AcDbEntity
  8
Frei
  6
CONTINUOUS
 62
           7
100
AcDbLine
 10
-14172.683010005065
 20
-6316.835267757934
 30
0.0
 11
-14170.082982187145
 21
-6317.013066959386
 31
0.0
  0
LINE
  5
8D
100
AcDbEntity
  8
Frei
  6
CONTINUOUS
 62
           7
100
AcDbLine
 10
-14174.179849911376
 20
-6338.724147818251
 30
0.0
 11
-14171.579822093456
 21
-6338.901947019701
 31
0.0
  0
LINE
  5
8E
100
AcDbEntity
  8
Frei
  6
CONTINUOUS
 62
           7
100
AcDbLine
 10
-14168.979774322132
 20
-6339.079747585637
 30
0.0
 11
-14171.579822093456
 21
-6338.901947019701
 31
0.0
  0
LINE
  5
8F
100
AcDbEntity
  8
Frei
  6
CONTINUOUS
 62
           7
100
AcDbLine
 10
-14167.857145074639
 20
-6322.6630975171
 30
0.0
 11
-14170.457192845963
 21
-6322.485296951164
 31
0.0
  0
LINE
  5
90
100
AcDbEntity
  8
Frei
  6
CONTINUOUS
 62
           7
100
AcDbLine
 10
-14173.057220663886
 20
-6322.307497749714
 30
0.0
 11
-14170.457192845963
 21
-6322.485296951164
 31
0.0
  0
LINE
  5
91
100
AcDbEntity
  8
Frei
  6
CONTINUOUS
 62
           7
100
AcDbLine
 10
-14173.805639252554
 20
-6333.251917826471
 30
0.0
 11
-14171.205611434631
 21
-6333.429717027923
 31
0.0
  0
LINE
  5
92
100
AcDbEntity
  8
Frei
  6
CONTINUOUS
 62
           7
100
AcDbLine
 10
-14168.60556366331
 20
-6333.607517593858
 30
0.0
 11
-14171.205611434631
 21
-6333.429717027923
 31
0.0
  0
ARC
  5
93
100
AcDbEntity
  8
Frei
  6
CONTINUOUS
 62
           7
100
AcDbCircle
 10
-14206.529631436842
 20
-6325.516334391931
 30
0.0
 40
38.7776
100
AcDbArc
 50
356.947436999999
 51
4.21961
  0
ARC
  5
94
100
AcDbEntity
  8
Frei
  6
CONTINUOUS
 62
           7
100
AcDbCircle
 10
-14135.133172843754
 20
-6330.398679587158
 30
0.0
 40
38.7776
100
AcDbArc
 50
167.956
 51
175.229
  0
ARC
  5
95
100
AcDbEntity
  8
Frei
  6
CONTINUOUS
 62
           7
100
AcDbCircle
 10
-14135.133172843754
 20
-6330.398679587158
 30
0.0
 40
38.7776
100
AcDbArc
 50
176.946999999999
 51
184.219999999999
  0
ARC
  5
96
100
AcDbEntity
  8
Frei
  6
CONTINUOUS
 62
           7
100
AcDbCircle
 10
-14206.529631436842
 20
-6325.516334391931
 30
0.0
 40
38.7776
100
AcDbArc
 50
347.956389999999
 51
355.228562999999
  0
LINE
  5
97
100
AcDbEntity
  8
Frei
  6
CONTINUOUS
 62
           7
100
AcDbLine
 10
-14167.807050540461
 20
-6327.581322584862
 30
0.0
 11
-14167.842382784751
 21
-6328.161906823604
 31
0.0
  0
LINE
  5
98
100
AcDbEntity
  8
Frei
  6
CONTINUOUS
 62
           7
100
AcDbLine
 10
-14173.77634966225
 20
-6327.173120561113
 30
0.0
 11
-14173.820421495846
 21
-6327.753107155483
 31
0.0
  0
LINE
  5
99
100
AcDbEntity
  8
Frei
  6
CONTINUOUS
 62
           7
100
AcDbLine
 10
-14173.855713833331
 20
-6328.333694123198
 30
0.0
 11
-14173.820421495846
 21
-6327.753107155483
 31
0.0
  0
LINE
  5
9A
100
AcDbEntity
  8
Frei
  6
CONTINUOUS
 62
           7
100
AcDbLine
 10
-14167.886414711546
 20
-6328.741896146944
 30
0.0
 11
-14167.842382784751
 21
-6328.161906823604
 31
0.0
  0
ARC
  5
9B
100
AcDbEntity
  8
Frei
  6
CONTINUOUS
 62
           7
100
AcDbCircle
 10
-14177.391955919615
 20
-6319.262178156826
 30
0.0
 40
10.1345
100
AcDbArc
 50
340.369499999999
 51
356.087999999999
  0
ARC
  5
9C
100
AcDbEntity
  8
Frei
  6
CONTINUOUS
 62
           7
100
AcDbCircle
 10
-14163.148211183518
 20
-6320.236216366068
 30
0.0
 40
10.1232
100
AcDbArc
 50
176.088
 51
191.806999999999
  0
ARC
  5
9D
100
AcDbEntity
  8
Frei
  6
CONTINUOUS
 62
           7
100
AcDbCircle
 10
-14164.27083838428
 20
-6336.652836504504
 30
0.0
 40
10.1345
100
AcDbArc
 50
160.369
 51
176.088
  0
ARC
  5
9E
100
AcDbEntity
  8
Frei
  6
CONTINUOUS
 62
           7
100
AcDbCircle
 10
-14178.514583120377
 20
-6335.678798295262
 30
0.0
 40
10.1232
100
AcDbArc
 50
356.087999999999
 51
11.8065
  0
ARC
  5
9F
100
AcDbEntity
  8
Frei
  6
CONTINUOUS
 62
           7
100
AcDbCircle
 10
-14177.391955919615
 20
-6319.262178156826
 30
0.0
 40
10.1232
100
AcDbArc
 50
356.087999999999
 51
11.8065
  0
ARC
  5
A0
100
AcDbEntity
  8
Frei
  6
CONTINUOUS
 62
           7
100
AcDbCircle
 10
-14163.148211183518
 20
-6320.236216366068
 30
0.0
 40
10.1345
100
AcDbArc
 50
160.369
 51
176.088
  0
ARC
  5
A1
100
AcDbEntity
  8
Frei
  6
CONTINUOUS
 62
           7
100
AcDbCircle
 10
-14164.27083838428
 20
-6336.652836504504
 30
0.0
 40
10.1232
100
AcDbArc
 50
176.088
 51
191.806999999999
  0
ARC
  5
A2
100
AcDbEntity
  8
Frei
  6
CONTINUOUS
 62
           7
100
AcDbCircle
 10
-14178.514583120377
 20
-6335.678798295262
 30
0.0
 40
10.1345
100
AcDbArc
 50
340.369499999999
 51
356.087999999999
  0
LINE
  5
A3
100
AcDbEntity
  8
Frei
  6
CONTINUOUS
 62
           7
100
AcDbLine
 10
-14167.28106918437
 20
-6319.953596754388
 30
0.0
 11
-14167.842382784751
 21
-6328.161906823604
 31
0.0
  0
LINE
  5
A4
100
AcDbEntity
  8
Frei
  6
CONTINUOUS
 62
           7
100
AcDbLine
 10
-14173.259107895461
 20
-6319.544797086263
 30
0.0
 11
-14173.820421495846
 21
-6327.753107155483
 31
0.0
  0
LINE
  5
A5
100
AcDbEntity
  8
Frei
  6
CONTINUOUS
 62
           7
100
AcDbLine
 10
-14174.381735096227
 20
-6335.961417224699
 30
0.0
 11
-14173.820421495846
 21
-6327.753107155483
 31
0.0
  0
LINE
  5
A6
100
AcDbEntity
  8
Frei
  6
CONTINUOUS
 62
           7
100
AcDbLine
 10
-14168.403696385132
 20
-6336.370216892822
 30
0.0
 11
-14167.842382784751
 21
-6328.161906823604
 31
0.0
  0
LINE
  5
A7
100
AcDbEntity
  8
Frei
  6
CONTINUOUS
 62
           7
100
AcDbLine
 10
-13838.758341577199
 20
-6362.25070728019
 30
0.0
 11
-13839.599268335693
 21
-6362.207931191196
 31
0.0
  0
LINE
  5
A8
100
AcDbEntity
  8
Frei
  6
CONTINUOUS
 62
           7
100
AcDbLine
 10
-13837.919563879499
 20
-6361.506319683839
 30
0.0
 11
-13838.410036261434
 21
-6368.678690687478
 31
0.0
  0
LINE
  5
A9
100
AcDbEntity
  8
Frei
  6
CONTINUOUS
 62
           7
100
AcDbLine
 10
-13836.451652965279
 20
-6340.040479679753
 30
0.0
 11
-13836.461677903251
 21
-6340.18707829993
 31
0.0
  0
LINE
  5
AA
100
AcDbEntity
  8
Frei
  6
CONTINUOUS
 62
           7
100
AcDbLine
 10
-13838.020210123163
 20
-6339.116740425489
 30
0.0
 11
-13837.181288498501
 21
-6339.188838377081
 31
0.0
  0
LINE
  5
AB
100
AcDbEntity
  8
Frei
  6
CONTINUOUS
 62
           7
100
AcDbLine
 10
-13836.261214584665
 20
-6340.773435237216
 30
0.0
 11
-13837.631120654412
 21
-6360.806111763342
 31
0.0
  0
LINE
  5
AC
100
AcDbEntity
  8
Frei
  6
CONTINUOUS
 62
           7
100
AcDbLine
 10
-13824.903132528998
 20
-6361.23427389643
 30
0.0
 11
-13837.070761243824
 21
-6360.615333467308
 31
0.0
  0
LINE
  5
AD
100
AcDbEntity
  8
Frei
  6
CONTINUOUS
 62
           7
100
AcDbLine
 10
-13823.593426555319
 20
-6342.081927108146
 30
0.0
 11
-13835.732042370022
 21
-6341.038719602603
 31
0.0
  0
LINE
  5
AE
100
AcDbEntity
  8
Frei
  6
CONTINUOUS
 62
           7
100
AcDbLine
 10
-13837.909538941527
 20
-6361.359721063661
 30
0.0
 11
-13837.919563879499
 21
-6361.506319683839
 31
0.0
  0
LINE
  5
AF
100
AcDbEntity
  8
Frei
  6
CONTINUOUS
 62
           7
100
AcDbLine
 10
-13838.987980676331
 20
-6330.226052046496
 30
0.0
 11
-13838.108386536769
 21
-6330.31713545173
 31
0.0
  0
LINE
  5
B0
100
AcDbEntity
  8
Frei
  6
CONTINUOUS
 62
           7
100
AcDbLine
 10
-13835.961180583341
 20
-6332.868108676116
 30
0.0
 11
-13836.451652965279
 21
-6340.040479679753
 31
0.0
  0
LINE
  5
B1
100
AcDbEntity
  8
Frei
  6
CONTINUOUS
 62
           7
100
AcDbLine
 10
-13840.884519094765
 20
-6370.91361630269
 30
0.0
 11
-13841.768324244375
 21
-6370.884112157554
 31
0.0
  0
LINE
  5
B2
100
AcDbEntity
  8
Frei
  6
CONTINUOUS
 62
           7
100
AcDbLine
 10
-13840.183743511625
 20
-6325.07855514118
 30
0.0
 11
-13844.220469843091
 21
-6324.660545557293
 31
0.0
  0
LINE
  5
B3
100
AcDbEntity
  8
Frei
  6
CONTINUOUS
 62
           7
100
AcDbLine
 10
-13843.653687266931
 20
-6375.820910656751
 30
0.0
 11
-13847.709739210502
 21
-6375.685507117553
 31
0.0
  0
LINE
  5
B4
100
AcDbEntity
  8
Frei
  6
CONTINUOUS
 62
           7
100
AcDbLine
 10
-13841.276823731092
 20
-6363.696706383901
 30
0.0
 11
-13841.768324244375
 21
-6370.884112157554
 31
0.0
  0
LINE
  5
B5
100
AcDbEntity
  8
Frei
  6
CONTINUOUS
 62
           7
100
AcDbLine
 10
-13838.987980676331
 20
-6330.226052046496
 30
0.0
 11
-13839.479481189617
 21
-6337.413457820149
 31
0.0
  0
LINE
  5
B6
100
AcDbEntity
  8
Frei
  6
CONTINUOUS
 62
           7
100
AcDbLine
 10
-13838.752272876001
 20
-6326.779203957439
 30
0.0
 11
-13838.987980676331
 21
-6330.226052046496
 31
0.0
  0
LINE
  5
B7
100
AcDbEntity
  8
Frei
  6
CONTINUOUS
 62
           7
100
AcDbLine
 10
-13841.768324244375
 20
-6370.884112157554
 30
0.0
 11
-13842.004032044708
 21
-6374.330960246612
 31
0.0
  0
ARC
  5
B8
100
AcDbEntity
  8
Frei
  6
CONTINUOUS
 62
           7
100
AcDbCircle
 10
-13824.415432270518
 20
-6351.646670000883
 30
0.0
 40
9.6
100
AcDbArc
 50
267.087999999997
 51
85.088000000002
  0
ARC
  5
B9
100
AcDbEntity
  8
Frei
  6
CONTINUOUS
 62
           7
100
AcDbCircle
 10
-13824.415432270518
 20
-6351.646670000883
 30
0.0
 40
4.799999999999
100
AcDbArc
 50
176.087999999989
 51
356.08800000001
  0
ARC
  5
BA
100
AcDbEntity
  8
Frei
  6
CONTINUOUS
 62
           7
100
AcDbCircle
 10
-13824.415432270511
 20
-6351.64667000088
 30
0.0
 40
4.799999999996
100
AcDbArc
 50
356.087999999956
 51
66.291117282785
  0
ARC
  5
BB
100
AcDbEntity
  8
Frei
  6
CONTINUOUS
 62
           7
100
AcDbCircle
 10
-13824.415432270518
 20
-6351.646670000883
 30
0.0
 40
4.8
100
AcDbArc
 50
66.291117282759
 51
176.088
  0
ARC
  5
BC
100
AcDbEntity
  8
Frei
  6
CONTINUOUS
 62
           7
100
AcDbCircle
 10
-13837.111402932034
 20
-6361.414300458598
 30
0.0
 40
0.799999999992
100
AcDbArc
 50
87.087999999855
 51
130.515004001098
  0
ARC
  5
BD
100
AcDbEntity
  8
Frei
  6
CONTINUOUS
 62
           7
100
AcDbCircle
 10
-13837.111402932045
 20
-6361.414300458598
 30
0.0
 40
0.799999999986
100
AcDbArc
 50
130.515004000449
 51
176.088000000456
  0
ARC
  5
BE
100
AcDbEntity
  8
Frei
  6
CONTINUOUS
 62
           7
100
AcDbCircle
 10
-13838.717699888992
 20
-6361.451740288897
 30
0.0
 40
0.8
100
AcDbArc
 50
267.087999999976
 51
356.087999999999
  0
ARC
  5
BF
100
AcDbEntity
  8
Frei
  6
CONTINUOUS
 62
           7
100
AcDbCircle
 10
-13839.68055171211
 20
-6363.805865173786
 30
0.0
 40
1.599999999999
100
AcDbArc
 50
87.087999999911
 51
176.088
  0
ARC
  5
C0
100
AcDbEntity
  8
Frei
  6
CONTINUOUS
 62
           7
100
AcDbCircle
 10
-13835.663541893766
 20
-6340.241657694879
 30
0.0
 40
0.79999999999
100
AcDbArc
 50
176.087999999609
 51
221.660995999455
  0
ARC
  5
C1
100
AcDbEntity
  8
Frei
  6
CONTINUOUS
 62
           7
100
AcDbCircle
 10
-13835.663541893759
 20
-6340.241657694883
 30
0.0
 40
0.799999999992
100
AcDbArc
 50
221.660995998901
 51
265.088000000144
  0
ARC
  5
C2
100
AcDbEntity
  8
Frei
  6
CONTINUOUS
 62
           7
100
AcDbCircle
 10
-13837.883209170632
 20
-6337.522616610032
 30
0.0
 40
1.600000000001
100
AcDbArc
 50
176.088000000032
 51
265.088000000024
  0
ARC
  5
C3
100
AcDbEntity
  8
Frei
  6
CONTINUOUS
 62
           7
100
AcDbCircle
 10
-13837.249788974768
 20
-6339.985900284811
 30
0.0
 40
0.800000000001
100
AcDbArc
 50
356.088000000064
 51
85.087999999895
  0
ARC
  5
C4
100
AcDbEntity
  8
Frei
  6
CONTINUOUS
 62
           7
100
AcDbCircle
 10
-13843.60030406369
 20
-6374.221801456725
 30
0.0
 40
1.599999999998
100
AcDbArc
 50
268.087999999915
 51
356.088000000064
  0
ARC
  5
C5
100
AcDbEntity
  8
Frei
  6
CONTINUOUS
 62
           7
100
AcDbCircle
 10
-13840.804444289908
 20
-6368.514952502649
 30
0.0
 40
2.400000000001
100
AcDbArc
 50
268.087999999977
 51
356.087999999999
  0
ARC
  5
C6
100
AcDbEntity
  8
Frei
  6
CONTINUOUS
 62
           7
100
AcDbCircle
 10
-13838.355588611816
 20
-6332.704370491288
 30
0.0
 40
2.399999999999
100
AcDbArc
 50
356.087999999999
 51
84.087999999979
  0
ARC
  5
C7
100
AcDbEntity
  8
Frei
  6
CONTINUOUS
 62
           7
100
AcDbCircle
 10
-13840.348544894987
 20
-6326.670045167552
 30
0.0
 40
1.599999999998
100
AcDbArc
 50
356.087999999934
 51
84.088000000085
  0
LINE
  5
C8
100
AcDbEntity
  8
Frei
  6
CONTINUOUS
 62
           7
100
AcDbLine
 10
-14174.229766957917
 20
-6333.739127226671
 30
0.0
 11
-14174.18883241171
 21
-6333.140525219552
 31
0.0
  0
LINE
  5
C9
100
AcDbEntity
  8
Frei
  6
CONTINUOUS
 62
           7
100
AcDbLine
 10
-14174.18883241171
 20
-6333.140525219552
 30
0.0
 11
-14173.452010579982
 21
-6322.365689091413
 31
0.0
  0
LINE
  5
CA
100
AcDbEntity
  8
Frei
  6
CONTINUOUS
 62
           7
100
AcDbLine
 10
-14173.452010579982
 20
-6322.365689091413
 30
0.0
 11
-14173.411076033775
 21
-6321.767087084293
 31
0.0
  0
LINE
  5
CB
100
AcDbEntity
  8
Frei
  6
CONTINUOUS
 62
           7
100
AcDbLine
 10
-14173.411076033775
 20
-6321.767087084293
 30
0.0
 11
-14173.185936029633
 21
-6318.47477604514
 31
0.0
  0
LINE
  5
CC
100
AcDbEntity
  8
Frei
  6
CONTINUOUS
 62
           7
100
AcDbLine
 10
-14198.583192704751
 20
-6338.087765449572
 30
0.0
 11
-14197.282059452016
 21
-6338.176741595028
 31
0.0
  0
LINE
  5
CD
100
AcDbEntity
  8
Frei
  6
CONTINUOUS
 62
           7
100
AcDbLine
 10
-14195.644677603726
 20
-6314.232661310271
 30
0.0
 11
-14196.945810856461
 21
-6314.143685164815
 31
0.0
  0
LINE
  5
CE
100
AcDbEntity
  8
Frei
  6
CONTINUOUS
 62
           7
100
AcDbLine
 10
-14197.282059452016
 20
-6338.176741595028
 30
0.0
 11
-14193.495075644238
 21
-6338.435709092332
 31
0.0
  0
LINE
  5
CF
100
AcDbEntity
  8
Frei
  6
CONTINUOUS
 62
           7
100
AcDbLine
 10
-14191.857693795948
 20
-6314.491628807576
 30
0.0
 11
-14195.644677603726
 21
-6314.232661310271
 31
0.0
  0
LINE
  5
D0
100
AcDbEntity
  8
Frei
  6
CONTINUOUS
 62
           7
100
AcDbLine
 10
-14232.398911019714
 20
-6311.719275374065
 30
0.0
 11
-14196.945810856461
 21
-6314.143685164815
 31
0.0
  0
LINE
  5
D1
100
AcDbEntity
  8
Frei
  6
CONTINUOUS
 62
           7
100
AcDbLine
 10
-14234.036292868001
 20
-6335.663355658821
 30
0.0
 11
-14198.583192704751
 21
-6338.087765449572
 31
0.0
  0
LINE
  5
D2
100
AcDbEntity
  8
Frei
  6
CONTINUOUS
 62
           7
100
AcDbLine
 10
-14191.08259442389
 20
-6316.348836648244
 30
0.0
 11
-14192.474368994936
 21
-6336.701304890287
 31
0.0
  0
LINE
  5
D3
100
AcDbEntity
  8
Frei
  6
CONTINUOUS
 62
           7
100
AcDbLine
 10
-14174.022437221
 20
-6317.51547121515
 30
0.0
 11
-14176.736478317151
 21
-6317.329875377954
 31
0.0
  0
LINE
  5
D4
100
AcDbEntity
  8
Frei
  6
CONTINUOUS
 62
           7
100
AcDbLine
 10
-14174.454906962059
 20
-6337.031438265826
 30
0.0
 11
-14174.229766957917
 21
-6333.739127226671
 31
0.0
  0
LINE
  5
D5
100
AcDbEntity
  8
Frei
  6
CONTINUOUS
 62
           7
100
AcDbLine
 10
-14191.576465984253
 20
-6336.762706709597
 30
0.0
 11
-14189.740215535145
 21
-6336.888276082843
 31
0.0
  0
LINE
  5
D6
100
AcDbEntity
  8
Frei
  6
CONTINUOUS
 62
           7
100
AcDbLine
 10
-14188.266571871685
 20
-6315.338603826563
 30
0.0
 11
-14188.348440964102
 21
-6316.5358078408
 31
0.0
  0
LINE
  5
D7
100
AcDbEntity
  8
Frei
  6
CONTINUOUS
 62
           7
100
AcDbLine
 10
-14188.348440964102
 20
-6316.5358078408
 30
0.0
 11
-14190.184691413207
 21
-6316.410238467554
 31
0.0
  0
LINE
  5
D8
100
AcDbEntity
  8
Frei
  6
CONTINUOUS
 62
           7
100
AcDbLine
 10
-14188.348440964102
 20
-6316.5358078408
 30
0.0
 11
-14189.740215535145
 21
-6336.888276082843
 31
0.0
  0
LINE
  5
D9
100
AcDbEntity
  8
Frei
  6
CONTINUOUS
 62
           7
100
AcDbLine
 10
-14189.740215535145
 20
-6336.888276082843
 30
0.0
 11
-14189.822084627558
 21
-6338.085480097082
 31
0.0
  0
LINE
  5
DA
100
AcDbEntity
  8
Frei
  6
CONTINUOUS
 62
           7
100
AcDbLine
 10
-14178.21012198061
 20
-6338.879547634236
 30
0.0
 11
-14178.128252888193
 21
-6337.682343619997
 31
0.0
  0
LINE
  5
DB
100
AcDbEntity
  8
Frei
  6
CONTINUOUS
 62
           7
100
AcDbLine
 10
-14178.128252888193
 20
-6337.682343619997
 30
0.0
 11
-14175.414211792046
 21
-6337.867939457193
 31
0.0
  0
LINE
  5
DC
100
AcDbEntity
  8
Frei
  6
CONTINUOUS
 62
           7
100
AcDbLine
 10
-14178.128252888193
 20
-6337.682343619997
 30
0.0
 11
-14176.736478317151
 21
-6317.329875377954
 31
0.0
  0
LINE
  5
DD
100
AcDbEntity
  8
Frei
  6
CONTINUOUS
 62
           7
100
AcDbLine
 10
-14176.736478317151
 20
-6317.329875377954
 30
0.0
 11
-14176.654609224737
 21
-6316.132671363716
 31
0.0
  0
LINE
  5
DE
100
AcDbEntity
  8
Frei
  6
CONTINUOUS
 62
           7
100
AcDbLine
 10
-14188.266571871685
 20
-6315.338603826563
 30
0.0
 11
-14176.654609224737
 21
-6316.132671363716
 31
0.0
  0
LINE
  5
DF
100
AcDbEntity
  8
Frei
  6
CONTINUOUS
 62
           7
100
AcDbLine
 10
-14189.822084627558
 20
-6338.085480097082
 30
0.0
 11
-14178.21012198061
 21
-6338.879547634236
 31
0.0
  0
ARC
  5
E0
100
AcDbEntity
  8
Frei
  6
CONTINUOUS
 62
           7
100
AcDbCircle
 10
-14213.493874249245
 20
-6325.0400945601
 30
0.0
 40
20.866107311614
100
AcDbArc
 50
320.981694434247
 51
31.194305565753
  0
ARC
  5
E1
100
AcDbEntity
  8
Frei
  6
CONTINUOUS
 62
           7
100
AcDbCircle
 10
-14203.626455946007
 20
-6325.714863915492
 30
0.0
 40
29.660254037844
100
AcDbArc
 50
152.22307458395
 51
199.95292541605
  0
ARC
  5
E2
100
AcDbEntity
  8
Frei
  6
CONTINUOUS
 62
           7
100
AcDbCircle
 10
-14214.209435296743
 20
-6324.991161936397
 30
0.0
 40
22.516660498395
100
AcDbArc
 50
143.883772496028
 51
208.292227503973
  0
CIRCLE
  5
E3
100
AcDbEntity
  8
Frei
  6
CONTINUOUS
 62
           7
100
AcDbCircle
 10
-14221.708582065359
 20
-6324.478343458905
 30
0.0
 40
5.1
  0
ARC
  5
E4
100
AcDbEntity
  8
Frei
  6
CONTINUOUS
 62
           7
100
AcDbCircle
 10
-14191.91909561526
 20
-6315.389531818254
 30
0.0
 40
0.9
100
AcDbArc
 50
356.087999999999
 51
86.088
  0
ARC
  5
E5
100
AcDbEntity
  8
Frei
  6
CONTINUOUS
 62
           7
100
AcDbCircle
 10
-14190.123289593899
 20
-6315.512335456876
 30
0.0
 40
0.9
100
AcDbArc
 50
176.088
 51
266.087999999999
  0
ARC
  5
E6
100
AcDbEntity
  8
Frei
  6
CONTINUOUS
 62
           7
100
AcDbCircle
 10
-14174.083839040308
 20
-6318.413374225828
 30
0.0
 40
0.9
100
AcDbArc
 50
356.087999999999
 51
86.088
  0
ARC
  5
E7
100
AcDbEntity
  8
Frei
  6
CONTINUOUS
 62
           7
100
AcDbCircle
 10
-14175.352809972734
 20
-6336.970036446516
 30
0.0
 40
0.9
100
AcDbArc
 50
266.087999999999
 51
356.087999999999
  0
ARC
  5
E8
100
AcDbEntity
  8
Frei
  6
CONTINUOUS
 62
           7
100
AcDbCircle
 10
-14191.637867803569
 20
-6337.660609720278
 30
0.0
 40
0.9
100
AcDbArc
 50
86.088
 51
176.088
  0
ARC
  5
E9
100
AcDbEntity
  8
Frei
  6
CONTINUOUS
 62
           7
100
AcDbCircle
 10
-14193.433673824926
 20
-6337.537806081656
 30
0.0
 40
0.9
100
AcDbArc
 50
266.087999999999
 51
356.087999999999
  0
LINE
  5
EA
100
AcDbEntity
  8
Frei
  6
CONTINUOUS
 62
           7
100
AcDbLine
 10
-13915.935813842789
 20
-6365.134006624753
 30
0.0
 11
-13912.443968801261
 21
-6365.372791477627
 31
0.0
  0
LINE
  5
EB
100
AcDbEntity
  8
Frei
  6
CONTINUOUS
 62
           7
100
AcDbLine
 10
-13915.799365355429
 20
-6363.138666601023
 30
0.0
 11
-13915.935813842789
 21
-6365.134006624753
 31
0.0
  0
LINE
  5
EC
100
AcDbEntity
  8
Frei
  6
CONTINUOUS
 62
           7
100
AcDbLine
 10
-13910.798168474448
 20
-6355.963150608591
 30
0.0
 11
-13911.378074545715
 21
-6364.443345709443
 31
0.0
  0
LINE
  5
ED
100
AcDbEntity
  8
Frei
  6
CONTINUOUS
 62
           7
100
AcDbLine
 10
-13915.287683527837
 20
-6355.656141512035
 30
0.0
 11
-13910.798168474448
 21
-6355.963150608591
 31
0.0
  0
LINE
  5
EE
100
AcDbEntity
  8
Frei
  6
CONTINUOUS
 62
           7
100
AcDbLine
 10
-13915.321795649681
 20
-6356.154976517969
 30
0.0
 11
-13915.287683527837
 21
-6355.656141512035
 31
0.0
  0
LINE
  5
EF
100
AcDbEntity
  8
Frei
  6
CONTINUOUS
 62
           7
100
AcDbLine
 10
-13911.81221845352
 20
-6356.841099948252
 30
0.0
 11
-13915.321795649681
 21
-6356.154976517969
 31
0.0
  0
LINE
  5
F0
100
AcDbEntity
  8
Frei
  6
CONTINUOUS
 62
           7
100
AcDbLine
 10
-13911.549777647022
 20
-6359.419926888969
 30
0.0
 11
-13911.4093174761
 21
-6357.36592243494
 31
0.0
  0
LINE
  5
F1
100
AcDbEntity
  8
Frei
  6
CONTINUOUS
 62
           7
100
AcDbLine
 10
-13915.799365355429
 20
-6363.138666601023
 30
0.0
 11
-13915.321795649681
 21
-6356.154976517969
 31
0.0
  0
LINE
  5
F2
100
AcDbEntity
  8
Frei
  6
CONTINUOUS
 62
           7
100
AcDbLine
 10
-13912.229056776741
 20
-6362.936691081953
 30
0.0
 11
-13915.799365355429
 21
-6363.138666601023
 31
0.0
  0
LINE
  5
F3
100
AcDbEntity
  8
Frei
  6
CONTINUOUS
 62
           7
100
AcDbLine
 10
-13911.618001890703
 20
-6360.417596900837
 30
0.0
 11
-13911.758462061622
 21
-6362.471601354861
 31
0.0
  0
LINE
  5
F4
100
AcDbEntity
  8
Frei
  6
CONTINUOUS
 62
           2
100
AcDbLine
 10
-13913.166510885119
 20
-6359.810536602568
 30
0.0
 11
-13910.396126596803
 21
-6359.999985388761
 31
0.0
  0
LINE
  5
F5
100
AcDbEntity
  8
Frei
  6
CONTINUOUS
 62
           7
100
AcDbLine
 10
-13913.132398763279
 20
-6359.311701596637
 30
0.0
 11
-13911.549777647022
 21
-6359.419926888969
 31
0.0
  0
LINE
  5
F6
100
AcDbEntity
  8
Frei
  6
CONTINUOUS
 62
           7
100
AcDbLine
 10
-13913.166510885119
 20
-6359.810536602568
 30
0.0
 11
-13913.132398763279
 21
-6359.311701596637
 31
0.0
  0
LINE
  5
F7
100
AcDbEntity
  8
Frei
  6
CONTINUOUS
 62
           7
100
AcDbLine
 10
-13913.20062300696
 20
-6360.3093716085
 30
0.0
 11
-13913.166510885119
 21
-6359.810536602568
 31
0.0
  0
LINE
  5
F8
100
AcDbEntity
  8
Frei
  6
CONTINUOUS
 62
           7
100
AcDbLine
 10
-13911.618001890703
 20
-6360.417596900837
 30
0.0
 11
-13913.20062300696
 21
-6360.3093716085
 31
0.0
  0
LINE
  5
F9
100
AcDbEntity
  8
Frei
  6
CONTINUOUS
 62
           7
100
AcDbLine
 10
-14055.11078049794
 20
-6355.616724631572
 30
0.0
 11
-14052.859380456543
 21
-6322.693614240031
 31
0.0
  0
LINE
  5
FA
100
AcDbEntity
  8
Frei
  6
CONTINUOUS
 62
           7
100
AcDbLine
 10
-14069.078160664048
 20
-6354.661585220071
 30
0.0
 11
-14055.11078049794
 21
-6355.616724631572
 31
0.0
  0
LINE
  5
FB
100
AcDbEntity
  8
Frei
  6
CONTINUOUS
 62
           7
100
AcDbLine
 10
-14062.836080575191
 20
-6322.011371803245
 30
0.0
 11
-14053.358215462475
 21
-6322.659502118194
 31
0.0
  0
LINE
  5
FC
100
AcDbEntity
  8
Frei
  6
CONTINUOUS
 62
           7
100
AcDbLine
 10
-14062.972529062547
 20
-6324.006711826974
 30
0.0
 11
-14062.836080575191
 21
-6322.011371803245
 31
0.0
  0
LINE
  5
FD
100
AcDbEntity
  8
Frei
  6
CONTINUOUS
 62
           7
100
AcDbLine
 10
-14063.450098768299
 20
-6330.99040191003
 30
0.0
 11
-14063.484210890143
 21
-6331.489236915962
 31
0.0
  0
LINE
  5
FE
100
AcDbEntity
  8
Frei
  6
CONTINUOUS
 62
           7
100
AcDbLine
 10
-14068.472560949464
 20
-6331.148115697567
 30
0.0
 11
-14067.892654878196
 21
-6322.667920596717
 31
0.0
  0
LINE
  5
FF
100
AcDbEntity
  8
Frei
  6
CONTINUOUS
 62
           7
100
AcDbLine
 10
-14063.484210890143
 20
-6331.489236915962
 30
0.0
 11
-14068.472560949464
 21
-6331.148115697567
 31
0.0
  0
LINE
  5
100
100
AcDbEntity
  8
Frei
  6
CONTINUOUS
 62
           7
100
AcDbLine
 10
-14066.826760622651
 20
-6321.73847482853
 30
0.0
 11
-14062.836080575191
 21
-6322.011371803245
 31
0.0
  0
LINE
  5
101
100
AcDbEntity
  8
Frei
  6
CONTINUOUS
 62
           7
100
AcDbLine
 10
-14066.959675964456
 20
-6330.304278479746
 30
0.0
 11
-14063.450098768299
 21
-6330.99040191003
 31
0.0
  0
LINE
  5
102
100
AcDbEntity
  8
Frei
  6
CONTINUOUS
 62
           7
100
AcDbLine
 10
-14067.222116770954
 20
-6327.725451539028
 30
0.0
 11
-14067.362576941872
 21
-6329.779455993054
 31
0.0
  0
LINE
  5
103
100
AcDbEntity
  8
Frei
  6
CONTINUOUS
 62
           7
100
AcDbLine
 10
-14062.972529062547
 20
-6324.006711826974
 30
0.0
 11
-14063.450098768299
 21
-6330.99040191003
 31
0.0
  0
LINE
  5
104
100
AcDbEntity
  8
Frei
  6
CONTINUOUS
 62
           7
100
AcDbLine
 10
-14066.542837641238
 20
-6324.208687346046
 30
0.0
 11
-14062.972529062547
 21
-6324.006711826974
 31
0.0
  0
LINE
  5
105
100
AcDbEntity
  8
Frei
  6
CONTINUOUS
 62
           7
100
AcDbLine
 10
-14067.153892527276
 20
-6326.727781527162
 30
0.0
 11
-14067.013432356354
 21
-6324.673777073135
 31
0.0
  0
LINE
  5
106
100
AcDbEntity
  8
Frei
  6
CONTINUOUS
 62
           2
100
AcDbLine
 10
-14065.60538353286
 20
-6327.334841825429
 30
0.0
 11
-14068.375767821177
 21
-6327.145393039235
 31
0.0
  0
LINE
  5
107
100
AcDbEntity
  8
Frei
  6
CONTINUOUS
 62
           7
100
AcDbLine
 10
-14065.639495654697
 20
-6327.833676831361
 30
0.0
 11
-14067.222116770954
 21
-6327.725451539028
 31
0.0
  0
LINE
  5
108
100
AcDbEntity
  8
Frei
  6
CONTINUOUS
 62
           7
100
AcDbLine
 10
-14065.60538353286
 20
-6327.334841825429
 30
0.0
 11
-14065.639495654697
 21
-6327.833676831361
 31
0.0
  0
LINE
  5
109
100
AcDbEntity
  8
Frei
  6
CONTINUOUS
 62
           7
100
AcDbLine
 10
-14065.571271411023
 20
-6326.836006819497
 30
0.0
 11
-14065.60538353286
 21
-6327.334841825429
 31
0.0
  0
LINE
  5
10A
100
AcDbEntity
  8
Frei
  6
CONTINUOUS
 62
           7
100
AcDbLine
 10
-14067.153892527276
 20
-6326.727781527162
 30
0.0
 11
-14065.571271411023
 21
-6326.836006819497
 31
0.0
  0
LINE
  5
10B
100
AcDbEntity
  8
Frei
  6
CONTINUOUS
 62
           7
100
AcDbLine
 10
-14029.396500193594
 20
-6360.682866006374
 30
0.0
 11
-14029.430612315435
 21
-6361.181701012306
 31
0.0
  0
LINE
  5
10C
100
AcDbEntity
  8
Frei
  6
CONTINUOUS
 62
           7
100
AcDbLine
 10
-14029.430612315435
 20
-6361.181701012306
 30
0.0
 11
-13952.610021401833
 21
-6366.434967775568
 31
0.0
  0
LINE
  5
10D
100
AcDbEntity
  8
Frei
  6
CONTINUOUS
 62
           7
100
AcDbLine
 10
-13952.610021401833
 20
-6366.434967775568
 30
0.0
 11
-13949.403481948935
 21
-6319.544477217919
 31
0.0
  0
LINE
  5
10E
100
AcDbEntity
  8
Frei
  6
CONTINUOUS
 62
           7
100
AcDbLine
 10
-13949.403481948935
 20
-6319.544477217919
 30
0.0
 11
-14026.224072862533
 21
-6314.291210454657
 31
0.0
  0
LINE
  5
10F
100
AcDbEntity
  8
Frei
  6
CONTINUOUS
 62
           7
100
AcDbLine
 10
-14053.358215462475
 20
-6322.659502118194
 30
0.0
 11
-14052.859380456543
 21
-6322.693614240031
 31
0.0
  0
LINE
  5
110
100
AcDbEntity
  8
Frei
  6
CONTINUOUS
 62
           7
100
AcDbLine
 10
-14027.221742874397
 20
-6314.222986210979
 30
0.0
 11
-14052.66232817695
 21
-6312.483267997172
 31
0.0
  0
LINE
  5
111
100
AcDbEntity
  8
Frei
  6
CONTINUOUS
 62
           7
100
AcDbLine
 10
-14055.37003262392
 20
-6359.40787067666
 30
0.0
 11
-14055.11078049794
 21
-6355.616724631572
 31
0.0
  0
LINE
  5
112
100
AcDbEntity
  8
Frei
  6
CONTINUOUS
 62
           7
100
AcDbLine
 10
-14053.358215462475
 20
-6322.659502118194
 30
0.0
 11
-14052.66232817695
 21
-6312.483267997172
 31
0.0
  0
LINE
  5
113
100
AcDbEntity
  8
Frei
  6
CONTINUOUS
 62
           7
100
AcDbLine
 10
-14029.396500193594
 20
-6360.682866006374
 30
0.0
 11
-14030.394170205458
 21
-6360.614641762694
 31
0.0
  0
LINE
  5
114
100
AcDbEntity
  8
Frei
  6
CONTINUOUS
 62
           7
100
AcDbLine
 10
-14026.258184984374
 20
-6314.790045460589
 30
0.0
 11
-14029.396500193594
 21
-6360.682866006374
 31
0.0
  0
LINE
  5
115
100
AcDbEntity
  8
Frei
  6
CONTINUOUS
 62
           7
100
AcDbLine
 10
-14026.258184984374
 20
-6314.790045460589
 30
0.0
 11
-14027.255854996238
 21
-6314.721821216909
 31
0.0
  0
LINE
  5
116
100
AcDbEntity
  8
Frei
  6
CONTINUOUS
 62
           7
100
AcDbLine
 10
-14026.224072862533
 20
-6314.291210454657
 30
0.0
 11
-14026.258184984374
 21
-6314.790045460589
 31
0.0
  0
LINE
  5
117
100
AcDbEntity
  8
Frei
  6
CONTINUOUS
 62
           7
100
AcDbLine
 10
-14030.394170205458
 20
-6360.614641762694
 30
0.0
 11
-14027.221742874397
 21
-6314.222986210979
 31
0.0
  0
LINE
  5
118
100
AcDbEntity
  8
Frei
  6
CONTINUOUS
 62
           7
100
AcDbLine
 10
-14030.428282327295
 20
-6361.113476768626
 30
0.0
 11
-14030.394170205458
 21
-6360.614641762694
 31
0.0
  0
LINE
  5
119
100
AcDbEntity
  8
Frei
  6
CONTINUOUS
 62
           7
100
AcDbLine
 10
-14055.37003262392
 20
-6359.40787067666
 30
0.0
 11
-14030.428282327295
 21
-6361.113476768626
 31
0.0
  0
LINE
  5
11A
100
AcDbEntity
  8
Frei
  6
CONTINUOUS
 62
           7
100
AcDbLine
 10
-13951.612351389969
 20
-6366.503192019246
 30
0.0
 11
-13926.670601093349
 21
-6368.208798111214
 31
0.0
  0
LINE
  5
11B
100
AcDbEntity
  8
Frei
  6
CONTINUOUS
 62
           7
100
AcDbLine
 10
-13951.578239268129
 20
-6366.004357013312
 30
0.0
 11
-13951.612351389969
 21
-6366.503192019246
 31
0.0
  0
LINE
  5
11C
100
AcDbEntity
  8
Frei
  6
CONTINUOUS
 62
           7
100
AcDbLine
 10
-13948.405811937067
 20
-6319.612701461597
 30
0.0
 11
-13951.578239268129
 21
-6366.004357013312
 31
0.0
  0
LINE
  5
11D
100
AcDbEntity
  8
Frei
  6
CONTINUOUS
 62
           7
100
AcDbLine
 10
-13948.439924058912
 20
-6320.111536467529
 30
0.0
 11
-13949.437594070776
 21
-6320.043312223851
 31
0.0
  0
LINE
  5
11E
100
AcDbEntity
  8
Frei
  6
CONTINUOUS
 62
           7
100
AcDbLine
 10
-13951.578239268129
 20
-6366.004357013312
 30
0.0
 11
-13952.575909279996
 21
-6365.936132769632
 31
0.0
  0
LINE
  5
11F
100
AcDbEntity
  8
Frei
  6
CONTINUOUS
 62
           7
100
AcDbLine
 10
-13922.965226634515
 20
-6321.352419675405
 30
0.0
 11
-13923.661113920039
 21
-6331.528653796425
 31
0.0
  0
LINE
  5
120
100
AcDbEntity
  8
Frei
  6
CONTINUOUS
 62
           7
100
AcDbLine
 10
-13922.965226634515
 20
-6321.352419675405
 30
0.0
 11
-13948.405811937067
 21
-6319.612701461597
 31
0.0
  0
LINE
  5
121
100
AcDbEntity
  8
Frei
  6
CONTINUOUS
 62
           7
100
AcDbLine
 10
-13924.159948925972
 20
-6331.494541674584
 30
0.0
 11
-13923.661113920039
 21
-6331.528653796425
 31
0.0
  0
LINE
  5
122
100
AcDbEntity
  8
Frei
  6
CONTINUOUS
 62
           7
100
AcDbLine
 10
-13924.159948925972
 20
-6331.494541674584
 30
0.0
 11
-13926.670601093349
 21
-6368.208798111214
 31
0.0
  0
LINE
  5
123
100
AcDbEntity
  8
Frei
  6
CONTINUOUS
 62
           7
100
AcDbLine
 10
-14099.694493592171
 20
-6326.006041986094
 30
0.0
 11
-14101.689833615899
 21
-6325.869593498735
 31
0.0
  0
LINE
  5
124
100
AcDbEntity
  8
Frei
  6
CONTINUOUS
 62
           7
100
AcDbLine
 10
-14099.9930842102
 20
-6345.029996455206
 30
0.0
 11
-14098.765047823985
 21
-6327.071936241638
 31
0.0
  0
LINE
  5
125
100
AcDbEntity
  8
Frei
  6
CONTINUOUS
 62
           7
100
AcDbLine
 10
-14103.054318489474
 20
-6345.822993736031
 30
0.0
 11
-14101.058978465746
 21
-6345.95944222339
 31
0.0
  0
LINE
  5
126
100
AcDbEntity
  8
Frei
  6
CONTINUOUS
 62
           7
100
AcDbLine
 10
-14103.642643039268
 20
-6339.768749421165
 30
0.0
 11
-14103.98376425766
 21
-6344.757099480489
 31
0.0
  0
LINE
  5
127
100
AcDbEntity
  8
Frei
  6
CONTINUOUS
 62
           7
100
AcDbLine
 10
-14101.689833615899
 20
-6325.869593498735
 30
0.0
 11
-14102.755727871445
 21
-6326.799039266921
 31
0.0
  0
LINE
  5
128
100
AcDbEntity
  8
Frei
  6
CONTINUOUS
 62
           7
100
AcDbLine
 10
-14099.694493592171
 20
-6326.006041986094
 30
0.0
 11
-14098.765047823985
 21
-6327.071936241638
 31
0.0
  0
LINE
  5
129
100
AcDbEntity
  8
Frei
  6
CONTINUOUS
 62
           7
100
AcDbLine
 10
-14099.9930842102
 20
-6345.029996455206
 30
0.0
 11
-14101.058978465746
 21
-6345.95944222339
 31
0.0
  0
LINE
  5
12A
100
AcDbEntity
  8
Frei
  6
CONTINUOUS
 62
           7
100
AcDbLine
 10
-14103.054318489474
 20
-6345.822993736031
 30
0.0
 11
-14103.98376425766
 21
-6344.757099480489
 31
0.0
  0
LINE
  5
12B
100
AcDbEntity
  8
Frei
  6
CONTINUOUS
 62
           7
100
AcDbLine
 10
-14103.054318489474
 20
-6345.822993736031
 30
0.0
 11
-14101.689833615899
 21
-6325.869593498735
 31
0.0
  0
LINE
  5
12C
100
AcDbEntity
  8
Frei
  6
CONTINUOUS
 62
           7
100
AcDbLine
 10
-14101.058978465746
 20
-6345.95944222339
 30
0.0
 11
-14099.694493592171
 21
-6326.006041986094
 31
0.0
  0
LINE
  5
12D
100
AcDbEntity
  8
Frei
  6
CONTINUOUS
 62
           7
100
AcDbLine
 10
-14100.504766037793
 20
-6352.512521544192
 30
0.0
 11
-14099.9930842102
 21
-6345.029996455206
 31
0.0
  0
LINE
  5
12E
100
AcDbEntity
  8
Frei
  6
CONTINUOUS
 62
           7
100
AcDbLine
 10
-14070.924205378764
 20
-6345.013159498159
 30
0.0
 11
-14071.572335693709
 21
-6354.491024610871
 31
0.0
  0
LINE
  5
12F
100
AcDbEntity
  8
Frei
  6
CONTINUOUS
 62
           7
100
AcDbLine
 10
-14104.16274334538
 20
-6332.716835094431
 30
0.0
 11
-14103.096849089838
 21
-6331.787389326247
 31
0.0
  0
LINE
  5
130
100
AcDbEntity
  8
Frei
  6
CONTINUOUS
 62
           7
100
AcDbLine
 10
-14102.755727871445
 20
-6326.799039266921
 30
0.0
 11
-14103.096849089838
 21
-6331.787389326247
 31
0.0
  0
LINE
  5
131
100
AcDbEntity
  8
Frei
  6
CONTINUOUS
 62
           7
100
AcDbLine
 10
-14104.19685546722
 20
-6333.215670100363
 30
0.0
 11
-14104.16274334538
 21
-6332.716835094431
 31
0.0
  0
LINE
  5
132
100
AcDbEntity
  8
Frei
  6
CONTINUOUS
 62
           7
100
AcDbLine
 10
-14103.642643039268
 20
-6339.768749421165
 30
0.0
 11
-14104.572088807454
 21
-6338.702855165621
 31
0.0
  0
LINE
  5
133
100
AcDbEntity
  8
Frei
  6
CONTINUOUS
 62
           7
100
AcDbLine
 10
-14103.57441879559
 20
-6338.771079409301
 30
0.0
 11
-14103.642643039268
 21
-6339.768749421165
 31
0.0
  0
LINE
  5
134
100
AcDbEntity
  8
Frei
  6
CONTINUOUS
 62
           2
100
AcDbLine
 10
-14103.165073333519
 20
-6332.785059338111
 30
0.0
 11
-14104.16274334538
 21
-6332.716835094431
 31
0.0
  0
LINE
  5
135
100
AcDbEntity
  8
Frei
  6
CONTINUOUS
 62
           7
100
AcDbLine
 10
-14103.096849089838
 20
-6331.787389326247
 30
0.0
 11
-14103.165073333519
 21
-6332.785059338111
 31
0.0
  0
LINE
  5
136
100
AcDbEntity
  8
Frei
  6
CONTINUOUS
 62
           2
100
AcDbLine
 10
-14103.57441879559
 20
-6338.771079409301
 30
0.0
 11
-14104.572088807454
 21
-6338.702855165621
 31
0.0
  0
LINE
  5
137
100
AcDbEntity
  8
Frei
  6
CONTINUOUS
 62
           7
100
AcDbLine
 10
-14103.165073333519
 20
-6332.785059338111
 30
0.0
 11
-14103.57441879559
 21
-6338.771079409301
 31
0.0
  0
LINE
  5
138
100
AcDbEntity
  8
Frei
  6
CONTINUOUS
 62
           1
100
AcDbLine
 10
-14101.714302352477
 20
-6333.385435961452
 30
0.0
 11
-14104.19685546722
 21
-6333.215670100363
 31
0.0
  0
LINE
  5
139
100
AcDbEntity
  8
Frei
  6
CONTINUOUS
 62
           7
100
AcDbLine
 10
-14104.230967589057
 20
-6333.714505106295
 30
0.0
 11
-14104.19685546722
 21
-6333.215670100363
 31
0.0
  0
LINE
  5
13A
100
AcDbEntity
  8
Frei
  6
CONTINUOUS
 62
           1
100
AcDbLine
 10
-14102.055423570873
 20
-6338.373786020776
 30
0.0
 11
-14104.537976685613
 21
-6338.204020159689
 31
0.0
  0
LINE
  5
13B
100
AcDbEntity
  8
Frei
  6
CONTINUOUS
 62
           7
100
AcDbLine
 10
-14104.572088807454
 20
-6338.702855165621
 30
0.0
 11
-14104.537976685613
 21
-6338.204020159689
 31
0.0
  0
LINE
  5
13C
100
AcDbEntity
  8
Frei
  6
CONTINUOUS
 62
           1
100
AcDbLine
 10
-14101.748414474318
 20
-6333.884270967385
 30
0.0
 11
-14104.230967589057
 21
-6333.714505106295
 31
0.0
  0
LINE
  5
13D
100
AcDbEntity
  8
Frei
  6
CONTINUOUS
 62
           7
100
AcDbLine
 10
-14104.503864563772
 20
-6337.705185153757
 30
0.0
 11
-14104.230967589057
 21
-6333.714505106295
 31
0.0
  0
LINE
  5
13E
100
AcDbEntity
  8
Frei
  6
CONTINUOUS
 62
           1
100
AcDbLine
 10
-14102.021311449033
 20
-6337.874951014846
 30
0.0
 11
-14104.503864563772
 21
-6337.705185153757
 31
0.0
  0
LINE
  5
13F
100
AcDbEntity
  8
Frei
  6
CONTINUOUS
 62
           7
100
AcDbLine
 10
-14104.537976685613
 20
-6338.204020159689
 30
0.0
 11
-14104.503864563772
 21
-6337.705185153757
 31
0.0
  0
LINE
  5
140
100
AcDbEntity
  8
Frei
  6
CONTINUOUS
 62
           7
100
AcDbLine
 10
-14096.66505156544
 20
-6324.654873381153
 30
0.0
 11
-14069.593832627026
 21
-6325.558594266792
 31
0.0
  0
LINE
  5
141
100
AcDbEntity
  8
Frei
  6
CONTINUOUS
 62
           7
100
AcDbLine
 10
-14098.727120593219
 20
-6326.517311393832
 30
0.0
 11
-14098.765047823985
 21
-6327.071936241638
 31
0.0
  0
LINE
  5
142
100
AcDbEntity
  8
Frei
  6
CONTINUOUS
 62
           7
100
AcDbLine
 10
-14071.572335693709
 20
-6354.491024610871
 30
0.0
 11
-14100.504766037793
 21
-6352.512521544192
 31
0.0
  0
LINE
  5
143
100
AcDbEntity
  8
Frei
  6
CONTINUOUS
 62
           7
100
AcDbLine
 10
-14100.572990281471
 20
-6353.510191556056
 30
0.0
 11
-14100.504766037793
 21
-6352.512521544192
 31
0.0
  0
LINE
  5
144
100
AcDbEntity
  8
Frei
  6
CONTINUOUS
 62
           7
100
AcDbLine
 10
-14100.074155275539
 20
-6353.544303677897
 30
0.0
 11
-14100.572990281471
 21
-6353.510191556056
 31
0.0
  0
LINE
  5
145
100
AcDbEntity
  8
Frei
  6
CONTINUOUS
 62
           7
100
AcDbLine
 10
-14071.572335693709
 20
-6354.491024610871
 30
0.0
 11
-14071.64055993739
 21
-6355.488694622739
 31
0.0
  0
LINE
  5
146
100
AcDbEntity
  8
Frei
  6
CONTINUOUS
 62
           7
100
AcDbLine
 10
-14111.436605567942
 20
-6365.797659273511
 30
0.0
 11
-14100.961070443362
 21
-6366.514013832138
 31
0.0
  0
LINE
  5
147
100
AcDbEntity
  8
Frei
  6
CONTINUOUS
 62
           7
100
AcDbLine
 10
-14114.024698484602
 20
-6381.658043097833
 30
0.0
 11
-14114.058810606439
 21
-6382.156878103765
 31
0.0
  0
LINE
  5
148
100
AcDbEntity
  8
Frei
  6
CONTINUOUS
 62
           7
100
AcDbLine
 10
-14112.664641954161
 20
-6383.755719487082
 30
0.0
 11
-14102.189106829577
 21
-6384.472074045706
 31
0.0
  0
LINE
  5
149
100
AcDbEntity
  8
Frei
  6
CONTINUOUS
 62
           7
100
AcDbLine
 10
-14101.950321976703
 20
-6380.98022900418
 30
0.0
 11
-14100.074155275539
 21
-6353.544303677897
 31
0.0
  0
LINE
  5
14A
100
AcDbEntity
  8
Frei
  6
CONTINUOUS
 62
           7
100
AcDbLine
 10
-14072.139394943322
 20
-6355.454582500898
 30
0.0
 11
-14100.074155275539
 21
-6353.544303677897
 31
0.0
  0
LINE
  5
14B
100
AcDbEntity
  8
Frei
  6
CONTINUOUS
 62
           7
100
AcDbLine
 10
-14100.556153324422
 20
-6382.579070387496
 30
0.0
 11
-14094.605947995286
 21
-6382.985966709411
 31
0.0
  0
LINE
  5
14C
100
AcDbEntity
  8
Frei
  6
CONTINUOUS
 62
           7
100
AcDbLine
 10
-14074.015561644486
 20
-6382.890507827183
 30
0.0
 11
-14072.139394943322
 21
-6355.454582500898
 31
0.0
  0
LINE
  5
14D
100
AcDbEntity
  8
Frei
  6
CONTINUOUS
 62
           7
100
AcDbLine
 10
-14071.64055993739
 20
-6355.488694622739
 30
0.0
 11
-14072.139394943322
 21
-6355.454582500898
 31
0.0
  0
LINE
  5
14E
100
AcDbEntity
  8
Frei
  6
CONTINUOUS
 62
           7
100
AcDbLine
 10
-14094.605947995286
 20
-6382.985966709411
 30
0.0
 11
-14102.189106829577
 21
-6384.472074045706
 31
0.0
  0
LINE
  5
14F
100
AcDbEntity
  8
Frei
  6
CONTINUOUS
 62
           7
100
AcDbLine
 10
-14075.614403027805
 20
-6384.284676479464
 30
0.0
 11
-14094.605947995286
 21
-6382.985966709411
 31
0.0
  0
LINE
  5
150
100
AcDbEntity
  8
Frei
  6
CONTINUOUS
 62
           7
100
AcDbLine
 10
-14118.057909132422
 20
-6367.34954171333
 30
0.0
 11
-14113.069559073097
 21
-6367.690662931725
 31
0.0
  0
LINE
  5
151
100
AcDbEntity
  8
Frei
  6
CONTINUOUS
 62
           7
100
AcDbLine
 10
-14113.03544695126
 20
-6367.191827925793
 30
0.0
 11
-14113.069559073097
 21
-6367.690662931725
 31
0.0
  0
LINE
  5
152
100
AcDbEntity
  8
Frei
  6
CONTINUOUS
 62
           7
100
AcDbLine
 10
-14119.013048543922
 20
-6381.31692187944
 30
0.0
 11
-14114.024698484602
 21
-6381.658043097833
 31
0.0
  0
LINE
  5
153
100
AcDbEntity
  8
Frei
  6
CONTINUOUS
 62
           7
100
AcDbLine
 10
-14113.95647424092
 20
-6380.660373085969
 30
0.0
 11
-14114.024698484602
 21
-6381.658043097833
 31
0.0
  0
LINE
  5
154
100
AcDbEntity
  8
Frei
  6
CONTINUOUS
 62
           2
100
AcDbLine
 10
-14113.137783316775
 20
-6368.688332943589
 30
0.0
 11
-14118.126133376099
 21
-6368.347211725196
 31
0.0
  0
LINE
  5
155
100
AcDbEntity
  8
Frei
  6
CONTINUOUS
 62
           7
100
AcDbLine
 10
-14113.069559073097
 20
-6367.690662931725
 30
0.0
 11
-14113.137783316775
 21
-6368.688332943589
 31
0.0
  0
LINE
  5
156
100
AcDbEntity
  8
Frei
  6
CONTINUOUS
 62
           2
100
AcDbLine
 10
-14113.95647424092
 20
-6380.660373085969
 30
0.0
 11
-14118.944824300244
 21
-6380.319251867574
 31
0.0
  0
LINE
  5
157
100
AcDbEntity
  8
Frei
  6
CONTINUOUS
 62
           7
100
AcDbLine
 10
-14113.137783316775
 20
-6368.688332943589
 30
0.0
 11
-14113.95647424092
 21
-6380.660373085969
 31
0.0
  0
LINE
  5
158
100
AcDbEntity
  8
Frei
  6
CONTINUOUS
 62
           7
100
AcDbLine
 10
-14069.96906596726
 20
-6331.045779332048
 30
0.0
 11
-14069.214838755997
 21
-6331.097356086325
 31
0.0
  0
LINE
  5
159
100
AcDbEntity
  8
Frei
  6
CONTINUOUS
 62
           7
100
AcDbLine
 10
-14069.593832627026
 20
-6325.558594266792
 30
0.0
 11
-14069.96906596726
 21
-6331.045779332048
 31
0.0
  0
LINE
  5
15A
100
AcDbEntity
  8
Frei
  6
CONTINUOUS
 62
           7
100
AcDbLine
 10
-14070.207850820138
 20
-6334.537624373576
 30
0.0
 11
-14069.453623608875
 21
-6334.589201127851
 31
0.0
  0
LINE
  5
15B
100
AcDbEntity
  8
Frei
  6
CONTINUOUS
 62
           7
100
AcDbLine
 10
-14069.96906596726
 20
-6331.045779332048
 30
0.0
 11
-14070.207850820138
 21
-6334.537624373576
 31
0.0
  0
LINE
  5
15C
100
AcDbEntity
  8
Frei
  6
CONTINUOUS
 62
           7
100
AcDbLine
 10
-14070.685420525886
 20
-6341.521314456631
 30
0.0
 11
-14069.931193314627
 21
-6341.572891210905
 31
0.0
  0
LINE
  5
15D
100
AcDbEntity
  8
Frei
  6
CONTINUOUS
 62
           7
100
AcDbLine
 10
-14070.207850820138
 20
-6334.537624373576
 30
0.0
 11
-14070.685420525886
 21
-6341.521314456631
 31
0.0
  0
LINE
  5
15E
100
AcDbEntity
  8
Frei
  6
CONTINUOUS
 62
           7
100
AcDbLine
 10
-14070.924205378764
 20
-6345.013159498159
 30
0.0
 11
-14070.169978167502
 21
-6345.064736252433
 31
0.0
  0
LINE
  5
15F
100
AcDbEntity
  8
Frei
  6
CONTINUOUS
 62
           7
100
AcDbLine
 10
-14070.685420525886
 20
-6341.521314456631
 30
0.0
 11
-14070.924205378764
 21
-6345.013159498159
 31
0.0
  0
LINE
  5
160
100
AcDbEntity
  8
Frei
  6
CONTINUOUS
 62
           7
100
AcDbLine
 10
-14068.950130655212
 20
-6338.131805780621
 30
0.0
 11
-14068.591953375901
 21
-6332.894038218329
 31
0.0
  0
LINE
  5
161
100
AcDbEntity
  8
Frei
  6
CONTINUOUS
 62
           7
100
AcDbLine
 10
-14117.994583169057
 20
-6366.423501185568
 30
0.0
 11
-14117.905250270924
 21
-6365.117150997784
 31
0.0
  0
LINE
  5
162
100
AcDbEntity
  8
Frei
  6
CONTINUOUS
 62
           7
100
AcDbLine
 10
-14123.399835832177
 20
-6383.259767749379
 30
0.0
 11
-14119.165707405424
 21
-6383.549312594986
 31
0.0
  0
LINE
  5
163
100
AcDbEntity
  8
Frei
  6
CONTINUOUS
 62
           7
100
AcDbLine
 10
-14122.982933228381
 20
-6366.082379967175
 30
0.0
 11
-14117.994583169057
 21
-6366.423501185568
 31
0.0
  0
LINE
  5
164
100
AcDbEntity
  8
Frei
  6
CONTINUOUS
 62
           7
100
AcDbLine
 10
-14118.131031656416
 20
-6368.418841209296
 30
0.0
 11
-14117.994583169057
 21
-6366.423501185568
 31
0.0
  0
LINE
  5
165
100
AcDbEntity
  8
Frei
  6
CONTINUOUS
 62
           7
100
AcDbLine
 10
-14118.131031656416
 20
-6368.418841209296
 30
0.0
 11
-14123.11938171574
 21
-6368.077719990904
 31
0.0
  0
LINE
  5
166
100
AcDbEntity
  8
Frei
  6
CONTINUOUS
 62
           7
100
AcDbLine
 10
-14122.982933228381
 20
-6366.082379967175
 30
0.0
 11
-14123.11938171574
 21
-6368.077719990904
 31
0.0
  0
LINE
  5
167
100
AcDbEntity
  8
Frei
  6
CONTINUOUS
 62
           7
100
AcDbLine
 10
-14118.220364554545
 20
-6369.725191397084
 30
0.0
 11
-14118.131031656416
 21
-6368.418841209296
 31
0.0
  0
LINE
  5
168
100
AcDbEntity
  8
Frei
  6
CONTINUOUS
 62
           7
100
AcDbLine
 10
-14118.399030350814
 20
-6372.337891772656
 30
0.0
 11
-14118.220364554545
 21
-6369.725191397084
 31
0.0
  0
LINE
  5
169
100
AcDbEntity
  8
Frei
  6
CONTINUOUS
 62
           7
100
AcDbLine
 10
-14118.399030350814
 20
-6372.337891772656
 30
0.0
 11
-14123.387380410139
 21
-6371.996770554261
 31
0.0
  0
LINE
  5
16A
100
AcDbEntity
  8
Frei
  6
CONTINUOUS
 62
           7
100
AcDbLine
 10
-14123.11938171574
 20
-6368.077719990904
 30
0.0
 11
-14123.387380410139
 21
-6371.996770554261
 31
0.0
  0
LINE
  5
16B
100
AcDbEntity
  8
Frei
  6
CONTINUOUS
 62
           7
100
AcDbLine
 10
-14118.671927325529
 20
-6376.328571820112
 30
0.0
 11
-14118.399030350814
 21
-6372.337891772656
 31
0.0
  0
LINE
  5
16C
100
AcDbEntity
  8
Frei
  6
CONTINUOUS
 62
           7
100
AcDbLine
 10
-14118.671927325529
 20
-6376.328571820112
 30
0.0
 11
-14123.660277384854
 21
-6375.98745060172
 31
0.0
  0
LINE
  5
16D
100
AcDbEntity
  8
Frei
  6
CONTINUOUS
 62
           7
100
AcDbLine
 10
-14123.387380410139
 20
-6371.996770554261
 30
0.0
 11
-14123.660277384854
 21
-6375.98745060172
 31
0.0
  0
LINE
  5
16E
100
AcDbEntity
  8
Frei
  6
CONTINUOUS
 62
           7
100
AcDbLine
 10
-14118.850593121799
 20
-6378.941272195686
 30
0.0
 11
-14118.671927325529
 21
-6376.328571820112
 31
0.0
  0
LINE
  5
16F
100
AcDbEntity
  8
Frei
  6
CONTINUOUS
 62
           7
100
AcDbLine
 10
-14118.939926019932
 20
-6380.247622383472
 30
0.0
 11
-14118.850593121799
 21
-6378.941272195686
 31
0.0
  0
LINE
  5
170
100
AcDbEntity
  8
Frei
  6
CONTINUOUS
 62
           7
100
AcDbLine
 10
-14118.939926019932
 20
-6380.247622383472
 30
0.0
 11
-14123.928276079256
 21
-6379.906501165079
 31
0.0
  0
LINE
  5
171
100
AcDbEntity
  8
Frei
  6
CONTINUOUS
 62
           7
100
AcDbLine
 10
-14123.660277384854
 20
-6375.98745060172
 30
0.0
 11
-14123.928276079256
 21
-6379.906501165079
 31
0.0
  0
LINE
  5
172
100
AcDbEntity
  8
Frei
  6
CONTINUOUS
 62
           7
100
AcDbLine
 10
-14119.076374507287
 20
-6382.242962407202
 30
0.0
 11
-14118.939926019932
 21
-6380.247622383472
 31
0.0
  0
LINE
  5
173
100
AcDbEntity
  8
Frei
  6
CONTINUOUS
 62
           7
100
AcDbLine
 10
-14119.076374507287
 20
-6382.242962407202
 30
0.0
 11
-14124.064724566611
 21
-6381.901841188807
 31
0.0
  0
LINE
  5
174
100
AcDbEntity
  8
Frei
  6
CONTINUOUS
 62
           7
100
AcDbLine
 10
-14123.928276079256
 20
-6379.906501165079
 30
0.0
 11
-14124.064724566611
 21
-6381.901841188807
 31
0.0
  0
LINE
  5
175
100
AcDbEntity
  8
Frei
  6
CONTINUOUS
 62
           7
100
AcDbLine
 10
-14119.165707405424
 20
-6383.549312594986
 30
0.0
 11
-14119.076374507287
 21
-6382.242962407202
 31
0.0
  0
LINE
  5
176
100
AcDbEntity
  8
Frei
  6
CONTINUOUS
 62
           7
100
AcDbLine
 10
-14122.982933228381
 20
-6366.082379967175
 30
0.0
 11
-14122.139378697673
 21
-6364.827606152175
 31
0.0
  0
LINE
  5
177
100
AcDbEntity
  8
Frei
  6
CONTINUOUS
 62
           7
100
AcDbLine
 10
-14117.905250270924
 20
-6365.117150997784
 30
0.0
 11
-14122.139378697673
 21
-6364.827606152175
 31
0.0
  0
LINE
  5
178
100
AcDbEntity
  8
Frei
  6
CONTINUOUS
 62
           7
100
AcDbLine
 10
-14123.399835832177
 20
-6383.259767749379
 30
0.0
 11
-14124.064724566611
 21
-6381.901841188807
 31
0.0
  0
LINE
  5
179
100
AcDbEntity
  8
Frei
  6
CONTINUOUS
 62
           7
100
AcDbLine
 10
-14122.454492981298
 20
-6369.435646551477
 30
0.0
 11
-14123.11938171574
 21
-6368.077719990904
 31
0.0
  0
LINE
  5
17A
100
AcDbEntity
  8
Frei
  6
CONTINUOUS
 62
           7
100
AcDbLine
 10
-14118.220364554545
 20
-6369.725191397084
 30
0.0
 11
-14122.454492981298
 21
-6369.435646551477
 31
0.0
  0
LINE
  5
17B
100
AcDbEntity
  8
Frei
  6
CONTINUOUS
 62
           7
100
AcDbLine
 10
-14123.387380410139
 20
-6371.996770554261
 30
0.0
 11
-14122.454492981298
 21
-6369.435646551477
 31
0.0
  0
LINE
  5
17C
100
AcDbEntity
  8
Frei
  6
CONTINUOUS
 62
           7
100
AcDbLine
 10
-14123.084721548548
 20
-6378.651727350077
 30
0.0
 11
-14123.660277384854
 21
-6375.98745060172
 31
0.0
  0
LINE
  5
17D
100
AcDbEntity
  8
Frei
  6
CONTINUOUS
 62
           7
100
AcDbLine
 10
-14118.850593121799
 20
-6378.941272195686
 30
0.0
 11
-14123.084721548548
 21
-6378.651727350077
 31
0.0
  0
LINE
  5
17E
100
AcDbEntity
  8
Frei
  6
CONTINUOUS
 62
           7
100
AcDbLine
 10
-14123.928276079256
 20
-6379.906501165079
 30
0.0
 11
-14123.084721548548
 21
-6378.651727350077
 31
0.0
  0
LINE
  5
17F
100
AcDbEntity
  8
Frei
  6
CONTINUOUS
 62
           3
100
AcDbLine
 10
-14078.621855939211
 20
-6376.962434542348
 30
0.0
 11
-14096.579916152779
 21
-6375.734398156129
 31
0.0
  0
LINE
  5
180
100
AcDbEntity
  8
Frei
  6
CONTINUOUS
 62
           3
100
AcDbLine
 10
-14079.261392492535
 20
-6377.520102003257
 30
0.0
 11
-14078.621855939211
 21
-6376.962434542348
 31
0.0
  0
LINE
  5
181
100
AcDbEntity
  8
Frei
  6
CONTINUOUS
 62
           3
100
AcDbLine
 10
-14078.703725031624
 20
-6378.159638556584
 30
0.0
 11
-14079.261392492535
 21
-6377.520102003257
 31
0.0
  0
LINE
  5
182
100
AcDbEntity
  8
Frei
  6
CONTINUOUS
 62
           3
100
AcDbLine
 10
-14096.661785245193
 20
-6376.931602170368
 30
0.0
 11
-14078.703725031624
 21
-6378.159638556584
 31
0.0
  0
LINE
  5
183
100
AcDbEntity
  8
Frei
  6
CONTINUOUS
 62
           3
100
AcDbLine
 10
-14096.022248691868
 20
-6376.373934709457
 30
0.0
 11
-14096.661785245193
 21
-6376.931602170368
 31
0.0
  0
LINE
  5
184
100
AcDbEntity
  8
Frei
  6
CONTINUOUS
 62
           3
100
AcDbLine
 10
-14096.579916152779
 20
-6375.734398156129
 30
0.0
 11
-14096.022248691868
 21
-6376.373934709457
 31
0.0
  0
LINE
  5
185
100
AcDbEntity
  8
Frei
  6
CONTINUOUS
 62
           3
100
AcDbLine
 10
-14079.261392492535
 20
-6377.520102003257
 30
0.0
 11
-14096.022248691868
 21
-6376.373934709457
 31
0.0
  0
LINE
  5
186
100
AcDbEntity
  8
Frei
  6
CONTINUOUS
 62
           3
100
AcDbLine
 10
-14096.525336757837
 20
-6374.93626214664
 30
0.0
 11
-14095.885800204505
 21
-6374.378594685725
 31
0.0
  0
LINE
  5
187
100
AcDbEntity
  8
Frei
  6
CONTINUOUS
 62
           3
100
AcDbLine
 10
-14078.567276544265
 20
-6376.164298532855
 30
0.0
 11
-14096.525336757837
 21
-6374.93626214664
 31
0.0
  0
LINE
  5
188
100
AcDbEntity
  8
Frei
  6
CONTINUOUS
 62
           3
100
AcDbLine
 10
-14079.12494400518
 20
-6375.524761979527
 30
0.0
 11
-14078.567276544265
 21
-6376.164298532855
 31
0.0
  0
LINE
  5
189
100
AcDbEntity
  8
Frei
  6
CONTINUOUS
 62
           3
100
AcDbLine
 10
-14078.485407451852
 20
-6374.967094518618
 30
0.0
 11
-14079.12494400518
 21
-6375.524761979527
 31
0.0
  0
LINE
  5
18A
100
AcDbEntity
  8
Frei
  6
CONTINUOUS
 62
           3
100
AcDbLine
 10
-14096.44346766542
 20
-6373.739058132401
 30
0.0
 11
-14078.485407451852
 21
-6374.967094518618
 31
0.0
  0
LINE
  5
18B
100
AcDbEntity
  8
Frei
  6
CONTINUOUS
 62
           3
100
AcDbLine
 10
-14095.885800204505
 20
-6374.378594685725
 30
0.0
 11
-14096.44346766542
 21
-6373.739058132401
 31
0.0
  0
LINE
  5
18C
100
AcDbEntity
  8
Frei
  6
CONTINUOUS
 62
           3
100
AcDbLine
 10
-14095.885800204505
 20
-6374.378594685725
 30
0.0
 11
-14079.12494400518
 21
-6375.524761979527
 31
0.0
  0
LINE
  5
18D
100
AcDbEntity
  8
Frei
  6
CONTINUOUS
 62
           3
100
AcDbLine
 10
-14096.388888270478
 20
-6372.940922122908
 30
0.0
 11
-14095.74935171715
 21
-6372.383254661997
 31
0.0
  0
LINE
  5
18E
100
AcDbEntity
  8
Frei
  6
CONTINUOUS
 62
           3
100
AcDbLine
 10
-14078.430828056909
 20
-6374.168958509125
 30
0.0
 11
-14096.388888270478
 21
-6372.940922122908
 31
0.0
  0
LINE
  5
18F
100
AcDbEntity
  8
Frei
  6
CONTINUOUS
 62
           3
100
AcDbLine
 10
-14078.98849551782
 20
-6373.529421955799
 30
0.0
 11
-14078.430828056909
 21
-6374.168958509125
 31
0.0
  0
LINE
  5
190
100
AcDbEntity
  8
Frei
  6
CONTINUOUS
 62
           3
100
AcDbLine
 10
-14078.348958964492
 20
-6372.971754494888
 30
0.0
 11
-14078.98849551782
 21
-6373.529421955799
 31
0.0
  0
LINE
  5
191
100
AcDbEntity
  8
Frei
  6
CONTINUOUS
 62
           3
100
AcDbLine
 10
-14096.307019178064
 20
-6371.743718108673
 30
0.0
 11
-14078.348958964492
 21
-6372.971754494888
 31
0.0
  0
LINE
  5
192
100
AcDbEntity
  8
Frei
  6
CONTINUOUS
 62
           3
100
AcDbLine
 10
-14095.74935171715
 20
-6372.383254661997
 30
0.0
 11
-14096.307019178064
 21
-6371.743718108673
 31
0.0
  0
LINE
  5
193
100
AcDbEntity
  8
Frei
  6
CONTINUOUS
 62
           3
100
AcDbLine
 10
-14096.252439783122
 20
-6370.94558209918
 30
0.0
 11
-14095.612903229794
 21
-6370.387914638265
 31
0.0
  0
LINE
  5
194
100
AcDbEntity
  8
Frei
  6
CONTINUOUS
 62
           3
100
AcDbLine
 10
-14090.173716924761
 20
-6371.361266909401
 30
0.0
 11
-14096.252439783122
 21
-6370.94558209918
 31
0.0
  0
LINE
  5
195
100
AcDbEntity
  8
Frei
  6
CONTINUOUS
 62
           3
100
AcDbLine
 10
-14078.852047030465
 20
-6371.534081932069
 30
0.0
 11
-14078.29437956955
 21
-6372.173618485395
 31
0.0
  0
LINE
  5
196
100
AcDbEntity
  8
Frei
  6
CONTINUOUS
 62
           3
100
AcDbLine
 10
-14078.212510477137
 20
-6370.976414471156
 30
0.0
 11
-14078.852047030465
 21
-6371.534081932069
 31
0.0
  0
LINE
  5
197
100
AcDbEntity
  8
Frei
  6
CONTINUOUS
 62
           3
100
AcDbLine
 10
-14084.291233335494
 20
-6370.560729660937
 30
0.0
 11
-14078.212510477137
 21
-6370.976414471156
 31
0.0
  0
LINE
  5
198
100
AcDbEntity
  8
Frei
  6
CONTINUOUS
 62
           3
100
AcDbLine
 10
-14095.612903229794
 20
-6370.387914638265
 30
0.0
 11
-14096.170570690705
 21
-6369.748378084941
 31
0.0
  0
LINE
  5
199
100
AcDbEntity
  8
Frei
  6
CONTINUOUS
 62
           3
100
AcDbLine
 10
-14096.115991295763
 20
-6368.950242075448
 30
0.0
 11
-14095.476454742435
 21
-6368.392574614537
 31
0.0
  0
LINE
  5
19A
100
AcDbEntity
  8
Frei
  6
CONTINUOUS
 62
           3
100
AcDbLine
 10
-14090.781745861033
 20
-6369.315016856742
 30
0.0
 11
-14096.115991295763
 21
-6368.950242075448
 31
0.0
  0
LINE
  5
19B
100
AcDbEntity
  8
Frei
  6
CONTINUOUS
 62
           3
100
AcDbLine
 10
-14078.715598543105
 20
-6369.538741908339
 30
0.0
 11
-14078.157931082194
 21
-6370.178278461667
 31
0.0
  0
LINE
  5
19C
100
AcDbEntity
  8
Frei
  6
CONTINUOUS
 62
           3
100
AcDbLine
 10
-14084.049843977835
 20
-6369.173967127045
 30
0.0
 11
-14078.715598543105
 21
-6369.538741908339
 31
0.0
  0
LINE
  5
19D
100
AcDbEntity
  8
Frei
  6
CONTINUOUS
 62
           3
100
AcDbLine
 10
-14089.534180371436
 20
-6370.803599448486
 30
0.0
 11
-14095.612903229794
 21
-6370.387914638265
 31
0.0
  0
LINE
  5
19E
100
AcDbEntity
  8
Frei
  6
CONTINUOUS
 62
           3
100
AcDbLine
 10
-14078.98849551782
 20
-6373.529421955799
 30
0.0
 11
-14095.74935171715
 21
-6372.383254661997
 31
0.0
  0
LINE
  5
19F
100
AcDbEntity
  8
Frei
  6
CONTINUOUS
 62
           3
100
AcDbLine
 10
-14089.534180371436
 20
-6370.803599448486
 30
0.0
 11
-14090.091847832344
 21
-6370.16406289516
 31
0.0
  0
LINE
  5
1A0
100
AcDbEntity
  8
Frei
  6
CONTINUOUS
 62
           3
100
AcDbLine
 10
-14096.170570690705
 20
-6369.748378084941
 30
0.0
 11
-14090.091847832344
 21
-6370.16406289516
 31
0.0
  0
LINE
  5
1A1
100
AcDbEntity
  8
Frei
  6
CONTINUOUS
 62
           3
100
AcDbLine
 10
-14090.173716924761
 20
-6371.361266909401
 30
0.0
 11
-14089.534180371436
 21
-6370.803599448486
 31
0.0
  0
LINE
  5
1A2
100
AcDbEntity
  8
Frei
  6
CONTINUOUS
 62
           3
100
AcDbLine
 10
-14090.142209307709
 20
-6368.757349395831
 30
0.0
 11
-14090.781745861033
 21
-6369.315016856742
 31
0.0
  0
LINE
  5
1A3
100
AcDbEntity
  8
Frei
  6
CONTINUOUS
 62
           3
100
AcDbLine
 10
-14095.476454742435
 20
-6368.392574614537
 30
0.0
 11
-14090.142209307709
 21
-6368.757349395831
 31
0.0
  0
LINE
  5
1A4
100
AcDbEntity
  8
Frei
  6
CONTINUOUS
 62
           3
100
AcDbLine
 10
-14083.49217651692
 20
-6369.813503680372
 30
0.0
 11
-14084.049843977835
 21
-6369.173967127045
 31
0.0
  0
LINE
  5
1A5
100
AcDbEntity
  8
Frei
  6
CONTINUOUS
 62
           3
100
AcDbLine
 10
-14078.157931082194
 20
-6370.178278461667
 30
0.0
 11
-14083.49217651692
 21
-6369.813503680372
 31
0.0
  0
LINE
  5
1A6
100
AcDbEntity
  8
Frei
  6
CONTINUOUS
 62
           3
100
AcDbLine
 10
-14084.930769888822
 20
-6371.11839712185
 30
0.0
 11
-14084.291233335494
 21
-6370.560729660937
 31
0.0
  0
LINE
  5
1A7
100
AcDbEntity
  8
Frei
  6
CONTINUOUS
 62
           3
100
AcDbLine
 10
-14078.852047030465
 20
-6371.534081932069
 30
0.0
 11
-14084.930769888822
 21
-6371.11839712185
 31
0.0
  0
LINE
  5
1A8
100
AcDbEntity
  8
Frei
  6
CONTINUOUS
 62
           3
100
AcDbLine
 10
-14084.373102427908
 20
-6371.757933675178
 30
0.0
 11
-14084.930769888822
 21
-6371.11839712185
 31
0.0
  0
LINE
  5
1A9
100
AcDbEntity
  8
Frei
  6
CONTINUOUS
 62
           3
100
AcDbLine
 10
-14078.29437956955
 20
-6372.173618485395
 30
0.0
 11
-14084.373102427908
 21
-6371.757933675178
 31
0.0
  0
LINE
  5
1AA
100
AcDbEntity
  8
Frei
  6
CONTINUOUS
 62
           3
100
AcDbLine
 10
-14096.170570690705
 20
-6369.748378084941
 30
0.0
 11
-14096.252439783122
 21
-6370.94558209918
 31
0.0
  0
LINE
  5
1AB
100
AcDbEntity
  8
Frei
  6
CONTINUOUS
 62
           3
100
AcDbLine
 10
-14096.388888270478
 20
-6372.940922122908
 30
0.0
 11
-14096.307019178064
 21
-6371.743718108673
 31
0.0
  0
LINE
  5
1AC
100
AcDbEntity
  8
Frei
  6
CONTINUOUS
 62
           3
100
AcDbLine
 10
-14096.525336757837
 20
-6374.93626214664
 30
0.0
 11
-14096.44346766542
 21
-6373.739058132401
 31
0.0
  0
LINE
  5
1AD
100
AcDbEntity
  8
Frei
  6
CONTINUOUS
 62
           3
100
AcDbLine
 10
-14096.661785245193
 20
-6376.931602170368
 30
0.0
 11
-14096.579916152779
 21
-6375.734398156129
 31
0.0
  0
LINE
  5
1AE
100
AcDbEntity
  8
Frei
  6
CONTINUOUS
 62
           3
100
AcDbLine
 10
-14096.075056749556
 20
-6368.35164006833
 30
0.0
 11
-14096.115991295763
 21
-6368.950242075448
 31
0.0
  0
LINE
  5
1AF
100
AcDbEntity
  8
Frei
  6
CONTINUOUS
 62
           3
100
AcDbLine
 10
-14078.157931082194
 20
-6370.178278461667
 30
0.0
 11
-14078.116996535988
 21
-6369.579676454546
 31
0.0
  0
LINE
  5
1B0
100
AcDbEntity
  8
Frei
  6
CONTINUOUS
 62
           3
100
AcDbLine
 10
-14078.29437956955
 20
-6372.173618485395
 30
0.0
 11
-14078.212510477137
 21
-6370.976414471156
 31
0.0
  0
LINE
  5
1B1
100
AcDbEntity
  8
Frei
  6
CONTINUOUS
 62
           3
100
AcDbLine
 10
-14078.430828056909
 20
-6374.168958509125
 30
0.0
 11
-14078.348958964492
 21
-6372.971754494888
 31
0.0
  0
LINE
  5
1B2
100
AcDbEntity
  8
Frei
  6
CONTINUOUS
 62
           3
100
AcDbLine
 10
-14078.567276544265
 20
-6376.164298532855
 30
0.0
 11
-14078.485407451852
 21
-6374.967094518618
 31
0.0
  0
LINE
  5
1B3
100
AcDbEntity
  8
Frei
  6
CONTINUOUS
 62
           3
100
AcDbLine
 10
-14078.703725031624
 20
-6378.159638556584
 30
0.0
 11
-14078.621855939211
 21
-6376.962434542348
 31
0.0
  0
LINE
  5
1B4
100
AcDbEntity
  8
Frei
  6
CONTINUOUS
 62
           3
100
AcDbLine
 10
-14077.612137132764
 20
-6362.196918366747
 30
0.0
 11
-14077.530268040351
 21
-6360.99971435251
 31
0.0
  0
LINE
  5
1B5
100
AcDbEntity
  8
Frei
  6
CONTINUOUS
 62
           3
100
AcDbLine
 10
-14077.748585620124
 20
-6364.192258390477
 30
0.0
 11
-14077.666716527707
 21
-6362.99505437624
 31
0.0
  0
LINE
  5
1B6
100
AcDbEntity
  8
Frei
  6
CONTINUOUS
 62
           3
100
AcDbLine
 10
-14077.885034107479
 20
-6366.187598414207
 30
0.0
 11
-14077.803165015062
 21
-6364.990394399968
 31
0.0
  0
LINE
  5
1B7
100
AcDbEntity
  8
Frei
  6
CONTINUOUS
 62
           3
100
AcDbLine
 10
-14078.021482594835
 20
-6368.182938437935
 30
0.0
 11
-14077.939613502422
 21
-6366.9857344237
 31
0.0
  0
LINE
  5
1B8
100
AcDbEntity
  8
Frei
  6
CONTINUOUS
 62
           3
100
AcDbLine
 10
-14078.116996535988
 20
-6369.579676454546
 30
0.0
 11
-14078.076061989777
 21
-6368.981074447428
 31
0.0
  0
LINE
  5
1B9
100
AcDbEntity
  8
Frei
  6
CONTINUOUS
 62
           3
100
AcDbLine
 10
-14096.034122203349
 20
-6367.753038061213
 30
0.0
 11
-14096.075056749556
 21
-6368.35164006833
 31
0.0
  0
LINE
  5
1BA
100
AcDbEntity
  8
Frei
  6
CONTINUOUS
 62
           3
100
AcDbLine
 10
-14095.570197346333
 20
-6360.968881980532
 30
0.0
 11
-14095.488328253919
 21
-6359.771677966292
 31
0.0
  0
LINE
  5
1BB
100
AcDbEntity
  8
Frei
  6
CONTINUOUS
 62
           3
100
AcDbLine
 10
-14095.706645833689
 20
-6362.96422200426
 30
0.0
 11
-14095.624776741279
 21
-6361.767017990021
 31
0.0
  0
LINE
  5
1BC
100
AcDbEntity
  8
Frei
  6
CONTINUOUS
 62
           3
100
AcDbLine
 10
-14095.843094321048
 20
-6364.959562027988
 30
0.0
 11
-14095.761225228631
 21
-6363.762358013751
 31
0.0
  0
LINE
  5
1BD
100
AcDbEntity
  8
Frei
  6
CONTINUOUS
 62
           3
100
AcDbLine
 10
-14095.89767371599
 20
-6365.757698037482
 30
0.0
 11
-14095.979542808407
 21
-6366.954902051718
 31
0.0
  0
LINE
  5
1BE
100
AcDbEntity
  8
Frei
  6
CONTINUOUS
 62
           3
100
AcDbLine
 10
-14084.018336360779
 20
-6366.570049613479
 30
0.0
 11
-14077.939613502422
 21
-6366.9857344237
 31
0.0
  0
LINE
  5
1BF
100
AcDbEntity
  8
Frei
  6
CONTINUOUS
 62
           3
100
AcDbLine
 10
-14084.657872914107
 20
-6367.12771707439
 30
0.0
 11
-14084.018336360779
 21
-6366.570049613479
 31
0.0
  0
LINE
  5
1C0
100
AcDbEntity
  8
Frei
  6
CONTINUOUS
 62
           3
100
AcDbLine
 10
-14084.657872914107
 20
-6367.12771707439
 30
0.0
 11
-14078.57915005575
 21
-6367.543401884607
 31
0.0
  0
LINE
  5
1C1
100
AcDbEntity
  8
Frei
  6
CONTINUOUS
 62
           3
100
AcDbLine
 10
-14084.100205453196
 20
-6367.767253627718
 30
0.0
 11
-14084.657872914107
 21
-6367.12771707439
 31
0.0
  0
LINE
  5
1C2
100
AcDbEntity
  8
Frei
  6
CONTINUOUS
 62
           3
100
AcDbLine
 10
-14083.410307424507
 20
-6368.616299666134
 30
0.0
 11
-14078.076061989777
 21
-6368.981074447428
 31
0.0
  0
LINE
  5
1C3
100
AcDbEntity
  8
Frei
  6
CONTINUOUS
 62
           3
100
AcDbLine
 10
-14084.049843977835
 20
-6369.173967127045
 30
0.0
 11
-14083.410307424507
 21
-6368.616299666134
 31
0.0
  0
LINE
  5
1C4
100
AcDbEntity
  8
Frei
  6
CONTINUOUS
 62
           3
100
AcDbLine
 10
-14090.69987676862
 20
-6368.117812842503
 30
0.0
 11
-14090.142209307709
 21
-6368.757349395831
 31
0.0
  0
LINE
  5
1C5
100
AcDbEntity
  8
Frei
  6
CONTINUOUS
 62
           3
100
AcDbLine
 10
-14089.261283396721
 20
-6366.812919401026
 30
0.0
 11
-14089.818950857629
 21
-6366.173382847702
 31
0.0
  0
LINE
  5
1C6
100
AcDbEntity
  8
Frei
  6
CONTINUOUS
 62
           3
100
AcDbLine
 10
-14089.900819950046
 20
-6367.370586861937
 30
0.0
 11
-14095.979542808407
 21
-6366.954902051718
 31
0.0
  0
LINE
  5
1C7
100
AcDbEntity
  8
Frei
  6
CONTINUOUS
 62
           3
100
AcDbLine
 10
-14089.900819950046
 20
-6367.370586861937
 30
0.0
 11
-14089.261283396721
 21
-6366.812919401026
 31
0.0
  0
LINE
  5
1C8
100
AcDbEntity
  8
Frei
  6
CONTINUOUS
 62
           3
100
AcDbLine
 10
-14095.20355776772
 20
-6364.401894567077
 30
0.0
 11
-14078.44270156839
 21
-6365.548061860879
 31
0.0
  0
LINE
  5
1C9
100
AcDbEntity
  8
Frei
  6
CONTINUOUS
 62
           3
100
AcDbLine
 10
-14095.340006255079
 20
-6366.397234590807
 30
0.0
 11
-14089.261283396721
 21
-6366.812919401026
 31
0.0
  0
LINE
  5
1CA
100
AcDbEntity
  8
Frei
  6
CONTINUOUS
 62
           3
100
AcDbLine
 10
-14078.076061989777
 20
-6368.981074447428
 30
0.0
 11
-14078.715598543105
 21
-6369.538741908339
 31
0.0
  0
LINE
  5
1CB
100
AcDbEntity
  8
Frei
  6
CONTINUOUS
 62
           3
100
AcDbLine
 10
-14096.034122203349
 20
-6367.753038061213
 30
0.0
 11
-14090.69987676862
 21
-6368.117812842503
 31
0.0
  0
LINE
  5
1CC
100
AcDbEntity
  8
Frei
  6
CONTINUOUS
 62
           3
100
AcDbLine
 10
-14095.476454742435
 20
-6368.392574614537
 30
0.0
 11
-14096.034122203349
 21
-6367.753038061213
 31
0.0
  0
LINE
  5
1CD
100
AcDbEntity
  8
Frei
  6
CONTINUOUS
 62
           3
100
AcDbLine
 10
-14095.979542808407
 20
-6366.954902051718
 30
0.0
 11
-14095.340006255079
 21
-6366.397234590807
 31
0.0
  0
LINE
  5
1CE
100
AcDbEntity
  8
Frei
  6
CONTINUOUS
 62
           3
100
AcDbLine
 10
-14078.021482594835
 20
-6368.182938437935
 30
0.0
 11
-14084.100205453196
 21
-6367.767253627718
 31
0.0
  0
LINE
  5
1CF
100
AcDbEntity
  8
Frei
  6
CONTINUOUS
 62
           3
100
AcDbLine
 10
-14078.57915005575
 20
-6367.543401884607
 30
0.0
 11
-14078.021482594835
 21
-6368.182938437935
 31
0.0
  0
LINE
  5
1D0
100
AcDbEntity
  8
Frei
  6
CONTINUOUS
 62
           3
100
AcDbLine
 10
-14077.939613502422
 20
-6366.9857344237
 30
0.0
 11
-14078.57915005575
 21
-6367.543401884607
 31
0.0
  0
LINE
  5
1D1
100
AcDbEntity
  8
Frei
  6
CONTINUOUS
 62
           3
100
AcDbLine
 10
-14095.89767371599
 20
-6365.757698037482
 30
0.0
 11
-14089.818950857629
 21
-6366.173382847702
 31
0.0
  0
LINE
  5
1D2
100
AcDbEntity
  8
Frei
  6
CONTINUOUS
 62
           3
100
AcDbLine
 10
-14095.340006255079
 20
-6366.397234590807
 30
0.0
 11
-14095.89767371599
 21
-6365.757698037482
 31
0.0
  0
LINE
  5
1D3
100
AcDbEntity
  8
Frei
  6
CONTINUOUS
 62
           3
100
AcDbLine
 10
-14095.843094321048
 20
-6364.959562027988
 30
0.0
 11
-14095.20355776772
 21
-6364.401894567077
 31
0.0
  0
LINE
  5
1D4
100
AcDbEntity
  8
Frei
  6
CONTINUOUS
 62
           3
100
AcDbLine
 10
-14077.885034107479
 20
-6366.187598414207
 30
0.0
 11
-14095.843094321048
 21
-6364.959562027988
 31
0.0
  0
LINE
  5
1D5
100
AcDbEntity
  8
Frei
  6
CONTINUOUS
 62
           3
100
AcDbLine
 10
-14078.44270156839
 20
-6365.548061860879
 30
0.0
 11
-14077.885034107479
 21
-6366.187598414207
 31
0.0
  0
LINE
  5
1D6
100
AcDbEntity
  8
Frei
  6
CONTINUOUS
 62
           3
100
AcDbLine
 10
-14077.803165015062
 20
-6364.990394399968
 30
0.0
 11
-14078.44270156839
 21
-6365.548061860879
 31
0.0
  0
LINE
  5
1D7
100
AcDbEntity
  8
Frei
  6
CONTINUOUS
 62
           3
100
AcDbLine
 10
-14095.761225228631
 20
-6363.762358013751
 30
0.0
 11
-14077.803165015062
 21
-6364.990394399968
 31
0.0
  0
LINE
  5
1D8
100
AcDbEntity
  8
Frei
  6
CONTINUOUS
 62
           3
100
AcDbLine
 10
-14095.20355776772
 20
-6364.401894567077
 30
0.0
 11
-14095.761225228631
 21
-6363.762358013751
 31
0.0
  0
LINE
  5
1D9
100
AcDbEntity
  8
Frei
  6
CONTINUOUS
 62
           3
100
AcDbLine
 10
-14078.306253081031
 20
-6363.552721837151
 30
0.0
 11
-14095.067109280364
 21
-6362.406554543349
 31
0.0
  0
LINE
  5
1DA
100
AcDbEntity
  8
Frei
  6
CONTINUOUS
 62
           3
100
AcDbLine
 10
-14095.706645833689
 20
-6362.96422200426
 30
0.0
 11
-14095.067109280364
 21
-6362.406554543349
 31
0.0
  0
LINE
  5
1DB
100
AcDbEntity
  8
Frei
  6
CONTINUOUS
 62
           3
100
AcDbLine
 10
-14077.748585620124
 20
-6364.192258390477
 30
0.0
 11
-14095.706645833689
 21
-6362.96422200426
 31
0.0
  0
LINE
  5
1DC
100
AcDbEntity
  8
Frei
  6
CONTINUOUS
 62
           3
100
AcDbLine
 10
-14078.306253081031
 20
-6363.552721837151
 30
0.0
 11
-14077.748585620124
 21
-6364.192258390477
 31
0.0
  0
LINE
  5
1DD
100
AcDbEntity
  8
Frei
  6
CONTINUOUS
 62
           3
100
AcDbLine
 10
-14077.666716527707
 20
-6362.99505437624
 30
0.0
 11
-14078.306253081031
 21
-6363.552721837151
 31
0.0
  0
LINE
  5
1DE
100
AcDbEntity
  8
Frei
  6
CONTINUOUS
 62
           3
100
AcDbLine
 10
-14095.624776741279
 20
-6361.767017990021
 30
0.0
 11
-14077.666716527707
 21
-6362.99505437624
 31
0.0
  0
LINE
  5
1DF
100
AcDbEntity
  8
Frei
  6
CONTINUOUS
 62
           3
100
AcDbLine
 10
-14095.067109280364
 20
-6362.406554543349
 30
0.0
 11
-14095.624776741279
 21
-6361.767017990021
 31
0.0
  0
LINE
  5
1E0
100
AcDbEntity
  8
Frei
  6
CONTINUOUS
 62
           3
100
AcDbLine
 10
-14094.930660793008
 20
-6360.411214519617
 30
0.0
 11
-14078.169804593676
 21
-6361.557381813421
 31
0.0
  0
LINE
  5
1E1
100
AcDbEntity
  8
Frei
  6
CONTINUOUS
 62
           3
100
AcDbLine
 10
-14094.930660793008
 20
-6360.411214519617
 30
0.0
 11
-14095.570197346333
 21
-6360.968881980532
 31
0.0
  0
LINE
  5
1E2
100
AcDbEntity
  8
Frei
  6
CONTINUOUS
 62
           3
100
AcDbLine
 10
-14095.488328253919
 20
-6359.771677966292
 30
0.0
 11
-14094.930660793008
 21
-6360.411214519617
 31
0.0
  0
LINE
  5
1E3
100
AcDbEntity
  8
Frei
  6
CONTINUOUS
 62
           3
100
AcDbLine
 10
-14077.530268040351
 20
-6360.99971435251
 30
0.0
 11
-14095.488328253919
 21
-6359.771677966292
 31
0.0
  0
LINE
  5
1E4
100
AcDbEntity
  8
Frei
  6
CONTINUOUS
 62
           3
100
AcDbLine
 10
-14078.169804593676
 20
-6361.557381813421
 30
0.0
 11
-14077.530268040351
 21
-6360.99971435251
 31
0.0
  0
LINE
  5
1E5
100
AcDbEntity
  8
Frei
  6
CONTINUOUS
 62
           3
100
AcDbLine
 10
-14077.612137132764
 20
-6362.196918366747
 30
0.0
 11
-14078.169804593676
 21
-6361.557381813421
 31
0.0
  0
LINE
  5
1E6
100
AcDbEntity
  8
Frei
  6
CONTINUOUS
 62
           3
100
AcDbLine
 10
-14095.570197346333
 20
-6360.968881980532
 30
0.0
 11
-14077.612137132764
 21
-6362.196918366747
 31
0.0
  0
LINE
  5
1E7
100
AcDbEntity
  8
Frei
  6
CONTINUOUS
 62
           3
100
AcDbLine
 10
-13905.01522508014
 20
-6373.999712523165
 30
0.0
 11
-13887.057164866572
 21
-6375.22774890938
 31
0.0
  0
LINE
  5
1E8
100
AcDbEntity
  8
Frei
  6
CONTINUOUS
 62
           3
100
AcDbLine
 10
-13904.375688526816
 20
-6373.442045062252
 30
0.0
 11
-13905.01522508014
 21
-6373.999712523165
 31
0.0
  0
LINE
  5
1E9
100
AcDbEntity
  8
Frei
  6
CONTINUOUS
 62
           3
100
AcDbLine
 10
-13904.933355987723
 20
-6372.802508508926
 30
0.0
 11
-13904.375688526816
 21
-6373.442045062252
 31
0.0
  0
LINE
  5
1EA
100
AcDbEntity
  8
Frei
  6
CONTINUOUS
 62
           3
100
AcDbLine
 10
-13886.975295774155
 20
-6374.030544895145
 30
0.0
 11
-13904.933355987723
 21
-6372.802508508926
 31
0.0
  0
LINE
  5
1EB
100
AcDbEntity
  8
Frei
  6
CONTINUOUS
 62
           3
100
AcDbLine
 10
-13887.614832327483
 20
-6374.588212356056
 30
0.0
 11
-13886.975295774155
 21
-6374.030544895145
 31
0.0
  0
LINE
  5
1EC
100
AcDbEntity
  8
Frei
  6
CONTINUOUS
 62
           3
100
AcDbLine
 10
-13887.057164866572
 20
-6375.22774890938
 30
0.0
 11
-13887.614832327483
 21
-6374.588212356056
 31
0.0
  0
LINE
  5
1ED
100
AcDbEntity
  8
Frei
  6
CONTINUOUS
 62
           3
100
AcDbLine
 10
-13904.375688526816
 20
-6373.442045062252
 30
0.0
 11
-13887.614832327483
 21
-6374.588212356056
 31
0.0
  0
LINE
  5
1EE
100
AcDbEntity
  8
Frei
  6
CONTINUOUS
 62
           3
100
AcDbLine
 10
-13887.11174426151
 20
-6376.025884918871
 30
0.0
 11
-13887.751280814839
 21
-6376.583552379784
 31
0.0
  0
LINE
  5
1EF
100
AcDbEntity
  8
Frei
  6
CONTINUOUS
 62
           3
100
AcDbLine
 10
-13905.069804475079
 20
-6374.797848532654
 30
0.0
 11
-13887.11174426151
 21
-6376.025884918871
 31
0.0
  0
LINE
  5
1F0
100
AcDbEntity
  8
Frei
  6
CONTINUOUS
 62
           3
100
AcDbLine
 10
-13904.512137014171
 20
-6375.437385085982
 30
0.0
 11
-13905.069804475079
 21
-6374.797848532654
 31
0.0
  0
LINE
  5
1F1
100
AcDbEntity
  8
Frei
  6
CONTINUOUS
 62
           3
100
AcDbLine
 10
-13905.151673567496
 20
-6375.995052546893
 30
0.0
 11
-13904.512137014171
 21
-6375.437385085982
 31
0.0
  0
LINE
  5
1F2
100
AcDbEntity
  8
Frei
  6
CONTINUOUS
 62
           3
100
AcDbLine
 10
-13887.193613353928
 20
-6377.223088933112
 30
0.0
 11
-13905.151673567496
 21
-6375.995052546893
 31
0.0
  0
LINE
  5
1F3
100
AcDbEntity
  8
Frei
  6
CONTINUOUS
 62
           3
100
AcDbLine
 10
-13887.751280814839
 20
-6376.583552379784
 30
0.0
 11
-13887.193613353928
 21
-6377.223088933112
 31
0.0
  0
LINE
  5
1F4
100
AcDbEntity
  8
Frei
  6
CONTINUOUS
 62
           3
100
AcDbLine
 10
-13887.751280814839
 20
-6376.583552379784
 30
0.0
 11
-13904.512137014171
 21
-6375.437385085982
 31
0.0
  0
LINE
  5
1F5
100
AcDbEntity
  8
Frei
  6
CONTINUOUS
 62
           3
100
AcDbLine
 10
-13887.24819274887
 20
-6378.021224942601
 30
0.0
 11
-13887.887729302198
 21
-6378.578892403514
 31
0.0
  0
LINE
  5
1F6
100
AcDbEntity
  8
Frei
  6
CONTINUOUS
 62
           3
100
AcDbLine
 10
-13905.206252962438
 20
-6376.793188556386
 30
0.0
 11
-13887.24819274887
 21
-6378.021224942601
 31
0.0
  0
LINE
  5
1F7
100
AcDbEntity
  8
Frei
  6
CONTINUOUS
 62
           3
100
AcDbLine
 10
-13904.648585501527
 20
-6377.432725109712
 30
0.0
 11
-13905.206252962438
 21
-6376.793188556386
 31
0.0
  0
LINE
  5
1F8
100
AcDbEntity
  8
Frei
  6
CONTINUOUS
 62
           3
100
AcDbLine
 10
-13905.288122054855
 20
-6377.990392570623
 30
0.0
 11
-13904.648585501527
 21
-6377.432725109712
 31
0.0
  0
LINE
  5
1F9
100
AcDbEntity
  8
Frei
  6
CONTINUOUS
 62
           3
100
AcDbLine
 10
-13887.330061841287
 20
-6379.218428956839
 30
0.0
 11
-13905.288122054855
 21
-6377.990392570623
 31
0.0
  0
LINE
  5
1FA
100
AcDbEntity
  8
Frei
  6
CONTINUOUS
 62
           3
100
AcDbLine
 10
-13887.887729302198
 20
-6378.578892403514
 30
0.0
 11
-13887.330061841287
 21
-6379.218428956839
 31
0.0
  0
LINE
  5
1FB
100
AcDbEntity
  8
Frei
  6
CONTINUOUS
 62
           3
100
AcDbLine
 10
-13887.384641236225
 20
-6380.016564966333
 30
0.0
 11
-13888.024177789554
 21
-6380.574232427242
 31
0.0
  0
LINE
  5
1FC
100
AcDbEntity
  8
Frei
  6
CONTINUOUS
 62
           3
100
AcDbLine
 10
-13893.463364094587
 20
-6379.600880156112
 30
0.0
 11
-13887.384641236225
 21
-6380.016564966333
 31
0.0
  0
LINE
  5
1FD
100
AcDbEntity
  8
Frei
  6
CONTINUOUS
 62
           3
100
AcDbLine
 10
-13904.785033988886
 20
-6379.428065133442
 30
0.0
 11
-13905.342701449797
 21
-6378.788528580118
 31
0.0
  0
LINE
  5
1FE
100
AcDbEntity
  8
Frei
  6
CONTINUOUS
 62
           3
100
AcDbLine
 10
-13905.424570542211
 20
-6379.985732594353
 30
0.0
 11
-13904.785033988886
 21
-6379.428065133442
 31
0.0
  0
LINE
  5
1FF
100
AcDbEntity
  8
Frei
  6
CONTINUOUS
 62
           3
100
AcDbLine
 10
-13899.345847683853
 20
-6380.401417404574
 30
0.0
 11
-13905.424570542211
 21
-6379.985732594353
 31
0.0
  0
LINE
  5
200
100
AcDbEntity
  8
Frei
  6
CONTINUOUS
 62
           3
100
AcDbLine
 10
-13888.024177789554
 20
-6380.574232427242
 30
0.0
 11
-13887.466510328642
 21
-6381.213768980569
 31
0.0
  0
LINE
  5
201
100
AcDbEntity
  8
Frei
  6
CONTINUOUS
 62
           3
100
AcDbLine
 10
-13887.521089723585
 20
-6382.011904990061
 30
0.0
 11
-13888.160626276913
 21
-6382.569572450972
 31
0.0
  0
LINE
  5
202
100
AcDbEntity
  8
Frei
  6
CONTINUOUS
 62
           3
100
AcDbLine
 10
-13892.855335158318
 20
-6381.647130208769
 30
0.0
 11
-13887.521089723585
 21
-6382.011904990061
 31
0.0
  0
LINE
  5
203
100
AcDbEntity
  8
Frei
  6
CONTINUOUS
 62
           3
100
AcDbLine
 10
-13904.921482476242
 20
-6381.42340515717
 30
0.0
 11
-13905.479149937153
 21
-6380.783868603846
 31
0.0
  0
LINE
  5
204
100
AcDbEntity
  8
Frei
  6
CONTINUOUS
 62
           3
100
AcDbLine
 10
-13894.102900647915
 20
-6380.158547617023
 30
0.0
 11
-13888.024177789554
 21
-6380.574232427242
 31
0.0
  0
LINE
  5
205
100
AcDbEntity
  8
Frei
  6
CONTINUOUS
 62
           3
100
AcDbLine
 10
-13904.648585501527
 20
-6377.432725109712
 30
0.0
 11
-13887.887729302198
 21
-6378.578892403514
 31
0.0
  0
LINE
  5
206
100
AcDbEntity
  8
Frei
  6
CONTINUOUS
 62
           3
100
AcDbLine
 10
-13894.102900647915
 20
-6380.158547617023
 30
0.0
 11
-13893.545233187
 21
-6380.798084170349
 31
0.0
  0
LINE
  5
207
100
AcDbEntity
  8
Frei
  6
CONTINUOUS
 62
           3
100
AcDbLine
 10
-13887.466510328642
 20
-6381.213768980569
 30
0.0
 11
-13893.545233187
 21
-6380.798084170349
 31
0.0
  0
LINE
  5
208
100
AcDbEntity
  8
Frei
  6
CONTINUOUS
 62
           3
100
AcDbLine
 10
-13893.463364094587
 20
-6379.600880156112
 30
0.0
 11
-13894.102900647915
 21
-6380.158547617023
 31
0.0
  0
LINE
  5
209
100
AcDbEntity
  8
Frei
  6
CONTINUOUS
 62
           3
100
AcDbLine
 10
-13893.494871711642
 20
-6382.204797669679
 30
0.0
 11
-13892.855335158318
 21
-6381.647130208769
 31
0.0
  0
LINE
  5
20A
100
AcDbEntity
  8
Frei
  6
CONTINUOUS
 62
           3
100
AcDbLine
 10
-13900.144904502424
 20
-6381.14864338514
 30
0.0
 11
-13899.587237041513
 21
-6381.788179938464
 31
0.0
  0
LINE
  5
20B
100
AcDbEntity
  8
Frei
  6
CONTINUOUS
 62
           3
100
AcDbLine
 10
-13905.479149937153
 20
-6380.783868603846
 30
0.0
 11
-13900.144904502424
 21
-6381.14864338514
 31
0.0
  0
LINE
  5
20C
100
AcDbEntity
  8
Frei
  6
CONTINUOUS
 62
           3
100
AcDbLine
 10
-13898.706311130525
 20
-6379.84374994366
 30
0.0
 11
-13899.345847683853
 21
-6380.401417404574
 31
0.0
  0
LINE
  5
20D
100
AcDbEntity
  8
Frei
  6
CONTINUOUS
 62
           3
100
AcDbLine
 10
-13904.785033988886
 20
-6379.428065133442
 30
0.0
 11
-13898.706311130525
 21
-6379.84374994366
 31
0.0
  0
LINE
  5
20E
100
AcDbEntity
  8
Frei
  6
CONTINUOUS
 62
           3
100
AcDbLine
 10
-13899.26397859144
 20
-6379.204213390335
 30
0.0
 11
-13898.706311130525
 21
-6379.84374994366
 31
0.0
  0
LINE
  5
20F
100
AcDbEntity
  8
Frei
  6
CONTINUOUS
 62
           3
100
AcDbLine
 10
-13905.342701449797
 20
-6378.788528580118
 30
0.0
 11
-13899.26397859144
 21
-6379.204213390335
 31
0.0
  0
LINE
  5
210
100
AcDbEntity
  8
Frei
  6
CONTINUOUS
 62
           3
100
AcDbLine
 10
-13887.466510328642
 20
-6381.213768980569
 30
0.0
 11
-13887.384641236225
 21
-6380.016564966333
 31
0.0
  0
LINE
  5
211
100
AcDbEntity
  8
Frei
  6
CONTINUOUS
 62
           3
100
AcDbLine
 10
-13887.24819274887
 20
-6378.021224942601
 30
0.0
 11
-13887.330061841287
 21
-6379.218428956839
 31
0.0
  0
LINE
  5
212
100
AcDbEntity
  8
Frei
  6
CONTINUOUS
 62
           3
100
AcDbLine
 10
-13887.11174426151
 20
-6376.025884918871
 30
0.0
 11
-13887.193613353928
 21
-6377.223088933112
 31
0.0
  0
LINE
  5
213
100
AcDbEntity
  8
Frei
  6
CONTINUOUS
 62
           3
100
AcDbLine
 10
-13886.975295774155
 20
-6374.030544895145
 30
0.0
 11
-13887.057164866572
 21
-6375.22774890938
 31
0.0
  0
LINE
  5
214
100
AcDbEntity
  8
Frei
  6
CONTINUOUS
 62
           3
100
AcDbLine
 10
-13887.562024269791
 20
-6382.610506997179
 30
0.0
 11
-13887.521089723585
 21
-6382.011904990061
 31
0.0
  0
LINE
  5
215
100
AcDbEntity
  8
Frei
  6
CONTINUOUS
 62
           3
100
AcDbLine
 10
-13905.479149937153
 20
-6380.783868603846
 30
0.0
 11
-13905.52008448336
 21
-6381.382470610964
 31
0.0
  0
LINE
  5
216
100
AcDbEntity
  8
Frei
  6
CONTINUOUS
 62
           3
100
AcDbLine
 10
-13905.342701449797
 20
-6378.788528580118
 30
0.0
 11
-13905.424570542211
 21
-6379.985732594353
 31
0.0
  0
LINE
  5
217
100
AcDbEntity
  8
Frei
  6
CONTINUOUS
 62
           3
100
AcDbLine
 10
-13905.206252962438
 20
-6376.793188556386
 30
0.0
 11
-13905.288122054855
 21
-6377.990392570623
 31
0.0
  0
LINE
  5
218
100
AcDbEntity
  8
Frei
  6
CONTINUOUS
 62
           3
100
AcDbLine
 10
-13905.069804475079
 20
-6374.797848532654
 30
0.0
 11
-13905.151673567496
 21
-6375.995052546893
 31
0.0
  0
LINE
  5
219
100
AcDbEntity
  8
Frei
  6
CONTINUOUS
 62
           3
100
AcDbLine
 10
-13904.933355987723
 20
-6372.802508508926
 30
0.0
 11
-13905.01522508014
 21
-6373.999712523165
 31
0.0
  0
LINE
  5
21A
100
AcDbEntity
  8
Frei
  6
CONTINUOUS
 62
           3
100
AcDbLine
 10
-13906.024943886583
 20
-6388.765228698764
 30
0.0
 11
-13906.106812978996
 21
-6389.962432713001
 31
0.0
  0
LINE
  5
21B
100
AcDbEntity
  8
Frei
  6
CONTINUOUS
 62
           3
100
AcDbLine
 10
-13905.888495399224
 20
-6386.769888675034
 30
0.0
 11
-13905.970364491641
 21
-6387.967092689273
 31
0.0
  0
LINE
  5
21C
100
AcDbEntity
  8
Frei
  6
CONTINUOUS
 62
           3
100
AcDbLine
 10
-13905.752046911868
 20
-6384.774548651304
 30
0.0
 11
-13905.833916004281
 21
-6385.971752665541
 31
0.0
  0
LINE
  5
21D
100
AcDbEntity
  8
Frei
  6
CONTINUOUS
 62
           3
100
AcDbLine
 10
-13905.615598424509
 20
-6382.779208627574
 30
0.0
 11
-13905.697467516926
 21
-6383.976412641813
 31
0.0
  0
LINE
  5
21E
100
AcDbEntity
  8
Frei
  6
CONTINUOUS
 62
           3
100
AcDbLine
 10
-13905.52008448336
 20
-6381.382470610964
 30
0.0
 11
-13905.56101902957
 21
-6381.981072618083
 31
0.0
  0
LINE
  5
21F
100
AcDbEntity
  8
Frei
  6
CONTINUOUS
 62
           3
100
AcDbLine
 10
-13887.602958816002
 20
-6383.2091090043
 30
0.0
 11
-13887.562024269791
 21
-6382.610506997179
 31
0.0
  0
LINE
  5
220
100
AcDbEntity
  8
Frei
  6
CONTINUOUS
 62
           3
100
AcDbLine
 10
-13888.066883673015
 20
-6389.993265084981
 30
0.0
 11
-13888.148752765432
 21
-6391.190469099219
 31
0.0
  0
LINE
  5
221
100
AcDbEntity
  8
Frei
  6
CONTINUOUS
 62
           3
100
AcDbLine
 10
-13887.930435185659
 20
-6387.997925061253
 30
0.0
 11
-13888.012304278072
 21
-6389.195129075489
 31
0.0
  0
LINE
  5
222
100
AcDbEntity
  8
Frei
  6
CONTINUOUS
 62
           3
100
AcDbLine
 10
-13887.7939866983
 20
-6386.002585037521
 30
0.0
 11
-13887.875855790717
 21
-6387.199789051761
 31
0.0
  0
LINE
  5
223
100
AcDbEntity
  8
Frei
  6
CONTINUOUS
 62
           3
100
AcDbLine
 10
-13887.739407303357
 20
-6385.204449028029
 30
0.0
 11
-13887.657538210944
 21
-6384.007245013791
 31
0.0
  0
LINE
  5
224
100
AcDbEntity
  8
Frei
  6
CONTINUOUS
 62
           3
100
AcDbLine
 10
-13899.618744658568
 20
-6384.392097452034
 30
0.0
 11
-13905.697467516926
 21
-6383.976412641813
 31
0.0
  0
LINE
  5
225
100
AcDbEntity
  8
Frei
  6
CONTINUOUS
 62
           3
100
AcDbLine
 10
-13898.97920810524
 20
-6383.83442999112
 30
0.0
 11
-13899.618744658568
 21
-6384.392097452034
 31
0.0
  0
LINE
  5
226
100
AcDbEntity
  8
Frei
  6
CONTINUOUS
 62
           3
100
AcDbLine
 10
-13898.97920810524
 20
-6383.83442999112
 30
0.0
 11
-13905.057930963601
 21
-6383.418745180902
 31
0.0
  0
LINE
  5
227
100
AcDbEntity
  8
Frei
  6
CONTINUOUS
 62
           3
100
AcDbLine
 10
-13899.536875566151
 20
-6383.194893437793
 30
0.0
 11
-13898.97920810524
 21
-6383.83442999112
 31
0.0
  0
LINE
  5
228
100
AcDbEntity
  8
Frei
  6
CONTINUOUS
 62
           3
100
AcDbLine
 10
-13900.226773594841
 20
-6382.345847399377
 30
0.0
 11
-13905.56101902957
 21
-6381.981072618083
 31
0.0
  0
LINE
  5
229
100
AcDbEntity
  8
Frei
  6
CONTINUOUS
 62
           3
100
AcDbLine
 10
-13899.587237041513
 20
-6381.788179938464
 30
0.0
 11
-13900.226773594841
 21
-6382.345847399377
 31
0.0
  0
LINE
  5
22A
100
AcDbEntity
  8
Frei
  6
CONTINUOUS
 62
           3
100
AcDbLine
 10
-13893.494871711642
 20
-6382.204797669679
 30
0.0
 11
-13888.160626276913
 21
-6382.569572450972
 31
0.0
  0
LINE
  5
22B
100
AcDbEntity
  8
Frei
  6
CONTINUOUS
 62
           3
100
AcDbLine
 10
-13892.937204250731
 20
-6382.844334223007
 30
0.0
 11
-13893.494871711642
 21
-6382.204797669679
 31
0.0
  0
LINE
  5
22C
100
AcDbEntity
  8
Frei
  6
CONTINUOUS
 62
           3
100
AcDbLine
 10
-13894.37579762263
 20
-6384.149227664483
 30
0.0
 11
-13893.818130161715
 21
-6384.788764217811
 31
0.0
  0
LINE
  5
22D
100
AcDbEntity
  8
Frei
  6
CONTINUOUS
 62
           3
100
AcDbLine
 10
-13893.736261069302
 20
-6383.591560203572
 30
0.0
 11
-13887.657538210944
 21
-6384.007245013791
 31
0.0
  0
LINE
  5
22E
100
AcDbEntity
  8
Frei
  6
CONTINUOUS
 62
           3
100
AcDbLine
 10
-13893.736261069302
 20
-6383.591560203572
 30
0.0
 11
-13894.37579762263
 21
-6384.149227664483
 31
0.0
  0
LINE
  5
22F
100
AcDbEntity
  8
Frei
  6
CONTINUOUS
 62
           3
100
AcDbLine
 10
-13888.433523251628
 20
-6386.560252498432
 30
0.0
 11
-13905.194379450961
 21
-6385.41408520463
 31
0.0
  0
LINE
  5
230
100
AcDbEntity
  8
Frei
  6
CONTINUOUS
 62
           3
100
AcDbLine
 10
-13888.297074764272
 20
-6384.564912474704
 30
0.0
 11
-13894.37579762263
 21
-6384.149227664483
 31
0.0
  0
LINE
  5
231
100
AcDbEntity
  8
Frei
  6
CONTINUOUS
 62
           3
100
AcDbLine
 10
-13904.921482476242
 20
-6381.42340515717
 30
0.0
 11
-13899.587237041513
 21
-6381.788179938464
 31
0.0
  0
LINE
  5
232
100
AcDbEntity
  8
Frei
  6
CONTINUOUS
 62
           3
100
AcDbLine
 10
-13905.56101902957
 20
-6381.981072618083
 30
0.0
 11
-13904.921482476242
 21
-6381.42340515717
 31
0.0
  0
LINE
  5
233
100
AcDbEntity
  8
Frei
  6
CONTINUOUS
 62
           3
100
AcDbLine
 10
-13887.602958816002
 20
-6383.2091090043
 30
0.0
 11
-13892.937204250731
 21
-6382.844334223007
 31
0.0
  0
LINE
  5
234
100
AcDbEntity
  8
Frei
  6
CONTINUOUS
 62
           3
100
AcDbLine
 10
-13888.160626276913
 20
-6382.569572450972
 30
0.0
 11
-13887.602958816002
 21
-6383.2091090043
 31
0.0
  0
LINE
  5
235
100
AcDbEntity
  8
Frei
  6
CONTINUOUS
 62
           3
100
AcDbLine
 10
-13887.657538210944
 20
-6384.007245013791
 30
0.0
 11
-13888.297074764272
 21
-6384.564912474704
 31
0.0
  0
LINE
  5
236
100
AcDbEntity
  8
Frei
  6
CONTINUOUS
 62
           3
100
AcDbLine
 10
-13905.615598424509
 20
-6382.779208627574
 30
0.0
 11
-13899.536875566151
 21
-6383.194893437793
 31
0.0
  0
LINE
  5
237
100
AcDbEntity
  8
Frei
  6
CONTINUOUS
 62
           3
100
AcDbLine
 10
-13905.057930963601
 20
-6383.418745180902
 30
0.0
 11
-13905.615598424509
 21
-6382.779208627574
 31
0.0
  0
LINE
  5
238
100
AcDbEntity
  8
Frei
  6
CONTINUOUS
 62
           3
100
AcDbLine
 10
-13905.697467516926
 20
-6383.976412641813
 30
0.0
 11
-13905.057930963601
 21
-6383.418745180902
 31
0.0
  0
LINE
  5
239
100
AcDbEntity
  8
Frei
  6
CONTINUOUS
 62
           3
100
AcDbLine
 10
-13887.739407303357
 20
-6385.204449028029
 30
0.0
 11
-13893.818130161715
 21
-6384.788764217811
 31
0.0
  0
LINE
  5
23A
100
AcDbEntity
  8
Frei
  6
CONTINUOUS
 62
           3
100
AcDbLine
 10
-13888.297074764272
 20
-6384.564912474704
 30
0.0
 11
-13887.739407303357
 21
-6385.204449028029
 31
0.0
  0
LINE
  5
23B
100
AcDbEntity
  8
Frei
  6
CONTINUOUS
 62
           3
100
AcDbLine
 10
-13887.7939866983
 20
-6386.002585037521
 30
0.0
 11
-13888.433523251628
 21
-6386.560252498432
 31
0.0
  0
LINE
  5
23C
100
AcDbEntity
  8
Frei
  6
CONTINUOUS
 62
           3
100
AcDbLine
 10
-13905.752046911868
 20
-6384.774548651304
 30
0.0
 11
-13887.7939866983
 21
-6386.002585037521
 31
0.0
  0
LINE
  5
23D
100
AcDbEntity
  8
Frei
  6
CONTINUOUS
 62
           3
100
AcDbLine
 10
-13905.194379450961
 20
-6385.41408520463
 30
0.0
 11
-13905.752046911868
 21
-6384.774548651304
 31
0.0
  0
LINE
  5
23E
100
AcDbEntity
  8
Frei
  6
CONTINUOUS
 62
           3
100
AcDbLine
 10
-13905.833916004281
 20
-6385.971752665541
 30
0.0
 11
-13905.194379450961
 21
-6385.41408520463
 31
0.0
  0
LINE
  5
23F
100
AcDbEntity
  8
Frei
  6
CONTINUOUS
 62
           3
100
AcDbLine
 10
-13887.875855790717
 20
-6387.199789051761
 30
0.0
 11
-13905.833916004281
 21
-6385.971752665541
 31
0.0
  0
LINE
  5
240
100
AcDbEntity
  8
Frei
  6
CONTINUOUS
 62
           3
100
AcDbLine
 10
-13888.433523251628
 20
-6386.560252498432
 30
0.0
 11
-13887.875855790717
 21
-6387.199789051761
 31
0.0
  0
LINE
  5
241
100
AcDbEntity
  8
Frei
  6
CONTINUOUS
 62
           3
100
AcDbLine
 10
-13905.330827938316
 20
-6387.40942522836
 30
0.0
 11
-13888.569971738983
 21
-6388.555592522162
 31
0.0
  0
LINE
  5
242
100
AcDbEntity
  8
Frei
  6
CONTINUOUS
 62
           3
100
AcDbLine
 10
-13887.930435185659
 20
-6387.997925061253
 30
0.0
 11
-13888.569971738983
 21
-6388.555592522162
 31
0.0
  0
LINE
  5
243
100
AcDbEntity
  8
Frei
  6
CONTINUOUS
 62
           3
100
AcDbLine
 10
-13905.888495399224
 20
-6386.769888675034
 30
0.0
 11
-13887.930435185659
 21
-6387.997925061253
 31
0.0
  0
LINE
  5
244
100
AcDbEntity
  8
Frei
  6
CONTINUOUS
 62
           3
100
AcDbLine
 10
-13905.330827938316
 20
-6387.40942522836
 30
0.0
 11
-13905.888495399224
 21
-6386.769888675034
 31
0.0
  0
LINE
  5
245
100
AcDbEntity
  8
Frei
  6
CONTINUOUS
 62
           3
100
AcDbLine
 10
-13905.970364491641
 20
-6387.967092689273
 30
0.0
 11
-13905.330827938316
 21
-6387.40942522836
 31
0.0
  0
LINE
  5
246
100
AcDbEntity
  8
Frei
  6
CONTINUOUS
 62
           3
100
AcDbLine
 10
-13888.012304278072
 20
-6389.195129075489
 30
0.0
 11
-13905.970364491641
 21
-6387.967092689273
 31
0.0
  0
LINE
  5
247
100
AcDbEntity
  8
Frei
  6
CONTINUOUS
 62
           3
100
AcDbLine
 10
-13888.569971738983
 20
-6388.555592522162
 30
0.0
 11
-13888.012304278072
 21
-6389.195129075489
 31
0.0
  0
LINE
  5
248
100
AcDbEntity
  8
Frei
  6
CONTINUOUS
 62
           3
100
AcDbLine
 10
-13888.706420226343
 20
-6390.550932545893
 30
0.0
 11
-13905.467276425676
 21
-6389.40476525209
 31
0.0
  0
LINE
  5
249
100
AcDbEntity
  8
Frei
  6
CONTINUOUS
 62
           3
100
AcDbLine
 10
-13888.706420226343
 20
-6390.550932545893
 30
0.0
 11
-13888.066883673015
 21
-6389.993265084981
 31
0.0
  0
LINE
  5
24A
100
AcDbEntity
  8
Frei
  6
CONTINUOUS
 62
           3
100
AcDbLine
 10
-13888.148752765432
 20
-6391.190469099219
 30
0.0
 11
-13888.706420226343
 21
-6390.550932545893
 31
0.0
  0
LINE
  5
24B
100
AcDbEntity
  8
Frei
  6
CONTINUOUS
 62
           3
100
AcDbLine
 10
-13906.106812978996
 20
-6389.962432713001
 30
0.0
 11
-13888.148752765432
 21
-6391.190469099219
 31
0.0
  0
LINE
  5
24C
100
AcDbEntity
  8
Frei
  6
CONTINUOUS
 62
           3
100
AcDbLine
 10
-13905.467276425676
 20
-6389.40476525209
 30
0.0
 11
-13906.106812978996
 21
-6389.962432713001
 31
0.0
  0
LINE
  5
24D
100
AcDbEntity
  8
Frei
  6
CONTINUOUS
 62
           3
100
AcDbLine
 10
-13906.024943886583
 20
-6388.765228698764
 30
0.0
 11
-13905.467276425676
 21
-6389.40476525209
 31
0.0
  0
LINE
  5
24E
100
AcDbEntity
  8
Frei
  6
CONTINUOUS
 62
           3
100
AcDbLine
 10
-13888.066883673015
 20
-6389.993265084981
 30
0.0
 11
-13906.024943886583
 21
-6388.765228698764
 31
0.0
  0
LINE
  5
24F
100
AcDbEntity
  8
Frei
  6
CONTINUOUS
 62
           7
100
AcDbLine
 10
-13862.205951693231
 20
-6396.491550692009
 30
0.0
 11
-13861.54106295879
 21
-6397.84947725258
 31
0.0
  0
LINE
  5
250
100
AcDbEntity
  8
Frei
  6
CONTINUOUS
 62
           7
100
AcDbLine
 10
-13862.205951693231
 20
-6396.491550692009
 30
0.0
 11
-13866.440080119981
 21
-6396.202005846401
 31
0.0
  0
LINE
  5
251
100
AcDbEntity
  8
Frei
  6
CONTINUOUS
 62
           7
100
AcDbLine
 10
-13861.273064264387
 20
-6393.930426689222
 30
0.0
 11
-13862.205951693231
 21
-6396.491550692009
 31
0.0
  0
LINE
  5
252
100
AcDbEntity
  8
Frei
  6
CONTINUOUS
 62
           7
100
AcDbLine
 10
-13861.575723125981
 20
-6387.275469893407
 30
0.0
 11
-13861.000167289672
 21
-6389.939746641764
 31
0.0
  0
LINE
  5
253
100
AcDbEntity
  8
Frei
  6
CONTINUOUS
 62
           7
100
AcDbLine
 10
-13861.575723125981
 20
-6387.275469893407
 30
0.0
 11
-13865.809851552731
 21
-6386.985925047798
 31
0.0
  0
LINE
  5
254
100
AcDbEntity
  8
Frei
  6
CONTINUOUS
 62
           7
100
AcDbLine
 10
-13860.732168595274
 20
-6386.020696078406
 30
0.0
 11
-13861.575723125981
 21
-6387.275469893407
 31
0.0
  0
LINE
  5
255
100
AcDbEntity
  8
Frei
  6
CONTINUOUS
 62
           7
100
AcDbLine
 10
-13861.677511446149
 20
-6399.84481727631
 30
0.0
 11
-13862.521065976856
 21
-6401.099591091309
 31
0.0
  0
LINE
  5
256
100
AcDbEntity
  8
Frei
  6
CONTINUOUS
 62
           7
100
AcDbLine
 10
-13861.260608842356
 20
-6382.667429494107
 30
0.0
 11
-13865.494737269106
 21
-6382.377884648498
 31
0.0
  0
LINE
  5
257
100
AcDbEntity
  8
Frei
  6
CONTINUOUS
 62
           7
100
AcDbLine
 10
-13861.260608842356
 20
-6382.667429494107
 30
0.0
 11
-13860.595720107915
 21
-6384.025356054678
 31
0.0
  0
LINE
  5
258
100
AcDbEntity
  8
Frei
  6
CONTINUOUS
 62
           7
100
AcDbLine
 10
-13866.665861505473
 20
-6399.503696057916
 30
0.0
 11
-13866.755194403606
 21
-6400.810046245701
 31
0.0
  0
LINE
  5
259
100
AcDbEntity
  8
Frei
  6
CONTINUOUS
 62
           7
100
AcDbLine
 10
-13861.677511446149
 20
-6399.84481727631
 30
0.0
 11
-13861.54106295879
 21
-6397.84947725258
 31
0.0
  0
LINE
  5
25A
100
AcDbEntity
  8
Frei
  6
CONTINUOUS
 62
           7
100
AcDbLine
 10
-13861.677511446149
 20
-6399.84481727631
 30
0.0
 11
-13866.665861505473
 21
-6399.503696057916
 31
0.0
  0
LINE
  5
25B
100
AcDbEntity
  8
Frei
  6
CONTINUOUS
 62
           7
100
AcDbLine
 10
-13866.529413018117
 20
-6397.508356034186
 30
0.0
 11
-13866.665861505473
 21
-6399.503696057916
 31
0.0
  0
LINE
  5
25C
100
AcDbEntity
  8
Frei
  6
CONTINUOUS
 62
           7
100
AcDbLine
 10
-13861.54106295879
 20
-6397.84947725258
 30
0.0
 11
-13861.273064264387
 21
-6393.930426689222
 31
0.0
  0
LINE
  5
25D
100
AcDbEntity
  8
Frei
  6
CONTINUOUS
 62
           7
100
AcDbLine
 10
-13861.54106295879
 20
-6397.84947725258
 30
0.0
 11
-13866.529413018117
 21
-6397.508356034186
 31
0.0
  0
LINE
  5
25E
100
AcDbEntity
  8
Frei
  6
CONTINUOUS
 62
           7
100
AcDbLine
 10
-13866.440080119981
 20
-6396.202005846401
 30
0.0
 11
-13866.529413018117
 21
-6397.508356034186
 31
0.0
  0
LINE
  5
25F
100
AcDbEntity
  8
Frei
  6
CONTINUOUS
 62
           7
100
AcDbLine
 10
-13866.261414323715
 20
-6393.58930547083
 30
0.0
 11
-13866.440080119981
 21
-6396.202005846401
 31
0.0
  0
LINE
  5
260
100
AcDbEntity
  8
Frei
  6
CONTINUOUS
 62
           7
100
AcDbLine
 10
-13861.273064264387
 20
-6393.930426689222
 30
0.0
 11
-13861.000167289672
 21
-6389.939746641764
 31
0.0
  0
LINE
  5
261
100
AcDbEntity
  8
Frei
  6
CONTINUOUS
 62
           7
100
AcDbLine
 10
-13861.273064264387
 20
-6393.930426689222
 30
0.0
 11
-13866.261414323715
 21
-6393.58930547083
 31
0.0
  0
LINE
  5
262
100
AcDbEntity
  8
Frei
  6
CONTINUOUS
 62
           7
100
AcDbLine
 10
-13865.988517348997
 20
-6389.598625423369
 30
0.0
 11
-13866.261414323715
 21
-6393.58930547083
 31
0.0
  0
LINE
  5
263
100
AcDbEntity
  8
Frei
  6
CONTINUOUS
 62
           7
100
AcDbLine
 10
-13861.000167289672
 20
-6389.939746641764
 30
0.0
 11
-13860.732168595274
 21
-6386.020696078406
 31
0.0
  0
LINE
  5
264
100
AcDbEntity
  8
Frei
  6
CONTINUOUS
 62
           7
100
AcDbLine
 10
-13861.000167289672
 20
-6389.939746641764
 30
0.0
 11
-13865.988517348997
 21
-6389.598625423369
 31
0.0
  0
LINE
  5
265
100
AcDbEntity
  8
Frei
  6
CONTINUOUS
 62
           7
100
AcDbLine
 10
-13865.809851552731
 20
-6386.985925047798
 30
0.0
 11
-13865.988517348997
 21
-6389.598625423369
 31
0.0
  0
LINE
  5
266
100
AcDbEntity
  8
Frei
  6
CONTINUOUS
 62
           7
100
AcDbLine
 10
-13865.720518654598
 20
-6385.679574860012
 30
0.0
 11
-13865.809851552731
 21
-6386.985925047798
 31
0.0
  0
LINE
  5
267
100
AcDbEntity
  8
Frei
  6
CONTINUOUS
 62
           7
100
AcDbLine
 10
-13860.732168595274
 20
-6386.020696078406
 30
0.0
 11
-13860.595720107915
 21
-6384.025356054678
 31
0.0
  0
LINE
  5
268
100
AcDbEntity
  8
Frei
  6
CONTINUOUS
 62
           7
100
AcDbLine
 10
-13860.732168595274
 20
-6386.020696078406
 30
0.0
 11
-13865.720518654598
 21
-6385.679574860012
 31
0.0
  0
LINE
  5
269
100
AcDbEntity
  8
Frei
  6
CONTINUOUS
 62
           7
100
AcDbLine
 10
-13865.584070167239
 20
-6383.684234836282
 30
0.0
 11
-13865.720518654598
 21
-6385.679574860012
 31
0.0
  0
LINE
  5
26A
100
AcDbEntity
  8
Frei
  6
CONTINUOUS
 62
           7
100
AcDbLine
 10
-13865.584070167239
 20
-6383.684234836282
 30
0.0
 11
-13860.595720107915
 21
-6384.025356054678
 31
0.0
  0
LINE
  5
26B
100
AcDbEntity
  8
Frei
  6
CONTINUOUS
 62
           7
100
AcDbLine
 10
-13866.755194403606
 20
-6400.810046245701
 30
0.0
 11
-13862.521065976856
 21
-6401.099591091309
 31
0.0
  0
LINE
  5
26C
100
AcDbEntity
  8
Frei
  6
CONTINUOUS
 62
           7
100
AcDbLine
 10
-13865.494737269106
 20
-6382.377884648498
 30
0.0
 11
-13865.584070167239
 21
-6383.684234836282
 31
0.0
  0
LINE
  5
26D
100
AcDbEntity
  8
Frei
  6
CONTINUOUS
 62
           7
100
AcDbLine
 10
-13910.320598768696
 20
-6348.979460525537
 30
0.0
 11
-13910.678776048011
 21
-6354.217228087827
 31
0.0
  0
LINE
  5
26E
100
AcDbEntity
  8
Frei
  6
CONTINUOUS
 62
           7
100
AcDbLine
 10
-13909.301663456652
 20
-6356.065486974109
 30
0.0
 11
-13909.062878603774
 21
-6352.573641932581
 31
0.0
  0
LINE
  5
26F
100
AcDbEntity
  8
Frei
  6
CONTINUOUS
 62
           7
100
AcDbLine
 10
-13910.055890667914
 20
-6356.013910219833
 30
0.0
 11
-13909.301663456652
 21
-6356.065486974109
 31
0.0
  0
LINE
  5
270
100
AcDbEntity
  8
Frei
  6
CONTINUOUS
 62
           7
100
AcDbLine
 10
-13909.062878603774
 20
-6352.573641932581
 30
0.0
 11
-13908.585308898026
 21
-6345.589951849527
 31
0.0
  0
LINE
  5
271
100
AcDbEntity
  8
Frei
  6
CONTINUOUS
 62
           7
100
AcDbLine
 10
-13909.817105815036
 20
-6352.522065178307
 30
0.0
 11
-13909.062878603774
 21
-6352.573641932581
 31
0.0
  0
LINE
  5
272
100
AcDbEntity
  8
Frei
  6
CONTINUOUS
 62
           7
100
AcDbLine
 10
-13908.585308898026
 20
-6345.589951849527
 30
0.0
 11
-13908.346524045148
 21
-6342.098106808001
 31
0.0
  0
LINE
  5
273
100
AcDbEntity
  8
Frei
  6
CONTINUOUS
 62
           7
100
AcDbLine
 10
-13909.339536109284
 20
-6345.538375095252
 30
0.0
 11
-13908.585308898026
 21
-6345.589951849527
 31
0.0
  0
LINE
  5
274
100
AcDbEntity
  8
Frei
  6
CONTINUOUS
 62
           7
100
AcDbLine
 10
-13908.346524045148
 20
-6342.098106808001
 30
0.0
 11
-13907.971290704914
 21
-6336.610921742745
 31
0.0
  0
LINE
  5
275
100
AcDbEntity
  8
Frei
  6
CONTINUOUS
 62
           7
100
AcDbLine
 10
-13909.10075125641
 20
-6342.046530053726
 30
0.0
 11
-13908.346524045148
 21
-6342.098106808001
 31
0.0
  0
LINE
  5
276
100
AcDbEntity
  8
Frei
  6
CONTINUOUS
 62
           7
100
AcDbLine
 10
-13871.522661357751
 20
-6397.238864299895
 30
0.0
 11
-13870.703970433606
 21
-6385.266824157517
 31
0.0
  0
LINE
  5
277
100
AcDbEntity
  8
Frei
  6
CONTINUOUS
 62
           2
100
AcDbLine
 10
-13866.534311298426
 20
-6397.57998551829
 30
0.0
 11
-13871.522661357751
 21
-6397.238864299895
 31
0.0
  0
LINE
  5
278
100
AcDbEntity
  8
Frei
  6
CONTINUOUS
 62
           7
100
AcDbLine
 10
-13870.703970433606
 20
-6385.266824157517
 30
0.0
 11
-13870.635746189932
 21
-6384.269154145653
 31
0.0
  0
LINE
  5
279
100
AcDbEntity
  8
Frei
  6
CONTINUOUS
 62
           2
100
AcDbLine
 10
-13865.715620374282
 20
-6385.607945375909
 30
0.0
 11
-13870.703970433606
 21
-6385.266824157517
 31
0.0
  0
LINE
  5
27A
100
AcDbEntity
  8
Frei
  6
CONTINUOUS
 62
           7
100
AcDbLine
 10
-13871.590885601432
 20
-6398.236534311761
 30
0.0
 11
-13871.522661357751
 21
-6397.238864299895
 31
0.0
  0
LINE
  5
27B
100
AcDbEntity
  8
Frei
  6
CONTINUOUS
 62
           7
100
AcDbLine
 10
-13871.590885601432
 20
-6398.236534311761
 30
0.0
 11
-13866.602535542108
 21
-6398.577655530154
 31
0.0
  0
LINE
  5
27C
100
AcDbEntity
  8
Frei
  6
CONTINUOUS
 62
           7
100
AcDbLine
 10
-13870.635746189932
 20
-6384.269154145653
 30
0.0
 11
-13870.601634068091
 21
-6383.770319139717
 31
0.0
  0
LINE
  5
27D
100
AcDbEntity
  8
Frei
  6
CONTINUOUS
 62
           7
100
AcDbLine
 10
-13870.635746189932
 20
-6384.269154145653
 30
0.0
 11
-13865.647396130607
 21
-6384.610275364045
 31
0.0
  0
LINE
  5
27E
100
AcDbEntity
  8
Frei
  6
CONTINUOUS
 62
           7
100
AcDbLine
 10
-13891.009636090745
 20
-6396.908610700181
 30
0.0
 11
-13910.001181058229
 21
-6395.60990093013
 31
0.0
  0
LINE
  5
27F
100
AcDbEntity
  8
Frei
  6
CONTINUOUS
 62
           7
100
AcDbLine
 10
-13883.699374231168
 20
-6399.413183411344
 30
0.0
 11
-13891.009636090745
 21
-6396.908610700181
 31
0.0
  0
LINE
  5
280
100
AcDbEntity
  8
Frei
  6
CONTINUOUS
 62
           7
100
AcDbLine
 10
-13909.519183009343
 20
-6366.57513422053
 30
0.0
 11
-13910.018018015278
 21
-6366.54102209869
 31
0.0
  0
LINE
  5
281
100
AcDbEntity
  8
Frei
  6
CONTINUOUS
 62
           7
100
AcDbLine
 10
-13909.519183009343
 20
-6366.57513422053
 30
0.0
 11
-13911.39534971051
 21
-6394.011059546813
 31
0.0
  0
LINE
  5
282
100
AcDbEntity
  8
Frei
  6
CONTINUOUS
 62
           7
100
AcDbLine
 10
-13891.009636090745
 20
-6396.908610700181
 30
0.0
 11
-13885.059430761608
 21
-6397.315507022097
 31
0.0
  0
LINE
  5
283
100
AcDbEntity
  8
Frei
  6
CONTINUOUS
 62
           7
100
AcDbLine
 10
-13881.584422677126
 20
-6368.485413043532
 30
0.0
 11
-13909.519183009343
 21
-6366.57513422053
 31
0.0
  0
LINE
  5
284
100
AcDbEntity
  8
Frei
  6
CONTINUOUS
 62
           7
100
AcDbLine
 10
-13881.584422677126
 20
-6368.485413043532
 30
0.0
 11
-13883.46058937829
 21
-6395.921338369816
 31
0.0
  0
LINE
  5
285
100
AcDbEntity
  8
Frei
  6
CONTINUOUS
 62
           7
100
AcDbLine
 10
-13883.699374231168
 20
-6399.413183411344
 30
0.0
 11
-13873.223839106588
 21
-6400.12953796997
 31
0.0
  0
LINE
  5
286
100
AcDbEntity
  8
Frei
  6
CONTINUOUS
 62
           7
100
AcDbLine
 10
-13871.624997723273
 20
-6398.735369317693
 30
0.0
 11
-13871.590885601432
 21
-6398.236534311761
 31
0.0
  0
LINE
  5
287
100
AcDbEntity
  8
Frei
  6
CONTINUOUS
 62
           7
100
AcDbLine
 10
-13882.471337844952
 20
-6381.455123197776
 30
0.0
 11
-13871.995802720368
 21
-6382.171477756402
 31
0.0
  0
LINE
  5
288
100
AcDbEntity
  8
Frei
  6
CONTINUOUS
 62
           7
100
AcDbLine
 10
-13910.018018015278
 20
-6366.54102209869
 30
0.0
 11
-13909.949793771597
 21
-6365.543352086826
 31
0.0
  0
LINE
  5
289
100
AcDbEntity
  8
Frei
  6
CONTINUOUS
 62
           7
100
AcDbLine
 10
-13881.085587671198
 20
-6368.519525165372
 30
0.0
 11
-13881.584422677126
 21
-6368.485413043532
 31
0.0
  0
LINE
  5
28A
100
AcDbEntity
  8
Frei
  6
CONTINUOUS
 62
           7
100
AcDbLine
 10
-13881.017363427516
 20
-6367.521855153508
 30
0.0
 11
-13881.085587671198
 21
-6368.519525165372
 31
0.0
  0
LINE
  5
28B
100
AcDbEntity
  8
Frei
  6
CONTINUOUS
 62
           7
100
AcDbLine
 10
-13881.017363427516
 20
-6367.521855153508
 30
0.0
 11
-13909.949793771597
 21
-6365.543352086826
 31
0.0
  0
LINE
  5
28C
100
AcDbEntity
  8
Frei
  6
CONTINUOUS
 62
           7
100
AcDbLine
 10
-13879.277645213708
 20
-6342.081269850954
 30
0.0
 11
-13879.239717982942
 21
-6341.526645003148
 31
0.0
  0
LINE
  5
28D
100
AcDbEntity
  8
Frei
  6
CONTINUOUS
 62
           7
100
AcDbLine
 10
-13907.971290704914
 20
-6336.610921742745
 30
0.0
 11
-13881.029056277468
 21
-6339.400833982824
 31
0.0
  0
LINE
  5
28E
100
AcDbEntity
  8
Frei
  6
CONTINUOUS
 62
           7
100
AcDbLine
 10
-13875.039761834851
 20
-6353.396761199861
 30
0.0
 11
-13875.073873956691
 21
-6353.895596205793
 31
0.0
  0
LINE
  5
28F
100
AcDbEntity
  8
Frei
  6
CONTINUOUS
 62
           1
100
AcDbLine
 10
-13875.039761834851
 20
-6353.396761199861
 30
0.0
 11
-13877.522314949594
 21
-6353.226995338772
 31
0.0
  0
LINE
  5
290
100
AcDbEntity
  8
Frei
  6
CONTINUOUS
 62
           7
100
AcDbLine
 10
-13874.766864860136
 20
-6349.406081152401
 30
0.0
 11
-13875.039761834851
 21
-6353.396761199861
 31
0.0
  0
LINE
  5
291
100
AcDbEntity
  8
Frei
  6
CONTINUOUS
 62
           1
100
AcDbLine
 10
-13874.766864860136
 20
-6349.406081152401
 30
0.0
 11
-13877.249417974879
 21
-6349.236315291314
 31
0.0
  0
LINE
  5
292
100
AcDbEntity
  8
Frei
  6
CONTINUOUS
 62
           7
100
AcDbLine
 10
-13875.073873956691
 20
-6353.895596205793
 30
0.0
 11
-13875.107986078532
 21
-6354.394431211725
 31
0.0
  0
LINE
  5
293
100
AcDbEntity
  8
Frei
  6
CONTINUOUS
 62
           1
100
AcDbLine
 10
-13875.073873956691
 20
-6353.895596205793
 30
0.0
 11
-13877.556427071431
 21
-6353.725830344706
 31
0.0
  0
LINE
  5
294
100
AcDbEntity
  8
Frei
  6
CONTINUOUS
 62
           7
100
AcDbLine
 10
-13874.732752738295
 20
-6348.907246146468
 30
0.0
 11
-13874.766864860136
 21
-6349.406081152401
 31
0.0
  0
LINE
  5
295
100
AcDbEntity
  8
Frei
  6
CONTINUOUS
 62
           1
100
AcDbLine
 10
-13874.732752738295
 20
-6348.907246146468
 30
0.0
 11
-13877.215305853038
 21
-6348.737480285382
 31
0.0
  0
LINE
  5
296
100
AcDbEntity
  8
Frei
  6
CONTINUOUS
 62
           7
100
AcDbLine
 10
-13876.105656090393
 20
-6354.326206968047
 30
0.0
 11
-13875.696310628322
 21
-6348.340186896859
 31
0.0
  0
LINE
  5
297
100
AcDbEntity
  8
Frei
  6
CONTINUOUS
 62
           2
100
AcDbLine
 10
-13875.107986078532
 20
-6354.394431211725
 30
0.0
 11
-13876.105656090393
 21
-6354.326206968047
 31
0.0
  0
LINE
  5
298
100
AcDbEntity
  8
Frei
  6
CONTINUOUS
 62
           7
100
AcDbLine
 10
-13875.696310628322
 20
-6348.340186896859
 30
0.0
 11
-13875.628086384644
 21
-6347.342516884993
 31
0.0
  0
LINE
  5
299
100
AcDbEntity
  8
Frei
  6
CONTINUOUS
 62
           2
100
AcDbLine
 10
-13874.698640616458
 20
-6348.408411140536
 30
0.0
 11
-13875.696310628322
 21
-6348.340186896859
 31
0.0
  0
LINE
  5
29A
100
AcDbEntity
  8
Frei
  6
CONTINUOUS
 62
           7
100
AcDbLine
 10
-13876.173880334074
 20
-6355.323876979911
 30
0.0
 11
-13876.105656090393
 21
-6354.326206968047
 31
0.0
  0
LINE
  5
29B
100
AcDbEntity
  8
Frei
  6
CONTINUOUS
 62
           7
100
AcDbLine
 10
-13875.107986078532
 20
-6354.394431211725
 30
0.0
 11
-13876.173880334074
 21
-6355.323876979911
 31
0.0
  0
LINE
  5
29C
100
AcDbEntity
  8
Frei
  6
CONTINUOUS
 62
           7
100
AcDbLine
 10
-13874.698640616458
 20
-6348.408411140536
 30
0.0
 11
-13874.732752738295
 21
-6348.907246146468
 31
0.0
  0
LINE
  5
29D
100
AcDbEntity
  8
Frei
  6
CONTINUOUS
 62
           7
100
AcDbLine
 10
-13875.628086384644
 20
-6347.342516884993
 30
0.0
 11
-13875.286965166251
 21
-6342.354166825667
 31
0.0
  0
LINE
  5
29E
100
AcDbEntity
  8
Frei
  6
CONTINUOUS
 62
           7
100
AcDbLine
 10
-13875.628086384644
 20
-6347.342516884993
 30
0.0
 11
-13874.698640616458
 21
-6348.408411140536
 31
0.0
  0
LINE
  5
29F
100
AcDbEntity
  8
Frei
  6
CONTINUOUS
 62
           7
100
AcDbLine
 10
-13909.949793771597
 20
-6365.543352086826
 30
0.0
 11
-13909.301663456652
 21
-6356.065486974109
 31
0.0
  0
LINE
  5
2A0
100
AcDbEntity
  8
Frei
  6
CONTINUOUS
 62
           7
100
AcDbLine
 10
-13880.505681599927
 20
-6360.03933006452
 30
0.0
 11
-13881.017363427516
 21
-6367.521855153508
 31
0.0
  0
LINE
  5
2A1
100
AcDbEntity
  8
Frei
  6
CONTINUOUS
 62
           7
100
AcDbLine
 10
-13878.211750958166
 20
-6341.151824082767
 30
0.0
 11
-13879.576235831741
 21
-6361.105224320066
 31
0.0
  0
LINE
  5
2A2
100
AcDbEntity
  8
Frei
  6
CONTINUOUS
 62
           7
100
AcDbLine
 10
-13876.216410934438
 20
-6341.288272570125
 30
0.0
 11
-13877.580895808012
 21
-6361.241672807421
 31
0.0
  0
LINE
  5
2A3
100
AcDbEntity
  8
Frei
  6
CONTINUOUS
 62
           7
100
AcDbLine
 10
-13876.515001552467
 20
-6360.312227039239
 30
0.0
 11
-13877.580895808012
 21
-6361.241672807421
 31
0.0
  0
LINE
  5
2A4
100
AcDbEntity
  8
Frei
  6
CONTINUOUS
 62
           7
100
AcDbLine
 10
-13879.576235831741
 20
-6361.105224320066
 30
0.0
 11
-13880.505681599927
 21
-6360.03933006452
 31
0.0
  0
LINE
  5
2A5
100
AcDbEntity
  8
Frei
  6
CONTINUOUS
 62
           7
100
AcDbLine
 10
-13879.277645213708
 20
-6342.081269850954
 30
0.0
 11
-13878.211750958166
 21
-6341.151824082767
 31
0.0
  0
LINE
  5
2A6
100
AcDbEntity
  8
Frei
  6
CONTINUOUS
 62
           7
100
AcDbLine
 10
-13875.286965166251
 20
-6342.354166825667
 30
0.0
 11
-13876.216410934438
 21
-6341.288272570125
 31
0.0
  0
LINE
  5
2A7
100
AcDbEntity
  8
Frei
  6
CONTINUOUS
 62
           7
100
AcDbLine
 10
-13876.515001552467
 20
-6360.312227039239
 30
0.0
 11
-13876.173880334074
 21
-6355.323876979911
 31
0.0
  0
LINE
  5
2A8
100
AcDbEntity
  8
Frei
  6
CONTINUOUS
 62
           7
100
AcDbLine
 10
-13879.576235831741
 20
-6361.105224320066
 30
0.0
 11
-13877.580895808012
 21
-6361.241672807421
 31
0.0
  0
LINE
  5
2A9
100
AcDbEntity
  8
Frei
  6
CONTINUOUS
 62
           7
100
AcDbLine
 10
-13879.277645213708
 20
-6342.081269850954
 30
0.0
 11
-13880.505681599927
 21
-6360.03933006452
 31
0.0
  0
LINE
  5
2AA
100
AcDbEntity
  8
Frei
  6
CONTINUOUS
 62
           7
100
AcDbLine
 10
-13876.216410934438
 20
-6341.288272570125
 30
0.0
 11
-13878.211750958166
 21
-6341.151824082767
 31
0.0
  0
LINE
  5
2AB
100
AcDbEntity
  8
Frei
  6
CONTINUOUS
 62
           7
100
AcDbLine
 10
-13926.411348967369
 20
-6364.417652066129
 30
0.0
 11
-13915.935813842789
 21
-6365.134006624753
 31
0.0
  0
LINE
  5
2AC
100
AcDbEntity
  8
Frei
  6
CONTINUOUS
 62
           7
100
AcDbLine
 10
-13910.192568759863
 20
-6332.449681086087
 30
0.0
 11
-13924.159948925972
 21
-6331.494541674584
 31
0.0
  0
LINE
  5
2AD
100
AcDbEntity
  8
Frei
  6
CONTINUOUS
 62
           7
100
AcDbLine
 10
-13909.263122991677
 20
-6333.51557534163
 30
0.0
 11
-13910.798168474448
 21
-6355.963150608591
 31
0.0
  0
LINE
  5
2AE
100
AcDbEntity
  8
Frei
  6
CONTINUOUS
 62
           7
100
AcDbLine
 10
-14070.007606432235
 20
-6353.595690964527
 30
0.0
 11
-14068.472560949464
 21
-6331.148115697567
 31
0.0
  0
LINE
  5
2AF
100
AcDbEntity
  8
Frei
  6
CONTINUOUS
 62
           7
100
AcDbLine
 10
-14069.308307934527
 20
-6343.369573342913
 30
0.0
 11
-14068.950130655212
 21
-6338.131805780621
 31
0.0
  0
LINE
  5
2B0
100
AcDbEntity
  8
Frei
  6
CONTINUOUS
 62
           7
100
AcDbLine
 10
-13909.962421489381
 20
-6343.741692963245
 30
0.0
 11
-13910.320598768696
 21
-6348.979460525537
 31
0.0
  0
ARC
  5
2B1
100
AcDbEntity
  8
Frei
  6
CONTINUOUS
 62
           7
100
AcDbCircle
 10
-14077.534489519167
 20
-6337.54477661868
 30
0.0
 40
8.604407030244
100
AcDbArc
 50
332.086014671726
 51
356.087999999999
  0
ARC
  5
2B2
100
AcDbEntity
  8
Frei
  6
CONTINUOUS
 62
           7
100
AcDbCircle
 10
-14071.016397269337
 20
-6332.728246073629
 30
0.0
 40
2.430106011614
100
AcDbArc
 50
310.022521857266
 51
356.087999999999
  0
ARC
  5
2B3
100
AcDbEntity
  8
Frei
  6
CONTINUOUS
 62
           7
100
AcDbCircle
 10
-14071.732751827964
 20
-6343.203781198209
 30
0.0
 40
2.430106011614
100
AcDbArc
 50
310.022521857266
 51
356.087999999999
  0
ARC
  5
2B4
100
AcDbEntity
  8
Frei
  6
CONTINUOUS
 62
           7
100
AcDbCircle
 10
-14071.016397269337
 20
-6332.728246073629
 30
0.0
 40
2.430106011614
100
AcDbArc
 50
356.087999999999
 51
42.153478142733
  0
ARC
  5
2B5
100
AcDbEntity
  8
Frei
  6
CONTINUOUS
 62
           7
100
AcDbCircle
 10
-14071.732751827964
 20
-6343.203781198209
 30
0.0
 40
2.430106011614
100
AcDbArc
 50
356.087999999999
 51
42.153478142733
  0
ARC
  5
2B6
100
AcDbEntity
  8
Frei
  6
CONTINUOUS
 62
           7
100
AcDbCircle
 10
-13908.254332154571
 20
-6354.383020232531
 30
0.0
 40
2.430106011614
100
AcDbArc
 50
130.022521857263
 51
176.088
  0
ARC
  5
2B7
100
AcDbEntity
  8
Frei
  6
CONTINUOUS
 62
           7
100
AcDbCircle
 10
-13907.537977595941
 20
-6343.907485107947
 30
0.0
 40
2.430106011614
100
AcDbArc
 50
130.022521857263
 51
176.088
  0
ARC
  5
2B8
100
AcDbEntity
  8
Frei
  6
CONTINUOUS
 62
           7
100
AcDbCircle
 10
-13908.254332154571
 20
-6354.383020232531
 30
0.0
 40
2.430106011614
100
AcDbArc
 50
176.088
 51
222.153478142737
  0
ARC
  5
2B9
100
AcDbEntity
  8
Frei
  6
CONTINUOUS
 62
           7
100
AcDbCircle
 10
-13907.537977595941
 20
-6343.907485107947
 30
0.0
 40
2.430106011614
100
AcDbArc
 50
176.088
 51
222.153478142737
  0
ARC
  5
2BA
100
AcDbEntity
  8
Frei
  6
CONTINUOUS
 62
           7
100
AcDbCircle
 10
-13901.736239904745
 20
-6349.566489687478
 30
0.0
 40
8.604407030244
100
AcDbArc
 50
152.086014671724
 51
176.088
  0
ARC
  5
2BB
100
AcDbEntity
  8
Frei
  6
CONTINUOUS
 62
           7
100
AcDbCircle
 10
-14046.18603101953
 20
-6347.469542333246
 30
0.0
 40
4.481959213903
100
AcDbArc
 50
184.466955885586
 51
347.709044114414
  0
ARC
  5
2BC
100
AcDbEntity
  8
Frei
  6
CONTINUOUS
 62
           7
100
AcDbCircle
 10
-14077.534489519167
 20
-6337.54477661868
 30
0.0
 40
8.604407030244
100
AcDbArc
 50
356.087999999999
 51
20.089985328274
  0
ARC
  5
2BD
100
AcDbEntity
  8
Frei
  6
CONTINUOUS
 62
           7
100
AcDbCircle
 10
-13901.736239904745
 20
-6349.566489687478
 30
0.0
 40
8.604407030244
100
AcDbArc
 50
176.088
 51
200.089985328276
  0
POLYLINE
  5
2BE
100
AcDbEntity
  8
Frei
  6
CONTINUOUS
 62
           7
100
AcDb2dPolyline
 66
           1
 10
0.0
 20
0.0
 30
0.0
  0
VERTEX
  5
2BF
100
AcDbEntity
  8
Frei
  6
CONTINUOUS
 62
           7
100
AcDbVertex
100
AcDb2dVertex
 10
-14050.346851154703
 20
-6347.486039014885
 30
0.0
 42
0.046286845788
  0
VERTEX
  5
2C0
100
AcDbEntity
  8
Frei
  6
CONTINUOUS
 62
           7
100
AcDbVertex
100
AcDb2dVertex
 10
-14050.330150325863
 20
-6348.165942614965
 30
0.0
  0
VERTEX
  5
2C1
100
AcDbEntity
  8
Frei
  6
CONTINUOUS
 62
           7
100
AcDbVertex
100
AcDb2dVertex
 10
-14050.274517167913
 20
-6348.503131507924
 30
0.0
  0
VERTEX
  5
2C2
100
AcDbEntity
  8
Frei
  6
CONTINUOUS
 62
           7
100
AcDbVertex
100
AcDb2dVertex
 10
-14050.18815509462
 20
-6348.833790468555
 30
0.0
 42
0.045273723548
  0
VERTEX
  5
2C3
100
AcDbEntity
  8
Frei
  6
CONTINUOUS
 62
           7
100
AcDbVertex
100
AcDb2dVertex
 10
-14049.925179914233
 20
-6349.469290356575
 30
0.0
  0
VERTEX
  5
2C4
100
AcDbEntity
  8
Frei
  6
CONTINUOUS
 62
           7
100
AcDbVertex
100
AcDb2dVertex
 10
-14049.750186881131
 20
-6349.769572725008
 30
0.0
  0
VERTEX
  5
2C5
100
AcDbEntity
  8
Frei
  6
CONTINUOUS
 62
           7
100
AcDbVertex
100
AcDb2dVertex
 10
-14049.549215152478
 20
-6350.053132936501
 30
0.0
 42
0.04348253534
  0
VERTEX
  5
2C6
100
AcDbEntity
  8
Frei
  6
CONTINUOUS
 62
           7
100
AcDbVertex
100
AcDb2dVertex
 10
-14049.071684308401
 20
-6350.567578446983
 30
0.0
  0
VERTEX
  5
2C7
100
AcDbEntity
  8
Frei
  6
CONTINUOUS
 62
           7
100
AcDbVertex
100
AcDb2dVertex
 10
-14048.798549733066
 20
-6350.794325230466
 30
0.0
  0
VERTEX
  5
2C8
100
AcDbEntity
  8
Frei
  6
CONTINUOUS
 62
           7
100
AcDbVertex
100
AcDb2dVertex
 10
-14048.507096915051
 20
-6350.99699572151
 30
0.0
 42
0.041825507476
  0
VERTEX
  5
2C9
100
AcDbEntity
  8
Frei
  6
CONTINUOUS
 62
           7
100
AcDbVertex
100
AcDb2dVertex
 10
-14047.872607674683
 20
-6351.328337133485
 30
0.0
  0
VERTEX
  5
2CA
100
AcDbEntity
  8
Frei
  6
CONTINUOUS
 62
           7
100
AcDbVertex
100
AcDb2dVertex
 10
-14047.534665763127
 20
-6351.454096092369
 30
0.0
  0
VERTEX
  5
2CB
100
AcDbEntity
  8
Frei
  6
CONTINUOUS
 62
           7
100
AcDbVertex
100
AcDb2dVertex
 10
-14047.187495221795
 20
-6351.55153504178
 30
0.0
 42
0.040993490696
  0
VERTEX
  5
2CC
100
AcDbEntity
  8
Frei
  6
CONTINUOUS
 62
           7
100
AcDbVertex
100
AcDb2dVertex
 10
-14046.472576351593
 20
-6351.659807690888
 30
0.0
  0
VERTEX
  5
2CD
100
AcDbEntity
  8
Frei
  6
CONTINUOUS
 62
           7
100
AcDbVertex
100
AcDb2dVertex
 10
-14046.110870463086
 20
-6351.669676459355
 30
0.0
  0
VERTEX
  5
2CE
100
AcDbEntity
  8
Frei
  6
CONTINUOUS
 62
           7
100
AcDbVertex
100
AcDb2dVertex
 10
-14045.74957351217
 20
-6351.649865271155
 30
0.0
 42
0.041278481646
  0
VERTEX
  5
2CF
100
AcDbEntity
  8
Frei
  6
CONTINUOUS
 62
           7
100
AcDbVertex
100
AcDb2dVertex
 10
-14045.040454778948
 20
-6351.522009877976
 30
0.0
  0
VERTEX
  5
2D0
100
AcDbEntity
  8
Frei
  6
CONTINUOUS
 62
           7
100
AcDbVertex
100
AcDb2dVertex
 10
-14044.698542995677
 20
-6351.415176660913
 30
0.0
  0
VERTEX
  5
2D1
100
AcDbEntity
  8
Frei
  6
CONTINUOUS
 62
           7
100
AcDbVertex
100
AcDb2dVertex
 10
-14044.366766365809
 20
-6351.280126332776
 30
0.0
 42
0.042584509173
  0
VERTEX
  5
2D2
100
AcDbEntity
  8
Frei
  6
CONTINUOUS
 62
           7
100
AcDbVertex
100
AcDb2dVertex
 10
-14043.748977954285
 20
-6350.931564144675
 30
0.0
  0
VERTEX
  5
2D3
100
AcDbEntity
  8
Frei
  6
CONTINUOUS
 62
           7
100
AcDbVertex
100
AcDb2dVertex
 10
-14043.46773472703
 20
-6350.721064002189
 30
0.0
  0
VERTEX
  5
2D4
100
AcDbEntity
  8
Frei
  6
CONTINUOUS
 62
           7
100
AcDbVertex
100
AcDb2dVertex
 10
-14043.20586073264
 20
-6350.486914199376
 30
0.0
 42
0.044417198743
  0
VERTEX
  5
2D5
100
AcDbEntity
  8
Frei
  6
CONTINUOUS
 62
           7
100
AcDbVertex
100
AcDb2dVertex
 10
-14042.753917042821
 20
-6349.959686960466
 30
0.0
  0
VERTEX
  5
2D6
100
AcDbEntity
  8
Frei
  6
CONTINUOUS
 62
           7
100
AcDbVertex
100
AcDb2dVertex
 10
-14042.566932393824
 20
-6349.670661547404
 30
0.0
  0
VERTEX
  5
2D7
100
AcDbEntity
  8
Frei
  6
CONTINUOUS
 62
           7
100
AcDbVertex
100
AcDb2dVertex
 10
-14042.40687896515
 20
-6349.365901960807
 30
0.0
 42
0.045929593742
  0
VERTEX
  5
2D8
100
AcDbEntity
  8
Frei
  6
CONTINUOUS
 62
           7
100
AcDbVertex
100
AcDb2dVertex
 10
-14042.175291076011
 20
-6348.723601057144
 30
0.0
  0
VERTEX
  5
2D9
100
AcDbEntity
  8
Frei
  6
CONTINUOUS
 62
           7
100
AcDbVertex
100
AcDb2dVertex
 10
-14042.105176486144
 20
-6348.390479523362
 30
0.0
  0
VERTEX
  5
2DA
100
AcDbEntity
  8
Frei
  6
CONTINUOUS
 62
           7
100
AcDbVertex
100
AcDb2dVertex
 10
-14042.066190056223
 20
-6348.052300237418
 30
0.0
 42
0.046286845788
  0
VERTEX
  5
2DB
100
AcDbEntity
  8
Frei
  6
CONTINUOUS
 62
           7
100
AcDbVertex
100
AcDb2dVertex
 10
-14042.082890885067
 20
-6347.372396637339
 30
0.0
  0
VERTEX
  5
2DC
100
AcDbEntity
  8
Frei
  6
CONTINUOUS
 62
           7
100
AcDbVertex
100
AcDb2dVertex
 10
-14042.138524043017
 20
-6347.035207744381
 30
0.0
  0
VERTEX
  5
2DD
100
AcDbEntity
  8
Frei
  6
CONTINUOUS
 62
           7
100
AcDbVertex
100
AcDb2dVertex
 10
-14042.224886116306
 20
-6346.704548783749
 30
0.0
 42
0.045273723548
  0
VERTEX
  5
2DE
100
AcDbEntity
  8
Frei
  6
CONTINUOUS
 62
           7
100
AcDbVertex
100
AcDb2dVertex
 10
-14042.487861296693
 20
-6346.069048895731
 30
0.0
  0
VERTEX
  5
2DF
100
AcDbEntity
  8
Frei
  6
CONTINUOUS
 62
           7
100
AcDbVertex
100
AcDb2dVertex
 10
-14042.662854329799
 20
-6345.768766527298
 30
0.0
  0
VERTEX
  5
2E0
100
AcDbEntity
  8
Frei
  6
CONTINUOUS
 62
           7
100
AcDbVertex
100
AcDb2dVertex
 10
-14042.863826058448
 20
-6345.485206315804
 30
0.0
 42
0.04348253534
  0
VERTEX
  5
2E1
100
AcDbEntity
  8
Frei
  6
CONTINUOUS
 62
           7
100
AcDbVertex
100
AcDb2dVertex
 10
-14043.341356902525
 20
-6344.970760805322
 30
0.0
  0
VERTEX
  5
2E2
100
AcDbEntity
  8
Frei
  6
CONTINUOUS
 62
           7
100
AcDbVertex
100
AcDb2dVertex
 10
-14043.61449147786
 20
-6344.744014021838
 30
0.0
  0
VERTEX
  5
2E3
100
AcDbEntity
  8
Frei
  6
CONTINUOUS
 62
           7
100
AcDbVertex
100
AcDb2dVertex
 10
-14043.905944295875
 20
-6344.541343530796
 30
0.0
 42
0.041825507476
  0
VERTEX
  5
2E4
100
AcDbEntity
  8
Frei
  6
CONTINUOUS
 62
           7
100
AcDbVertex
100
AcDb2dVertex
 10
-14044.540433536244
 20
-6344.210002118817
 30
0.0
  0
VERTEX
  5
2E5
100
AcDbEntity
  8
Frei
  6
CONTINUOUS
 62
           7
100
AcDbVertex
100
AcDb2dVertex
 10
-14044.878375447799
 20
-6344.084243159935
 30
0.0
  0
VERTEX
  5
2E6
100
AcDbEntity
  8
Frei
  6
CONTINUOUS
 62
           7
100
AcDbVertex
100
AcDb2dVertex
 10
-14045.225545989131
 20
-6343.986804210527
 30
0.0
 42
0.040993490695
  0
VERTEX
  5
2E7
100
AcDbEntity
  8
Frei
  6
CONTINUOUS
 62
           7
100
AcDbVertex
100
AcDb2dVertex
 10
-14045.940464859337
 20
-6343.878531561418
 30
0.0
  0
VERTEX
  5
2E8
100
AcDbEntity
  8
Frei
  6
CONTINUOUS
 62
           7
100
AcDbVertex
100
AcDb2dVertex
 10
-14046.30217074784
 20
-6343.86866279295
 30
0.0
  0
VERTEX
  5
2E9
100
AcDbEntity
  8
Frei
  6
CONTINUOUS
 62
           7
100
AcDbVertex
100
AcDb2dVertex
 10
-14046.66346769876
 20
-6343.888473981152
 30
0.0
 42
0.041278481647
  0
VERTEX
  5
2EA
100
AcDbEntity
  8
Frei
  6
CONTINUOUS
 62
           7
100
AcDbVertex
100
AcDb2dVertex
 10
-14047.372586431975
 20
-6344.016329374327
 30
0.0
  0
VERTEX
  5
2EB
100
AcDbEntity
  8
Frei
  6
CONTINUOUS
 62
           7
100
AcDbVertex
100
AcDb2dVertex
 10
-14047.714498215249
 20
-6344.123162591391
 30
0.0
  0
VERTEX
  5
2EC
100
AcDbEntity
  8
Frei
  6
CONTINUOUS
 62
           7
100
AcDbVertex
100
AcDb2dVertex
 10
-14048.046274845114
 20
-6344.258212919528
 30
0.0
 42
0.042584509172
  0
VERTEX
  5
2ED
100
AcDbEntity
  8
Frei
  6
CONTINUOUS
 62
           7
100
AcDbVertex
100
AcDb2dVertex
 10
-14048.664063256641
 20
-6344.606775107631
 30
0.0
  0
VERTEX
  5
2EE
100
AcDbEntity
  8
Frei
  6
CONTINUOUS
 62
           7
100
AcDbVertex
100
AcDb2dVertex
 10
-14048.9453064839
 20
-6344.817275250117
 30
0.0
  0
VERTEX
  5
2EF
100
AcDbEntity
  8
Frei
  6
CONTINUOUS
 62
           7
100
AcDbVertex
100
AcDb2dVertex
 10
-14049.207180478286
 20
-6345.051425052928
 30
0.0
 42
0.044417198743
  0
VERTEX
  5
2F0
100
AcDbEntity
  8
Frei
  6
CONTINUOUS
 62
           7
100
AcDbVertex
100
AcDb2dVertex
 10
-14049.659124168105
 20
-6345.57865229184
 30
0.0
  0
VERTEX
  5
2F1
100
AcDbEntity
  8
Frei
  6
CONTINUOUS
 62
           7
100
AcDbVertex
100
AcDb2dVertex
 10
-14049.846108817103
 20
-6345.8676777049
 30
0.0
  0
VERTEX
  5
2F2
100
AcDbEntity
  8
Frei
  6
CONTINUOUS
 62
           7
100
AcDbVertex
100
AcDb2dVertex
 10
-14050.006162245776
 20
-6346.172437291499
 30
0.0
 42
0.045929593742
  0
VERTEX
  5
2F3
100
AcDbEntity
  8
Frei
  6
CONTINUOUS
 62
           7
100
AcDbVertex
100
AcDb2dVertex
 10
-14050.237750134915
 20
-6346.814738195158
 30
0.0
  0
VERTEX
  5
2F4
100
AcDbEntity
  8
Frei
  6
CONTINUOUS
 62
           7
100
AcDbVertex
100
AcDb2dVertex
 10
-14050.307864724782
 20
-6347.147859728943
 30
0.0
  0
VERTEX
  5
2F5
100
AcDbEntity
  8
Frei
  6
CONTINUOUS
 62
           7
100
AcDbVertex
100
AcDb2dVertex
 10
-14050.346851154703
 20
-6347.486039014885
 30
0.0
  0
SEQEND
  5
2F6
100
AcDbEntity
  8
Frei
  6
CONTINUOUS
 62
           7
  0
POLYLINE
  5
2F7
100
AcDbEntity
  8
Frei
  6
CONTINUOUS
 62
           7
100
AcDb2dPolyline
 66
           1
 10
0.0
 20
0.0
 30
0.0
  0
VERTEX
  5
2F8
100
AcDbEntity
  8
Frei
  6
CONTINUOUS
 62
           7
100
AcDbVertex
100
AcDb2dVertex
 10
-14045.934773429468
 20
-6343.79530353867
 30
0.0
 42
0.046286845788
  0
VERTEX
  5
2F9
100
AcDbEntity
  8
Frei
  6
CONTINUOUS
 62
           7
100
AcDbVertex
100
AcDb2dVertex
 10
-14046.710615701493
 20
-6343.814360959445
 30
0.0
  0
VERTEX
  5
2FA
100
AcDbEntity
  8
Frei
  6
CONTINUOUS
 62
           7
100
AcDbVertex
100
AcDb2dVertex
 10
-14047.095384066866
 20
-6343.877844305701
 30
0.0
  0
VERTEX
  5
2FB
100
AcDbEntity
  8
Frei
  6
CONTINUOUS
 62
           7
100
AcDbVertex
100
AcDb2dVertex
 10
-14047.472701085419
 20
-6343.976392610418
 30
0.0
 42
0.045273723548
  0
VERTEX
  5
2FC
100
AcDbEntity
  8
Frei
  6
CONTINUOUS
 62
           7
100
AcDbVertex
100
AcDb2dVertex
 10
-14048.197874002482
 20
-6344.27647524186
 30
0.0
  0
VERTEX
  5
2FD
100
AcDbEntity
  8
Frei
  6
CONTINUOUS
 62
           7
100
AcDbVertex
100
AcDb2dVertex
 10
-14048.540528100722
 20
-6344.476160891963
 30
0.0
  0
VERTEX
  5
2FE
100
AcDbEntity
  8
Frei
  6
CONTINUOUS
 62
           7
100
AcDbVertex
100
AcDb2dVertex
 10
-14048.864100440558
 20
-6344.705490994867
 30
0.0
 42
0.04348253534
  0
VERTEX
  5
2FF
100
AcDbEntity
  8
Frei
  6
CONTINUOUS
 62
           7
100
AcDbVertex
100
AcDb2dVertex
 10
-14049.451137446453
 20
-6345.250404442874
 30
0.0
  0
VERTEX
  5
300
100
AcDbEntity
  8
Frei
  6
CONTINUOUS
 62
           7
100
AcDbVertex
100
AcDb2dVertex
 10
-14049.709879626447
 20
-6345.562080023749
 30
0.0
  0
VERTEX
  5
301
100
AcDbEntity
  8
Frei
  6
CONTINUOUS
 62
           7
100
AcDbVertex
100
AcDb2dVertex
 10
-14049.941148197795
 20
-6345.894658666507
 30
0.0
 42
0.041825507476
  0
VERTEX
  5
302
100
AcDbEntity
  8
Frei
  6
CONTINUOUS
 62
           7
100
AcDbVertex
100
AcDb2dVertex
 10
-14050.319243965863
 20
-6346.618678327185
 30
0.0
  0
VERTEX
  5
303
100
AcDbEntity
  8
Frei
  6
CONTINUOUS
 62
           7
100
AcDbVertex
100
AcDb2dVertex
 10
-14050.462748304384
 20
-6347.004305966814
 30
0.0
  0
VERTEX
  5
304
100
AcDbEntity
  8
Frei
  6
CONTINUOUS
 62
           7
100
AcDbVertex
100
AcDb2dVertex
 10
-14050.573936502067
 20
-6347.400464453892
 30
0.0
 42
0.040993490695
  0
VERTEX
  5
305
100
AcDbEntity
  8
Frei
  6
CONTINUOUS
 62
           7
100
AcDbVertex
100
AcDb2dVertex
 10
-14050.697487102589
 20
-6348.216262870771
 30
0.0
  0
VERTEX
  5
306
100
AcDbEntity
  8
Frei
  6
CONTINUOUS
 62
           7
100
AcDbVertex
100
AcDb2dVertex
 10
-14050.70874841632
 20
-6348.629007733881
 30
0.0
  0
VERTEX
  5
307
100
AcDbEntity
  8
Frei
  6
CONTINUOUS
 62
           7
100
AcDbVertex
100
AcDb2dVertex
 10
-14050.686141744929
 20
-6349.041285955739
 30
0.0
 42
0.041278481646
  0
VERTEX
  5
308
100
AcDbEntity
  8
Frei
  6
CONTINUOUS
 62
           7
100
AcDbVertex
100
AcDb2dVertex
 10
-14050.540245152057
 20
-6349.850465799841
 30
0.0
  0
VERTEX
  5
309
100
AcDbEntity
  8
Frei
  6
CONTINUOUS
 62
           7
100
AcDbVertex
100
AcDb2dVertex
 10
-14050.418337096493
 20
-6350.240623485041
 30
0.0
  0
VERTEX
  5
30A
100
AcDbEntity
  8
Frei
  6
CONTINUOUS
 62
           7
100
AcDbVertex
100
AcDb2dVertex
 10
-14050.264230318113
 20
-6350.619215882977
 30
0.0
 42
0.042584509173
  0
VERTEX
  5
30B
100
AcDbEntity
  8
Frei
  6
CONTINUOUS
 62
           7
100
AcDbVertex
100
AcDb2dVertex
 10
-14049.866483814156
 20
-6351.32417812288
 30
0.0
  0
VERTEX
  5
30C
100
AcDbEntity
  8
Frei
  6
CONTINUOUS
 62
           7
100
AcDbVertex
100
AcDb2dVertex
 10
-14049.626280778328
 20
-6351.645106537438
 30
0.0
  0
VERTEX
  5
30D
100
AcDbEntity
  8
Frei
  6
CONTINUOUS
 62
           7
100
AcDbVertex
100
AcDb2dVertex
 10
-14049.359090966438
 20
-6351.943932598616
 30
0.0
 42
0.044417198743
  0
VERTEX
  5
30E
100
AcDbEntity
  8
Frei
  6
CONTINUOUS
 62
           7
100
AcDbVertex
100
AcDb2dVertex
 10
-14048.757468649888
 20
-6352.459648384053
 30
0.0
  0
VERTEX
  5
30F
100
AcDbEntity
  8
Frei
  6
CONTINUOUS
 62
           7
100
AcDbVertex
100
AcDb2dVertex
 10
-14048.42765993419
 20
-6352.673017742437
 30
0.0
  0
VERTEX
  5
310
100
AcDbEntity
  8
Frei
  6
CONTINUOUS
 62
           7
100
AcDbVertex
100
AcDb2dVertex
 10
-14048.079896854157
 20
-6352.855655716013
 30
0.0
 42
0.045929593742
  0
VERTEX
  5
311
100
AcDbEntity
  8
Frei
  6
CONTINUOUS
 62
           7
100
AcDbVertex
100
AcDb2dVertex
 10
-14047.34696325539
 20
-6353.119922112107
 30
0.0
  0
VERTEX
  5
312
100
AcDbEntity
  8
Frei
  6
CONTINUOUS
 62
           7
100
AcDbVertex
100
AcDb2dVertex
 10
-14046.966836179137
 20
-6353.199930311356
 30
0.0
  0
VERTEX
  5
313
100
AcDbEntity
  8
Frei
  6
CONTINUOUS
 62
           7
100
AcDbVertex
100
AcDb2dVertex
 10
-14046.580937670107
 20
-6353.244417971612
 30
0.0
 42
0.046286845788
  0
VERTEX
  5
314
100
AcDbEntity
  8
Frei
  6
CONTINUOUS
 62
           7
100
AcDbVertex
100
AcDb2dVertex
 10
-14045.805095398078
 20
-6353.225360550839
 30
0.0
  0
VERTEX
  5
315
100
AcDbEntity
  8
Frei
  6
CONTINUOUS
 62
           7
100
AcDbVertex
100
AcDb2dVertex
 10
-14045.420327032705
 20
-6353.161877204585
 30
0.0
  0
VERTEX
  5
316
100
AcDbEntity
  8
Frei
  6
CONTINUOUS
 62
           7
100
AcDbVertex
100
AcDb2dVertex
 10
-14045.043010014157
 20
-6353.063328899866
 30
0.0
 42
0.045273723548
  0
VERTEX
  5
317
100
AcDbEntity
  8
Frei
  6
CONTINUOUS
 62
           7
100
AcDbVertex
100
AcDb2dVertex
 10
-14044.317837097089
 20
-6352.763246268424
 30
0.0
  0
VERTEX
  5
318
100
AcDbEntity
  8
Frei
  6
CONTINUOUS
 62
           7
100
AcDbVertex
100
AcDb2dVertex
 10
-14043.975182998849
 20
-6352.563560618321
 30
0.0
  0
VERTEX
  5
319
100
AcDbEntity
  8
Frei
  6
CONTINUOUS
 62
           7
100
AcDbVertex
100
AcDb2dVertex
 10
-14043.651610659013
 20
-6352.334230515416
 30
0.0
 42
0.04348253534
  0
VERTEX
  5
31A
100
AcDbEntity
  8
Frei
  6
CONTINUOUS
 62
           7
100
AcDbVertex
100
AcDb2dVertex
 10
-14043.064573653119
 20
-6351.789317067408
 30
0.0
  0
VERTEX
  5
31B
100
AcDbEntity
  8
Frei
  6
CONTINUOUS
 62
           7
100
AcDbVertex
100
AcDb2dVertex
 10
-14042.805831473124
 20
-6351.477641486533
 30
0.0
  0
VERTEX
  5
31C
100
AcDbEntity
  8
Frei
  6
CONTINUOUS
 62
           7
100
AcDbVertex
100
AcDb2dVertex
 10
-14042.57456290178
 20
-6351.145062843779
 30
0.0
 42
0.041825507476
  0
VERTEX
  5
31D
100
AcDbEntity
  8
Frei
  6
CONTINUOUS
 62
           7
100
AcDbVertex
100
AcDb2dVertex
 10
-14042.196467133712
 20
-6350.421043183099
 30
0.0
  0
VERTEX
  5
31E
100
AcDbEntity
  8
Frei
  6
CONTINUOUS
 62
           7
100
AcDbVertex
100
AcDb2dVertex
 10
-14042.052962795191
 20
-6350.035415543468
 30
0.0
  0
VERTEX
  5
31F
100
AcDbEntity
  8
Frei
  6
CONTINUOUS
 62
           7
100
AcDbVertex
100
AcDb2dVertex
 10
-14041.941774597504
 20
-6349.639257056392
 30
0.0
 42
0.040993490695
  0
VERTEX
  5
320
100
AcDbEntity
  8
Frei
  6
CONTINUOUS
 62
           7
100
AcDbVertex
100
AcDb2dVertex
 10
-14041.818223996986
 20
-6348.823458639513
 30
0.0
  0
VERTEX
  5
321
100
AcDbEntity
  8
Frei
  6
CONTINUOUS
 62
           7
100
AcDbVertex
100
AcDb2dVertex
 10
-14041.806962683255
 20
-6348.410713776401
 30
0.0
  0
VERTEX
  5
322
100
AcDbEntity
  8
Frei
  6
CONTINUOUS
 62
           7
100
AcDbVertex
100
AcDb2dVertex
 10
-14041.829569354642
 20
-6347.998435554543
 30
0.0
 42
0.041278481646
  0
VERTEX
  5
323
100
AcDbEntity
  8
Frei
  6
CONTINUOUS
 62
           7
100
AcDbVertex
100
AcDb2dVertex
 10
-14041.975465947518
 20
-6347.189255710441
 30
0.0
  0
VERTEX
  5
324
100
AcDbEntity
  8
Frei
  6
CONTINUOUS
 62
           7
100
AcDbVertex
100
AcDb2dVertex
 10
-14042.097374003075
 20
-6346.799098025243
 30
0.0
  0
VERTEX
  5
325
100
AcDbEntity
  8
Frei
  6
CONTINUOUS
 62
           7
100
AcDbVertex
100
AcDb2dVertex
 10
-14042.251480781462
 20
-6346.420505627307
 30
0.0
 42
0.042584509173
  0
VERTEX
  5
326
100
AcDbEntity
  8
Frei
  6
CONTINUOUS
 62
           7
100
AcDbVertex
100
AcDb2dVertex
 10
-14042.649227285416
 20
-6345.715543387404
 30
0.0
  0
VERTEX
  5
327
100
AcDbEntity
  8
Frei
  6
CONTINUOUS
 62
           7
100
AcDbVertex
100
AcDb2dVertex
 10
-14042.889430321244
 20
-6345.394614972843
 30
0.0
  0
VERTEX
  5
328
100
AcDbEntity
  8
Frei
  6
CONTINUOUS
 62
           7
100
AcDbVertex
100
AcDb2dVertex
 10
-14043.156620133137
 20
-6345.095788911666
 30
0.0
 42
0.044417198743
  0
VERTEX
  5
329
100
AcDbEntity
  8
Frei
  6
CONTINUOUS
 62
           7
100
AcDbVertex
100
AcDb2dVertex
 10
-14043.75824244968
 20
-6344.580073126229
 30
0.0
  0
VERTEX
  5
32A
100
AcDbEntity
  8
Frei
  6
CONTINUOUS
 62
           7
100
AcDbVertex
100
AcDb2dVertex
 10
-14044.088051165381
 20
-6344.366703767847
 30
0.0
  0
VERTEX
  5
32B
100
AcDbEntity
  8
Frei
  6
CONTINUOUS
 62
           7
100
AcDbVertex
100
AcDb2dVertex
 10
-14044.435814245415
 20
-6344.184065794269
 30
0.0
 42
0.045929593741
  0
VERTEX
  5
32C
100
AcDbEntity
  8
Frei
  6
CONTINUOUS
 62
           7
100
AcDbVertex
100
AcDb2dVertex
 10
-14045.168747844185
 20
-6343.919799398177
 30
0.0
  0
VERTEX
  5
32D
100
AcDbEntity
  8
Frei
  6
CONTINUOUS
 62
           7
100
AcDbVertex
100
AcDb2dVertex
 10
-14045.548874920434
 20
-6343.839791198928
 30
0.0
  0
VERTEX
  5
32E
100
AcDbEntity
  8
Frei
  6
CONTINUOUS
 62
           7
100
AcDbVertex
100
AcDb2dVertex
 10
-14045.934773429468
 20
-6343.79530353867
 30
0.0
  0
SEQEND
  5
32F
100
AcDbEntity
  8
Frei
  6
CONTINUOUS
 62
           7
  0
ARC
  5
330
100
AcDbEntity
  8
Frei
  6
CONTINUOUS
 62
           7
100
AcDbCircle
 10
-13912.257297067554
 20
-6362.437489233023
 30
0.0
 40
0.5
100
AcDbArc
 50
273.237821982568
 51
356.087999999999
  0
ARC
  5
331
100
AcDbEntity
  8
Frei
  6
CONTINUOUS
 62
           7
100
AcDbCircle
 10
-13911.908152482036
 20
-6357.331810313101
 30
0.0
 40
0.5
100
AcDbArc
 50
356.087999999999
 51
78.938178017423
  0
ARC
  5
332
100
AcDbEntity
  8
Frei
  6
CONTINUOUS
 62
           7
100
AcDbCircle
 10
-14066.514597350422
 20
-6324.707889194976
 30
0.0
 40
0.5
100
AcDbArc
 50
93.237821982565
 51
176.088
  0
ARC
  5
333
100
AcDbEntity
  8
Frei
  6
CONTINUOUS
 62
           7
100
AcDbCircle
 10
-14066.863741935944
 20
-6329.813568114895
 30
0.0
 40
0.5
100
AcDbArc
 50
176.088
 51
258.938178017419
  0
ARC
  5
334
100
AcDbEntity
  8
Frei
  6
CONTINUOUS
 62
           7
100
AcDbCircle
 10
-14096.731780569487
 20
-6326.653759881189
 30
0.0
 40
2.0
100
AcDbArc
 50
88.088
 51
176.088
  0
ARC
  5
335
100
AcDbEntity
  8
Frei
  6
CONTINUOUS
 62
           7
100
AcDbCircle
 10
-14112.562305588639
 20
-6382.259214469284
 30
0.0
 40
1.5
100
AcDbArc
 50
176.088
 51
266.088
  0
ARC
  5
336
100
AcDbEntity
  8
Frei
  6
CONTINUOUS
 62
           7
100
AcDbCircle
 10
-14111.538941933461
 20
-6367.294164291311
 30
0.0
 40
1.5
100
AcDbArc
 50
86.088
 51
176.088
  0
ARC
  5
337
100
AcDbEntity
  8
Frei
  6
CONTINUOUS
 62
           7
100
AcDbCircle
 10
-14100.453816958907
 20
-6381.082565369697
 30
0.0
 40
1.5
100
AcDbArc
 50
176.088
 51
266.088
  0
ARC
  5
338
100
AcDbEntity
  8
Frei
  6
CONTINUOUS
 62
           7
100
AcDbCircle
 10
-14075.512066662282
 20
-6382.788171461664
 30
0.0
 40
1.5
100
AcDbArc
 50
266.088
 51
356.087999999999
  0
ARC
  5
339
100
AcDbEntity
  8
Frei
  6
CONTINUOUS
 62
           7
100
AcDbCircle
 10
-13909.898844692711
 20
-6394.113395912332
 30
0.0
 40
1.5
100
AcDbArc
 50
176.088
 51
266.088
  0
ARC
  5
33A
100
AcDbEntity
  8
Frei
  6
CONTINUOUS
 62
           7
100
AcDbCircle
 10
-13884.95709439609
 20
-6395.819002004299
 30
0.0
 40
1.5
100
AcDbArc
 50
266.088
 51
356.087999999999
  0
ARC
  5
33B
100
AcDbEntity
  8
Frei
  6
CONTINUOUS
 62
           7
100
AcDbCircle
 10
-13872.098139085891
 20
-6383.667982774202
 30
0.0
 40
1.5
100
AcDbArc
 50
356.087999999999
 51
86.088
  0
ARC
  5
33C
100
AcDbEntity
  8
Frei
  6
CONTINUOUS
 62
           7
100
AcDbCircle
 10
-13873.121502741069
 20
-6398.633032952174
 30
0.0
 40
1.5
100
AcDbArc
 50
266.088
 51
356.087999999999
  0
ARC
  5
33D
100
AcDbEntity
  8
Frei
  6
CONTINUOUS
 62
           7
100
AcDbCircle
 10
-13881.235058006674
 20
-6341.39019651579
 30
0.0
 40
2.0
100
AcDbArc
 50
356.087999999999
 51
84.088
  0
ARC
  5
33E
100
AcDbEntity
  8
Frei
  6
CONTINUOUS
 62
           7
100
AcDbCircle
 10
-13910.260793003541
 20
-6333.447351097952
 30
0.0
 40
1.0
100
AcDbArc
 50
356.087999999999
 51
86.088
  0
ARC
  5
33F
100
AcDbEntity
  8
Frei
  6
CONTINUOUS
 62
           7
100
AcDbCircle
 10
-13912.375744557583
 20
-6364.375121465763
 30
0.0
 40
1.0
100
AcDbArc
 50
266.087999999999
 51
356.087999999999
  0
ARC
  5
340
100
AcDbEntity
  8
Frei
  6
CONTINUOUS
 62
           7
100
AcDbCircle
 10
-14069.009936420371
 20
-6353.663915208205
 30
0.0
 40
1.0
100
AcDbArc
 50
176.088
 51
266.088
  0
ARC
  5
341
100
AcDbEntity
  8
Frei
  6
CONTINUOUS
 62
           7
100
AcDbCircle
 10
-14066.894984866332
 20
-6322.736144840396
 30
0.0
 40
1.0
100
AcDbArc
 50
86.088
 51
176.088
  0
LINE
  5
342
100
AcDbEntity
  8
Frei
  6
CONTINUOUS
 62
           7
100
AcDbLine
 10
-14322.30437927051
 20
-6306.646670000881
 30
0.0
 11
-14322.30437927051
 21
-6376.646670000883
 31
0.0
  0
LINE
  5
343
100
AcDbEntity
  8
Frei
  6
CONTINUOUS
 62
           7
100
AcDbLine
 10
-13804.415493270513
 20
-6376.646670000883
 30
0.0
 11
-13804.415493270513
 21
-6306.646670000883
 31
0.0
  0
LINE
  5
344
100
AcDbEntity
  8
Frei
  6
CONTINUOUS
 62
          15
100
AcDbLine
 10
-14131.234179001858
 20
-6306.646670000883
 30
0.0
 11
-14322.30437927051
 21
-6306.646670000881
 31
0.0
  0
LINE
  5
345
100
AcDbEntity
  8
Frei
  6
GESTRICHELT
 62
          15
100
AcDbLine
 10
-14094.043026788826
 20
-6306.646670000881
 30
0.0
 11
-14131.234179001858
 21
-6306.646670000883
 31
0.0
  0
LINE
  5
346
100
AcDbEntity
  8
Frei
  6
CONTINUOUS
 62
          15
100
AcDbLine
 10
-13804.415432270511
 20
-6306.646670000883
 30
0.0
 11
-14094.043026788826
 21
-6306.646670000881
 31
0.0
  0
LINE
  5
347
100
AcDbEntity
  8
Frei
  6
CONTINUOUS
 62
          15
100
AcDbLine
 10
-14123.70535716513
 20
-6376.646670000881
 30
0.0
 11
-14322.30437927051
 21
-6376.646670000883
 31
0.0
  0
LINE
  5
348
100
AcDbEntity
  8
Frei
  6
GESTRICHELT
 62
          15
100
AcDbLine
 10
-14073.58858568221
 20
-6376.646670000883
 30
0.0
 11
-14123.70535716513
 21
-6376.646670000881
 31
0.0
  0
LINE
  5
349
100
AcDbEntity
  8
Frei
  6
CONTINUOUS
 62
          15
100
AcDbLine
 10
-13910.20791064787
 20
-6376.646670000883
 30
0.0
 11
-14073.58858568221
 21
-6376.646670000883
 31
0.0
  0
LINE
  5
34A
100
AcDbEntity
  8
Frei
  6
GESTRICHELT
 62
          15
100
AcDbLine
 10
-13882.142518617431
 20
-6376.646670000883
 30
0.0
 11
-13910.20791064787
 21
-6376.646670000883
 31
0.0
  0
LINE
  5
34B
100
AcDbEntity
  8
Frei
  6
CONTINUOUS
 62
          15
100
AcDbLine
 10
-13854.579048595886
 20
-6376.646670000883
 30
0.0
 11
-13882.142518617431
 21
-6376.646670000883
 31
0.0
  0
LINE
  5
34C
100
AcDbEntity
  8
Frei
  6
GESTRICHELT
 62
          15
100
AcDbLine
 10
-13847.775466966163
 20
-6376.646670000883
 30
0.0
 11
-13854.579048595886
 21
-6376.646670000883
 31
0.0
  0
LINE
  5
34D
100
AcDbEntity
  8
Frei
  6
CONTINUOUS
 62
          15
100
AcDbLine
 10
-13804.415432270514
 20
-6376.646670000883
 30
0.0
 11
-13847.775466966163
 21
-6376.646670000883
 31
0.0
  0
TEXT
  5
34E
100
AcDbEntity
  8
FREI
  6
CONTINUOUS
 62
          15
100
AcDbText
 10
-14379.569869526793
 20
-6421.244458070634
 30
0.0
 40
3.527777671814
  1
100-701
 41
0.899999979725
  7
GOTHICG
100
AcDbText
  0
ENDSEC
  0
SECTION
  2
OBJECTS
  0
DICTIONARY
  5
19
100
AcDbDictionary
  3
ACAD_GROUP
350
1A
  3
ACAD_MLINESTYLE
350
1B
  0
DICTIONARY
  5
1A
102
{ACAD_REACTORS
330
19
102
}
100
AcDbDictionary
  0
DICTIONARY
  5
1B
102
{ACAD_REACTORS
330
19
102
}
100
AcDbDictionary
  3
STANDARD
350
1C
  0
MLINESTYLE
  5
1C
102
{ACAD_REACTORS
330
1B
102
}
100
AcDbMlineStyle
  2
STANDARD
 70
           0
  3

 62
           0
 51
90.0
 52
90.0
 71
           2
 49
0.5
 62
         256
  6
BYLAYER
 49
-0.5
 62
         256
  6
BYLAYER
  0
ENDSEC
  0
EOF
