  0
SECTION
  2
HEADER
  9
$ACADVER
  1
AC1012
  9
$DWGCODEPAGE
  3
dos850
  9
$INSBASE
 10
0.0
 20
0.0
 30
0.0
  9
$EXTMIN
 10
-14406.220054831558
 20
-7017.653461711031
 30
0.0
  9
$EXTMAX
 10
-13787.666131277816
 20
-6742.319496903035
 30
0.0
  9
$LIMMIN
 10
-14406.220054831558
 20
-7017.653461711031
  9
$LIMMAX
 10
-13787.666131277816
 20
-6742.319496903035
  9
$ORTHOMODE
 70
           0
  9
$REGENMODE
 70
           1
  9
$FILLMODE
 70
           1
  9
$QTEXTMODE
 70
           0
  9
$MIRRTEXT
 70
           1
  9
$DRAGMODE
 70
           2
  9
$LTSCALE
 40
5.0
  9
$OSMODE
 70
           0
  9
$ATTMODE
 70
           1
  9
$TEXTSIZE
 40
0.2
  9
$TRACEWID
 40
0.05
  9
$TEXTSTYLE
  7
TXT
  9
$CLAYER
  8
0
  9
$CELTYPE
  6
CONTINUOUS
  9
$CECOLOR
 62
         256
  9
$CELTSCALE
 40
1.0
  9
$DELOBJ
 70
           1
  9
$DISPSILH
 70
           0
  9
$DIMSCALE
 40
1.0
  9
$DIMASZ
 40
3.5
  9
$DIMEXO
 40
0.0625
  9
$DIMDLI
 40
0.38
  9
$DIMRND
 40
0.0
  9
$DIMDLE
 40
0.0
  9
$DIMEXE
 40
0.18
  9
$DIMTP
 40
0.0
  9
$DIMTM
 40
0.0
  9
$DIMTXT
 40
3.5
  9
$DIMCEN
 40
0.09
  9
$DIMTSZ
 40
0.0
  9
$DIMTOL
 70
           0
  9
$DIMLIM
 70
           0
  9
$DIMTIH
 70
           1
  9
$DIMTOH
 70
           1
  9
$DIMSE1
 70
           0
  9
$DIMSE2
 70
           0
  9
$DIMTAD
 70
           0
  9
$DIMZIN
 70
           0
  9
$DIMBLK
  1

  9
$DIMASO
 70
           1
  9
$DIMSHO
 70
           1
  9
$DIMPOST
  1

  9
$DIMAPOST
  1

  9
$DIMALT
 70
           0
  9
$DIMALTD
 70
           2
  9
$DIMALTF
 40
25.4
  9
$DIMLFAC
 40
1.0
  9
$DIMTOFL
 70
           0
  9
$DIMTVP
 40
0.0
  9
$DIMTIX
 70
           0
  9
$DIMSOXD
 70
           0
  9
$DIMSAH
 70
           0
  9
$DIMBLK1
  1

  9
$DIMBLK2
  1

  9
$DIMSTYLE
  2
STANDARD
  9
$DIMCLRD
 70
           0
  9
$DIMCLRE
 70
           0
  9
$DIMCLRT
 70
           0
  9
$DIMTFAC
 40
1.0
  9
$DIMGAP
 40
0.09
  9
$DIMJUST
 70
           0
  9
$DIMSD1
 70
           0
  9
$DIMSD2
 70
           0
  9
$DIMTOLJ
 70
           1
  9
$DIMTZIN
 70
           0
  9
$DIMALTZ
 70
           0
  9
$DIMALTTZ
 70
           0
  9
$DIMFIT
 70
           3
  9
$DIMUPT
 70
           0
  9
$DIMUNIT
 70
           2
  9
$DIMDEC
 70
           4
  9
$DIMTDEC
 70
           4
  9
$DIMALTU
 70
           2
  9
$DIMALTTD
 70
           2
  9
$DIMTXSTY
  7
TXT
  9
$DIMAUNIT
 70
           0
  9
$LUNITS
 70
           2
  9
$LUPREC
 70
           3
  9
$SKETCHINC
 40
0.1
  9
$FILLETRAD
 40
0.0
  9
$AUNITS
 70
           0
  9
$AUPREC
 70
           3
  9
$MENU
  1
acad
  9
$ELEVATION
 40
0.0
  9
$PELEVATION
 40
0.0
  9
$THICKNESS
 40
0.0
  9
$LIMCHECK
 70
           0
  9
$BLIPMODE
 70
           1
  9
$CHAMFERA
 40
0.0
  9
$CHAMFERB
 40
0.0
  9
$CHAMFERC
 40
0.0
  9
$CHAMFERD
 40
0.0
  9
$SKPOLY
 70
           0
  9
$TDCREATE
 40
0.000000000
  9
$TDUPDATE
 40
0.000000000
  9
$TDINDWG
 40
0.0000000000
  9
$TDUSRTIMER
 40
0.0000000000
  9
$USRTIMER
 70
           1
  9
$ANGBASE
 50
0.0
  9
$ANGDIR
 70
           0
  9
$PDMODE
 70
           2
  9
$PDSIZE
 40
0.5
  9
$PLINEWID
 40
0.0
  9
$COORDS
 70
           0
  9
$SPLFRAME
 70
           0
  9
$SPLINETYPE
 70
           6
  9
$SPLINESEGS
 70
           8
  9
$ATTDIA
 70
           0
  9
$ATTREQ
 70
           1
  9
$HANDLING
 70
           1
  9
$HANDSEED
  5
3AB
  9
$SURFTAB1
 70
           6
  9
$SURFTAB2
 70
           6
  9
$SURFTYPE
 70
           6
  9
$SURFU
 70
           6
  9
$SURFV
 70
           6
  9
$UCSNAME
  2

  9
$UCSORG
 10
0.0
 20
0.0
 30
0.0
  9
$UCSXDIR
 10
1.0
 20
0.0
 30
0.0
  9
$UCSYDIR
 10
0.0
 20
1.0
 30
0.0
  9
$PUCSNAME
  2

  9
$PUCSORG
 10
0.0
 20
0.0
 30
0.0
  9
$PUCSXDIR
 10
1.0
 20
0.0
 30
0.0
  9
$PUCSYDIR
 10
0.0
 20
1.0
 30
0.0
  9
$USERI1
 70
           0
  9
$USERI2
 70
           0
  9
$USERI3
 70
           0
  9
$USERI4
 70
           0
  9
$USERI5
 70
           0
  9
$USERR1
 40
0.0
  9
$USERR2
 40
0.0
  9
$USERR3
 40
0.0
  9
$USERR4
 40
0.0
  9
$USERR5
 40
0.0
  9
$WORLDVIEW
 70
           1
  9
$SHADEDGE
 70
           3
  9
$SHADEDIF
 70
          70
  9
$TILEMODE
 70
           1
  9
$MAXACTVP
 70
          16
  9
$PINSBASE
 10
0.0
 20
0.0
 30
0.0
  9
$PLIMCHECK
 70
           0
  9
$PEXTMIN
 10
1.000000000000E+20
 20
1.000000000000E+20
 30
1.000000000000E+20
  9
$PEXTMAX
 10
-1.000000000000E+20
 20
-1.000000000000E+20
 30
-1.000000000000E+20
  9
$PLIMMIN
 10
0.0
 20
0.0
  9
$PLIMMAX
 10
12.0
 20
9.0
  9
$UNITMODE
 70
           0
  9
$VISRETAIN
 70
           0
  9
$PLINEGEN
 70
           1
  9
$PSLTSCALE
 70
           0
  9
$TREEDEPTH
 70
        3020
  9
$PICKSTYLE
 70
           1
  9
$CMLSTYLE
  2
STANDARD
  9
$CMLJUST
 70
           0
  9
$CMLSCALE
 40
1.0
  9
$SAVEIMAGES
 70
           0
  0
ENDSEC
  0
SECTION
  2
CLASSES
  0
CLASS
  1
LWPOLYLINE
  2
AcDbPolyline
  3
"AutoCAD"
 90
        0
280
           0
281
           1
  0
CLASS
  1
IMAGE
  2
AcDbRasterImage
  3
ISM
 90
      127
280
           0
281
           1
  0
CLASS
  1
OLE2FRAME
  2
AcDbOle2Frame
  3
""
 90
        0
280
           0
281
           1
  0
CLASS
  1
HATCH
  2
AcDbHatch
  3
"ACAD_SEDONA"
 90
        0
280
           0
281
           1
  0
CLASS
  1
DICTIONARYVAR
  2
AcDbDictionaryVar
  3
"AutoCAD"
 90
        0
280
           0
281
           0
  0
CLASS
  1
RASTERVARIABLES
  2
AcDbRasterVariables
  3
ISM
 90
        0
280
           0
281
           0
  0
CLASS
  1
IMAGEDEF
  2
AcDbRasterImageDef
  3
ISM
 90
        0
280
           0
281
           0
  0
CLASS
  1
IMAGEDEF_REACTOR
  2
AcDbRasterImageDefReactor
  3
ISM
 90
        1
280
           0
281
           0
  0
CLASS
  1
IDBUFFER
  2
AcDbIdBuffer
  3
"Acad"
 90
        0
280
           0
281
           0
  0
CLASS
  1
SPATIAL_FILTER
  2
AcDbSpatialFilter
  3
"Acad"
 90
        0
280
           0
281
           0
  0
CLASS
  1
XRECORD
  2
AcDbXrecord
  3
"<Built In>"
 90
        0
280
           0
281
           0
  0
ENDSEC
  0
SECTION
  2
TABLES
  0
TABLE
  2
VPORT
  5
7
100
AcDbSymbolTable
 70
           1
  0
VPORT
  5
15
100
AcDbSymbolTableRecord
100
AcDbViewportTableRecord
  2
*ACTIVE
 70
           0
 10
0.0
 20
0.0
 11
1.0
 21
1.0
 12
6.591288
 22
4.579184
 13
0.0
 23
0.0
 14
1.0
 24
1.0
 15
0.0
 25
0.0
 16
0.0
 26
0.0
 36
1.0
 17
0.0
 27
0.0
 37
0.0
 40
9.158369
 41
0.688564
 42
50.0
 43
0.0
 44
0.0
 50
0.0
 51
0.0
 71
           0
 72
         100
 73
           1
 74
           1
 75
           0
 76
           0
 77
           0
 78
           0
  0
ENDTAB
  0
TABLE
  2
LTYPE
  5
4
100
AcDbSymbolTable
 70
           5
  0
LTYPE
  5
11
100
AcDbSymbolTableRecord
100
AcDbLinetypeTableRecord
  2
BYBLOCK
 70
           0
  3

 72
          65
 73
           0
 40
0.0
  0
LTYPE
  5
12
100
AcDbSymbolTableRecord
100
AcDbLinetypeTableRecord
  2
BYLAYER
 70
           0
  3

 72
          65
 73
           0
 40
0.0
  0
LTYPE
  5
13
100
AcDbSymbolTableRecord
100
AcDbLinetypeTableRecord
  2
CONTINUOUS
 70
           0
  3
Solid line
 72
          65
 73
           0
 40
0.0
  0
LTYPE
  5
1D
100
AcDbSymbolTableRecord
100
AcDbLinetypeTableRecord
  2
GESTRICHELT
 70
           0
  3

 72
          65
 73
           2
 40
0.75
 49
0.5
 74
           0
 49
-0.25
 74
           0
  0
LTYPE
  5
1E
100
AcDbSymbolTableRecord
100
AcDbLinetypeTableRecord
  2
STRICHPUNKT
 70
           0
  3

 72
          65
 73
           4
 40
1.0
 49
0.5
 74
           0
 49
-0.25
 74
           0
 49
0.0
 74
           0
 49
-0.25
 74
           0
  0
ENDTAB
  0
TABLE
  2
LAYER
  5
2
100
AcDbSymbolTable
 70
           3
  0
LAYER
  5
14
100
AcDbSymbolTableRecord
100
AcDbLayerTableRecord
  2
0
 70
           0
 62
           7
  6
CONTINUOUS
  0
LAYER
  5
20
100
AcDbSymbolTableRecord
100
AcDbLayerTableRecord
  2
FREI
 70
           0
 62
           7
  6
CONTINUOUS
  0
LAYER
  5
21
100
AcDbSymbolTableRecord
100
AcDbLayerTableRecord
  2
Frei
 70
           0
 62
           7
  6
CONTINUOUS
  0
ENDTAB
  0
TABLE
  2
STYLE
  5
3
100
AcDbSymbolTable
 70
           2
  0
STYLE
  5
17
100
AcDbSymbolTableRecord
100
AcDbTextStyleTableRecord
  2
TXT
 70
           0
 40
3.5
 41
1.0
 50
0.0
 71
           0
 42
3.5
  3
TXT
  4

  0
STYLE
  5
1F
100
AcDbSymbolTableRecord
100
AcDbTextStyleTableRecord
  2
GOTHICG
 70
           0
 40
3.5
 41
1.0
 50
0.0
 71
           0
 42
3.5
  3
GOTHICG
  4

  0
ENDTAB
  0
TABLE
  2
VIEW
  5
5
100
AcDbSymbolTable
 70
           0
  0
ENDTAB
  0
TABLE
  2
UCS
  5
6
100
AcDbSymbolTable
 70
           0
  0
ENDTAB
  0
TABLE
  2
APPID
  5
8
100
AcDbSymbolTable
 70
           2
  0
APPID
  5
16
100
AcDbSymbolTableRecord
100
AcDbRegAppTableRecord
  2
ACAD
 70
           0
  0
APPID
  5
22
100
AcDbSymbolTableRecord
100
AcDbRegAppTableRecord
  2
MegaCADPntStyle
 70
           0
  0
ENDTAB
  0
TABLE
  2
DIMSTYLE
  5
9
100
AcDbSymbolTable
 70
           1
  0
DIMSTYLE
105
18
100
AcDbSymbolTableRecord
100
AcDbDimStyleTableRecord
  2
STANDARD
 70
           0
  3

  4

  5

  6

  7

 40
1.0
 41
0.18
 42
0.0625
 43
0.38
 44
0.18
 45
0.0
 46
0.0
 47
0.0
 48
0.0
140
0.18
141
0.09
142
0.0
143
25.4
144
1.0
145
0.0
146
1.0
147
0.09
 71
           0
 72
           0
 73
           1
 74
           1
 75
           0
 76
           0
 77
           0
 78
           0
170
           0
171
           2
172
           0
173
           0
174
           0
175
           0
176
           0
177
           0
178
           0
270
           2
271
           4
272
           4
273
           2
274
           2
340
17
275
           0
280
           0
281
           0
282
           0
283
           1
284
           0
285
           0
286
           0
287
           0
288
           0
  0
ENDTAB
  0
TABLE
  2
BLOCK_RECORD
  5
1
100
AcDbSymbolTable
 70
           3
  0
BLOCK_RECORD
  5
A
100
AcDbSymbolTableRecord
100
AcDbBlockTableRecord
  2
*MODEL_SPACE
  0
BLOCK_RECORD
  5
B
100
AcDbSymbolTableRecord
100
AcDbBlockTableRecord
  2
*PAPER_SPACE
  0
BLOCK_RECORD
  5
23
100
AcDbSymbolTableRecord
100
AcDbBlockTableRecord
  2
ELIPPSE
  0
BLOCK_RECORD
  5
24
100
AcDbSymbolTableRecord
100
AcDbBlockTableRecord
  2
MAK1
  0
BLOCK_RECORD
  5
25
100
AcDbSymbolTableRecord
100
AcDbBlockTableRecord
  2
MAK2
  0
ENDTAB
  0
ENDSEC
  0
SECTION
  2
BLOCKS
  0
BLOCK
  5
D
100
AcDbEntity
  8
0
100
AcDbBlockBegin
  2
*MODEL_SPACE
 70
           0
 10
0.0
 20
0.0
 30
0.0
  3
*MODEL_SPACE
  1

  0
ENDBLK
  5
E
100
AcDbEntity
  8
0
100
AcDbBlockEnd
  0
BLOCK
  5
F
100
AcDbEntity
 67
           1
  8
0
100
AcDbBlockBegin
  2
*PAPER_SPACE
 70
           0
 10
0.0
 20
0.0
 30
0.0
  3
*PAPER_SPACE
  1

  0
ENDBLK
  5
10
100
AcDbEntity
 67
           1
  8
0
100
AcDbBlockEnd
  0
BLOCK
  5
34F
100
AcDbEntity
  8
0
100
AcDbBlockBegin
  2
ELIPPSE
 70
          64
 10
0.0
 20
0.0
 30
0.0
  3
ELIPPSE
  1

  0
CIRCLE
  5
350
100
AcDbEntity
  8
0
  6
BYBLOCK
 62
           0
100
AcDbCircle
 10
0.0
 20
0.0
 30
0.0
 40
1.0
  0
ENDBLK
  5
351
100
AcDbEntity
  8
0
  6
BYBLOCK
 62
           0
100
AcDbBlockEnd
  0
BLOCK
  5
352
100
AcDbEntity
  8
0
100
AcDbBlockBegin
  2
MAK1
 70
          64
 10
0.0
 20
0.0
 30
0.0
  3
MAK1
  1

  0
LINE
  5
353
100
AcDbEntity
  8
Frei
  6
CONTINUOUS
 62
           2
100
AcDbLine
 10
191.903508353411
 20
615.10691689356
 30
0.0
 11
192.293358480829
 21
615.496767020979
 31
0.0
  0
LINE
  5
354
100
AcDbEntity
  8
Frei
  6
CONTINUOUS
 62
           2
100
AcDbLine
 10
191.903508353409
 20
614.04625672178
 30
0.0
 11
193.354018652608
 21
615.496767020979
 31
0.0
  0
LINE
  5
355
100
AcDbEntity
  8
Frei
  6
CONTINUOUS
 62
           2
100
AcDbLine
 10
191.903508353409
 20
612.98559655
 30
0.0
 11
193.903508353409
 21
614.985596550001
 31
0.0
  0
LINE
  5
356
100
AcDbEntity
  8
Frei
  6
CONTINUOUS
 62
           2
100
AcDbLine
 10
191.903508353411
 20
611.92493637822
 30
0.0
 11
193.903508353411
 21
613.92493637822
 31
0.0
  0
LINE
  5
357
100
AcDbEntity
  8
Frei
  6
CONTINUOUS
 62
           2
100
AcDbLine
 10
191.903508353411
 20
610.864276206442
 30
0.0
 11
193.903508353413
 21
612.864276206441
 31
0.0
  0
LINE
  5
358
100
AcDbEntity
  8
Frei
  6
CONTINUOUS
 62
           2
100
AcDbLine
 10
191.903508353409
 20
609.80361603466
 30
0.0
 11
193.903508353409
 21
611.803616034661
 31
0.0
  0
LINE
  5
359
100
AcDbEntity
  8
Frei
  6
CONTINUOUS
 62
           2
100
AcDbLine
 10
191.903508353409
 20
608.742955862881
 30
0.0
 11
193.903508353411
 21
610.742955862881
 31
0.0
  0
LINE
  5
35A
100
AcDbEntity
  8
Frei
  6
CONTINUOUS
 62
           2
100
AcDbLine
 10
191.903508353411
 20
607.682295691102
 30
0.0
 11
193.903508353411
 21
609.682295691102
 31
0.0
  0
LINE
  5
35B
100
AcDbEntity
  8
Frei
  6
CONTINUOUS
 62
           2
100
AcDbLine
 10
191.903508353411
 20
606.621635519322
 30
0.0
 11
193.903508353413
 21
608.621635519321
 31
0.0
  0
LINE
  5
35C
100
AcDbEntity
  8
Frei
  6
CONTINUOUS
 62
           2
100
AcDbLine
 10
191.903508353411
 20
605.560975347543
 30
0.0
 11
193.903508353409
 21
607.560975347543
 31
0.0
  0
LINE
  5
35D
100
AcDbEntity
  8
Frei
  6
CONTINUOUS
 62
           2
100
AcDbLine
 10
191.903508353411
 20
604.500315175761
 30
0.0
 11
193.903508353411
 21
606.500315175761
 31
0.0
  0
LINE
  5
35E
100
AcDbEntity
  8
Frei
  6
CONTINUOUS
 62
           2
100
AcDbLine
 10
191.903508353411
 20
603.439655003982
 30
0.0
 11
193.903508353411
 21
605.439655003983
 31
0.0
  0
LINE
  5
35F
100
AcDbEntity
  8
Frei
  6
CONTINUOUS
 62
           2
100
AcDbLine
 10
191.903508353411
 20
602.378994832203
 30
0.0
 11
193.903508353413
 21
604.378994832203
 31
0.0
  0
LINE
  5
360
100
AcDbEntity
  8
Frei
  6
CONTINUOUS
 62
           2
100
AcDbLine
 10
191.903508353411
 20
601.318334660423
 30
0.0
 11
193.903508353409
 21
603.318334660421
 31
0.0
  0
LINE
  5
361
100
AcDbEntity
  8
Frei
  6
CONTINUOUS
 62
           2
100
AcDbLine
 10
191.903508353411
 20
600.257674488643
 30
0.0
 11
193.903508353411
 21
602.257674488644
 31
0.0
  0
LINE
  5
362
100
AcDbEntity
  8
Frei
  6
CONTINUOUS
 62
           2
100
AcDbLine
 10
191.903508353411
 20
599.197014316863
 30
0.0
 11
193.903508353411
 21
601.197014316862
 31
0.0
  0
LINE
  5
363
100
AcDbEntity
  8
Frei
  6
CONTINUOUS
 62
           2
100
AcDbLine
 10
191.903508353411
 20
598.136354145083
 30
0.0
 11
193.903508353411
 21
600.136354145083
 31
0.0
  0
LINE
  5
364
100
AcDbEntity
  8
Frei
  6
CONTINUOUS
 62
           2
100
AcDbLine
 10
191.903508353411
 20
597.075693973303
 30
0.0
 11
193.903508353411
 21
599.075693973304
 31
0.0
  0
LINE
  5
365
100
AcDbEntity
  8
Frei
  6
CONTINUOUS
 62
           2
100
AcDbLine
 10
191.903508353411
 20
596.015033801524
 30
0.0
 11
193.903508353411
 21
598.015033801524
 31
0.0
  0
LINE
  5
366
100
AcDbEntity
  8
Frei
  6
CONTINUOUS
 62
           2
100
AcDbLine
 10
192.445901744644
 20
595.496767020978
 30
0.0
 11
193.903508353411
 21
596.954373629744
 31
0.0
  0
LINE
  5
367
100
AcDbEntity
  8
Frei
  6
CONTINUOUS
 62
           2
100
AcDbLine
 10
193.506561916423
 20
595.496767020979
 30
0.0
 11
193.903508353411
 21
595.893713457964
 31
0.0
  0
LINE
  5
368
100
AcDbEntity
  8
Frei
  6
CONTINUOUS
 62
           2
100
AcDbLine
 10
192.573740611429
 20
595.496767020978
 30
0.0
 11
191.903508353409
 21
596.166999278997
 31
0.0
  0
LINE
  5
369
100
AcDbEntity
  8
Frei
  6
CONTINUOUS
 62
           2
100
AcDbLine
 10
193.634400783207
 20
595.496767020978
 30
0.0
 11
191.903508353411
 21
597.227659450778
 31
0.0
  0
LINE
  5
36A
100
AcDbEntity
  8
Frei
  6
CONTINUOUS
 62
           2
100
AcDbLine
 10
193.903508353409
 20
596.288319622557
 30
0.0
 11
191.903508353409
 21
598.288319622556
 31
0.0
  0
LINE
  5
36B
100
AcDbEntity
  8
Frei
  6
CONTINUOUS
 62
           2
100
AcDbLine
 10
193.903508353413
 20
597.348979794337
 30
0.0
 11
191.903508353411
 21
599.348979794337
 31
0.0
  0
LINE
  5
36C
100
AcDbEntity
  8
Frei
  6
CONTINUOUS
 62
           2
100
AcDbLine
 10
193.903508353411
 20
598.409639966116
 30
0.0
 11
191.903508353411
 21
600.409639966117
 31
0.0
  0
LINE
  5
36D
100
AcDbEntity
  8
Frei
  6
CONTINUOUS
 62
           2
100
AcDbLine
 10
193.903508353411
 20
599.470300137895
 30
0.0
 11
191.903508353411
 21
601.470300137895
 31
0.0
  0
LINE
  5
36E
100
AcDbEntity
  8
Frei
  6
CONTINUOUS
 62
           2
100
AcDbLine
 10
193.903508353411
 20
600.530960309675
 30
0.0
 11
191.903508353409
 21
602.530960309675
 31
0.0
  0
LINE
  5
36F
100
AcDbEntity
  8
Frei
  6
CONTINUOUS
 62
           2
100
AcDbLine
 10
193.903508353413
 20
601.591620481455
 30
0.0
 11
191.903508353411
 21
603.591620481455
 31
0.0
  0
LINE
  5
370
100
AcDbEntity
  8
Frei
  6
CONTINUOUS
 62
           2
100
AcDbLine
 10
193.903508353411
 20
602.652280653235
 30
0.0
 11
191.903508353411
 21
604.652280653237
 31
0.0
  0
LINE
  5
371
100
AcDbEntity
  8
Frei
  6
CONTINUOUS
 62
           2
100
AcDbLine
 10
193.903508353409
 20
603.712940825015
 30
0.0
 11
191.903508353411
 21
605.712940825015
 31
0.0
  0
LINE
  5
372
100
AcDbEntity
  8
Frei
  6
CONTINUOUS
 62
           2
100
AcDbLine
 10
193.903508353411
 20
604.773600996795
 30
0.0
 11
191.903508353409
 21
606.773600996795
 31
0.0
  0
LINE
  5
373
100
AcDbEntity
  8
Frei
  6
CONTINUOUS
 62
           2
100
AcDbLine
 10
193.903508353411
 20
605.834261168574
 30
0.0
 11
191.903508353413
 21
607.834261168575
 31
0.0
  0
LINE
  5
374
100
AcDbEntity
  8
Frei
  6
CONTINUOUS
 62
           2
100
AcDbLine
 10
193.903508353411
 20
606.894921340353
 30
0.0
 11
191.903508353411
 21
608.894921340354
 31
0.0
  0
LINE
  5
375
100
AcDbEntity
  8
Frei
  6
CONTINUOUS
 62
           2
100
AcDbLine
 10
193.903508353409
 20
607.955581512135
 30
0.0
 11
191.903508353411
 21
609.955581512133
 31
0.0
  0
LINE
  5
376
100
AcDbEntity
  8
Frei
  6
CONTINUOUS
 62
           2
100
AcDbLine
 10
193.903508353411
 20
609.016241683912
 30
0.0
 11
191.903508353409
 21
611.016241683912
 31
0.0
  0
LINE
  5
377
100
AcDbEntity
  8
Frei
  6
CONTINUOUS
 62
           2
100
AcDbLine
 10
193.903508353411
 20
610.076901855694
 30
0.0
 11
191.903508353413
 21
612.076901855694
 31
0.0
  0
LINE
  5
378
100
AcDbEntity
  8
Frei
  6
CONTINUOUS
 62
           2
100
AcDbLine
 10
193.903508353411
 20
611.137562027473
 30
0.0
 11
191.903508353411
 21
613.137562027474
 31
0.0
  0
LINE
  5
379
100
AcDbEntity
  8
Frei
  6
CONTINUOUS
 62
           2
100
AcDbLine
 10
193.903508353411
 20
612.198222199252
 30
0.0
 11
191.903508353411
 21
614.198222199253
 31
0.0
  0
LINE
  5
37A
100
AcDbEntity
  8
Frei
  6
CONTINUOUS
 62
           2
100
AcDbLine
 10
193.903508353411
 20
613.258882371032
 30
0.0
 11
191.903508353409
 21
615.258882371032
 31
0.0
  0
LINE
  5
37B
100
AcDbEntity
  8
Frei
  6
CONTINUOUS
 62
           2
100
AcDbLine
 10
193.903508353411
 20
614.319542542812
 30
0.0
 11
192.726283875247
 21
615.496767020979
 31
0.0
  0
LINE
  5
37C
100
AcDbEntity
  8
Frei
  6
CONTINUOUS
 62
           2
100
AcDbLine
 10
193.903508353411
 20
615.380202714592
 30
0.0
 11
193.786944047026
 21
615.496767020979
 31
0.0
  0
ENDBLK
  5
37D
100
AcDbEntity
  8
0
  6
BYBLOCK
 62
           0
100
AcDbBlockEnd
  0
BLOCK
  5
37E
100
AcDbEntity
  8
0
100
AcDbBlockBegin
  2
MAK2
 70
          64
 10
0.0
 20
0.0
 30
0.0
  3
MAK2
  1

  0
LINE
  5
37F
100
AcDbEntity
  8
Frei
  6
CONTINUOUS
 62
           2
100
AcDbLine
 10
-32.096491646589
 20
614.906213139102
 30
0.0
 11
-31.505937764714
 21
615.49676702098
 31
0.0
  0
LINE
  5
380
100
AcDbEntity
  8
Frei
  6
CONTINUOUS
 62
           2
100
AcDbLine
 10
-32.096491646591
 20
613.845552967323
 30
0.0
 11
-30.445277592935
 21
615.496767020978
 31
0.0
  0
LINE
  5
381
100
AcDbEntity
  8
Frei
  6
CONTINUOUS
 62
           2
100
AcDbLine
 10
-32.096491646589
 20
612.784892795543
 30
0.0
 11
-30.096491646591
 21
614.784892795543
 31
0.0
  0
LINE
  5
382
100
AcDbEntity
  8
Frei
  6
CONTINUOUS
 62
           2
100
AcDbLine
 10
-32.096491646591
 20
611.724232623764
 30
0.0
 11
-30.096491646593
 21
613.724232623761
 31
0.0
  0
LINE
  5
383
100
AcDbEntity
  8
Frei
  6
CONTINUOUS
 62
           2
100
AcDbLine
 10
-32.096491646589
 20
610.663572451983
 30
0.0
 11
-30.096491646591
 21
612.663572451983
 31
0.0
  0
LINE
  5
384
100
AcDbEntity
  8
Frei
  6
CONTINUOUS
 62
           2
100
AcDbLine
 10
-32.096491646591
 20
609.602912280203
 30
0.0
 11
-30.096491646593
 21
611.602912280203
 31
0.0
  0
LINE
  5
385
100
AcDbEntity
  8
Frei
  6
CONTINUOUS
 62
           2
100
AcDbLine
 10
-32.096491646589
 20
608.542252108423
 30
0.0
 11
-30.096491646591
 21
610.542252108424
 31
0.0
  0
LINE
  5
386
100
AcDbEntity
  8
Frei
  6
CONTINUOUS
 62
           2
100
AcDbLine
 10
-32.096491646591
 20
607.481591936645
 30
0.0
 11
-30.096491646593
 21
609.481591936644
 31
0.0
  0
LINE
  5
387
100
AcDbEntity
  8
Frei
  6
CONTINUOUS
 62
           2
100
AcDbLine
 10
-32.096491646591
 20
606.420931764865
 30
0.0
 11
-30.096491646593
 21
608.420931764865
 31
0.0
  0
LINE
  5
388
100
AcDbEntity
  8
Frei
  6
CONTINUOUS
 62
           2
100
AcDbLine
 10
-32.096491646591
 20
605.360271593085
 30
0.0
 11
-30.096491646593
 21
607.360271593086
 31
0.0
  0
LINE
  5
389
100
AcDbEntity
  8
Frei
  6
CONTINUOUS
 62
           2
100
AcDbLine
 10
-32.096491646589
 20
604.299611421304
 30
0.0
 11
-30.096491646591
 21
606.299611421304
 31
0.0
  0
LINE
  5
38A
100
AcDbEntity
  8
Frei
  6
CONTINUOUS
 62
           2
100
AcDbLine
 10
-32.096491646591
 20
603.238951249525
 30
0.0
 11
-30.096491646591
 21
605.238951249524
 31
0.0
  0
LINE
  5
38B
100
AcDbEntity
  8
Frei
  6
CONTINUOUS
 62
           2
100
AcDbLine
 10
-32.096491646591
 20
602.178291077745
 30
0.0
 11
-30.096491646593
 21
604.178291077746
 31
0.0
  0
LINE
  5
38C
100
AcDbEntity
  8
Frei
  6
CONTINUOUS
 62
           2
100
AcDbLine
 10
-32.096491646591
 20
601.117630905966
 30
0.0
 11
-30.096491646591
 21
603.117630905966
 31
0.0
  0
LINE
  5
38D
100
AcDbEntity
  8
Frei
  6
CONTINUOUS
 62
           2
100
AcDbLine
 10
-32.096491646589
 20
600.056970734186
 30
0.0
 11
-30.096491646591
 21
602.056970734186
 31
0.0
  0
LINE
  5
38E
100
AcDbEntity
  8
Frei
  6
CONTINUOUS
 62
           2
100
AcDbLine
 10
-32.096491646593
 20
598.996310562406
 30
0.0
 11
-30.096491646591
 21
600.996310562405
 31
0.0
  0
LINE
  5
38F
100
AcDbEntity
  8
Frei
  6
CONTINUOUS
 62
           2
100
AcDbLine
 10
-32.096491646591
 20
597.935650390627
 30
0.0
 11
-30.096491646593
 21
599.935650390627
 31
0.0
  0
LINE
  5
390
100
AcDbEntity
  8
Frei
  6
CONTINUOUS
 62
           2
100
AcDbLine
 10
-32.096491646589
 20
596.874990218846
 30
0.0
 11
-30.096491646591
 21
598.874990218846
 31
0.0
  0
LINE
  5
391
100
AcDbEntity
  8
Frei
  6
CONTINUOUS
 62
           2
100
AcDbLine
 10
-32.096491646589
 20
595.814330047066
 30
0.0
 11
-30.096491646591
 21
597.814330047067
 31
0.0
  0
LINE
  5
392
100
AcDbEntity
  8
Frei
  6
CONTINUOUS
 62
           2
100
AcDbLine
 10
-31.3533945009
 20
595.496767020978
 30
0.0
 11
-30.096491646593
 21
596.753669875287
 31
0.0
  0
LINE
  5
393
100
AcDbEntity
  8
Frei
  6
CONTINUOUS
 62
           2
100
AcDbLine
 10
-30.292734329118
 20
595.496767020979
 30
0.0
 11
-30.096491646593
 21
595.693009703506
 31
0.0
  0
LINE
  5
394
100
AcDbEntity
  8
Frei
  6
CONTINUOUS
 62
           2
100
AcDbLine
 10
-31.225555634115
 20
595.496767020979
 30
0.0
 11
-32.096491646591
 21
596.367703033456
 31
0.0
  0
LINE
  5
395
100
AcDbEntity
  8
Frei
  6
CONTINUOUS
 62
           2
100
AcDbLine
 10
-30.164895462334
 20
595.496767020979
 30
0.0
 11
-32.096491646589
 21
597.428363205235
 31
0.0
  0
LINE
  5
396
100
AcDbEntity
  8
Frei
  6
CONTINUOUS
 62
           2
100
AcDbLine
 10
-30.096491646593
 20
596.489023377014
 30
0.0
 11
-32.096491646589
 21
598.489023377014
 31
0.0
  0
LINE
  5
397
100
AcDbEntity
  8
Frei
  6
CONTINUOUS
 62
           2
100
AcDbLine
 10
-30.096491646593
 20
597.549683548795
 30
0.0
 11
-32.096491646591
 21
599.549683548796
 31
0.0
  0
LINE
  5
398
100
AcDbEntity
  8
Frei
  6
CONTINUOUS
 62
           2
100
AcDbLine
 10
-30.096491646593
 20
598.610343720575
 30
0.0
 11
-32.096491646591
 21
600.610343720575
 31
0.0
  0
LINE
  5
399
100
AcDbEntity
  8
Frei
  6
CONTINUOUS
 62
           2
100
AcDbLine
 10
-30.096491646591
 20
599.671003892354
 30
0.0
 11
-32.096491646589
 21
601.671003892355
 31
0.0
  0
LINE
  5
39A
100
AcDbEntity
  8
Frei
  6
CONTINUOUS
 62
           2
100
AcDbLine
 10
-30.096491646593
 20
600.731664064133
 30
0.0
 11
-32.096491646589
 21
602.731664064134
 31
0.0
  0
LINE
  5
39B
100
AcDbEntity
  8
Frei
  6
CONTINUOUS
 62
           2
100
AcDbLine
 10
-30.096491646591
 20
601.792324235913
 30
0.0
 11
-32.096491646591
 21
603.792324235913
 31
0.0
  0
LINE
  5
39C
100
AcDbEntity
  8
Frei
  6
CONTINUOUS
 62
           2
100
AcDbLine
 10
-30.096491646593
 20
602.852984407695
 30
0.0
 11
-32.096491646591
 21
604.852984407695
 31
0.0
  0
LINE
  5
39D
100
AcDbEntity
  8
Frei
  6
CONTINUOUS
 62
           2
100
AcDbLine
 10
-30.096491646591
 20
603.913644579471
 30
0.0
 11
-32.096491646589
 21
605.913644579473
 31
0.0
  0
LINE
  5
39E
100
AcDbEntity
  8
Frei
  6
CONTINUOUS
 62
           2
100
AcDbLine
 10
-30.096491646593
 20
604.974304751253
 30
0.0
 11
-32.096491646589
 21
606.974304751253
 31
0.0
  0
LINE
  5
39F
100
AcDbEntity
  8
Frei
  6
CONTINUOUS
 62
           2
100
AcDbLine
 10
-30.096491646591
 20
606.034964923033
 30
0.0
 11
-32.096491646591
 21
608.034964923033
 31
0.0
  0
LINE
  5
3A0
100
AcDbEntity
  8
Frei
  6
CONTINUOUS
 62
           2
100
AcDbLine
 10
-30.096491646593
 20
607.095625094812
 30
0.0
 11
-32.096491646591
 21
609.095625094813
 31
0.0
  0
LINE
  5
3A1
100
AcDbEntity
  8
Frei
  6
CONTINUOUS
 62
           2
100
AcDbLine
 10
-30.096491646591
 20
608.156285266593
 30
0.0
 11
-32.096491646589
 21
610.156285266592
 31
0.0
  0
LINE
  5
3A2
100
AcDbEntity
  8
Frei
  6
CONTINUOUS
 62
           2
100
AcDbLine
 10
-30.096491646591
 20
609.216945438371
 30
0.0
 11
-32.096491646591
 21
611.216945438371
 31
0.0
  0
LINE
  5
3A3
100
AcDbEntity
  8
Frei
  6
CONTINUOUS
 62
           2
100
AcDbLine
 10
-30.096491646591
 20
610.277605610152
 30
0.0
 11
-32.096491646591
 21
612.277605610153
 31
0.0
  0
LINE
  5
3A4
100
AcDbEntity
  8
Frei
  6
CONTINUOUS
 62
           2
100
AcDbLine
 10
-30.096491646593
 20
611.338265781932
 30
0.0
 11
-32.096491646591
 21
613.338265781932
 31
0.0
  0
LINE
  5
3A5
100
AcDbEntity
  8
Frei
  6
CONTINUOUS
 62
           2
100
AcDbLine
 10
-30.096491646591
 20
612.398925953711
 30
0.0
 11
-32.096491646589
 21
614.398925953712
 31
0.0
  0
LINE
  5
3A6
100
AcDbEntity
  8
Frei
  6
CONTINUOUS
 62
           2
100
AcDbLine
 10
-30.096491646591
 20
613.45958612549
 30
0.0
 11
-32.096491646591
 21
615.459586125491
 31
0.0
  0
LINE
  5
3A7
100
AcDbEntity
  8
Frei
  6
CONTINUOUS
 62
           2
100
AcDbLine
 10
-30.096491646591
 20
614.52024629727
 30
0.0
 11
-31.073012370298
 21
615.49676702098
 31
0.0
  0
ENDBLK
  5
3A8
100
AcDbEntity
  8
0
  6
BYBLOCK
 62
           0
100
AcDbBlockEnd
  0
ENDSEC
  0
SECTION
  2
ENTITIES
  0
INSERT
  5
26
100
AcDbEntity
  8
FREI
  6
CONTINUOUS
 62
           7
100
AcDbBlockReference
  2
MAK1
 10
-14094.910626838029
 20
-7468.134265577919
 30
0.0
 50
356.087999999999
  0
INSERT
  5
27
100
AcDbEntity
  8
FREI
  6
CONTINUOUS
 62
           7
100
AcDbBlockReference
  2
MAK2
 10
-14094.910626838029
 20
-7468.134265577919
 30
0.0
 50
356.087999999999
  0
LINE
  5
28
100
AcDbEntity
  8
FREI
  6
CONTINUOUS
 62
          15
100
AcDbLine
 10
-14228.647542653523
 20
-6742.319496903035
 30
0.0
 11
-14346.904122814969
 21
-6791.302976245764
 31
0.0
  0
LINE
  5
29
100
AcDbEntity
  8
FREI
  6
CONTINUOUS
 62
          15
100
AcDbLine
 10
-14270.555078277817
 20
-6975.625875041585
 30
0.0
 11
-14253.146681885521
 21
-7017.653461711029
 31
0.0
  0
LINE
  5
2A
100
AcDbEntity
  8
FREI
  6
CONTINUOUS
 62
          15
100
AcDbLine
 10
-14346.904122814969
 20
-6791.302976245764
 30
0.0
 11
-14339.82817909653
 21
-6808.385815537405
 31
0.0
  0
LINE
  5
2B
100
AcDbEntity
  8
FREI
  6
CONTINUOUS
 62
          15
100
AcDbLine
 10
-14253.146681885521
 20
-7017.653461711029
 30
0.0
 11
-14134.890101724077
 21
-6968.669982368298
 31
0.0
  0
LINE
  5
2C
100
AcDbEntity
  8
FREI
  6
CONTINUOUS
 62
          15
100
AcDbLine
 10
-14191.227729899143
 20
-6832.658916356121
 30
0.0
 11
-14228.647542653523
 21
-6742.319496903035
 31
0.0
  0
LINE
  5
2D
100
AcDbEntity
  8
FREI
  6
GESTRICHELT
 62
          15
100
AcDbLine
 10
-14162.232780533026
 20
-6902.658916356123
 30
0.0
 11
-14191.227729899143
 21
-6832.658916356121
 31
0.0
  0
LINE
  5
2E
100
AcDbEntity
  8
FREI
  6
CONTINUOUS
 62
          15
100
AcDbLine
 10
-14134.890101724077
 20
-6968.669982368298
 30
0.0
 11
-14162.232780533026
 21
-6902.658916356123
 31
0.0
  0
LINE
  5
2F
100
AcDbEntity
  8
FREI
  6
STRICHPUNKT
 62
          15
100
AcDbLine
 10
-14194.018391804801
 20
-6993.161722039663
 30
0.0
 11
-14287.775832734247
 21
-6766.811236574399
 31
0.0
  0
LINE
  5
30
100
AcDbEntity
  8
FREI
  6
STRICHPUNKT
 62
          15
100
AcDbLine
 10
-14270.555078277817
 20
-6808.385815537406
 30
0.0
 11
-14347.091764750836
 21
-6993.161722039665
 31
0.0
  0
LINE
  5
31
100
AcDbEntity
  8
FREI
  6
CONTINUOUS
 62
          15
100
AcDbLine
 10
-14270.555078277817
 20
-6975.625875041585
 30
0.0
 11
-14287.963474670114
 21
-7017.653461711031
 31
0.0
  0
LINE
  5
32
100
AcDbEntity
  8
FREI
  6
CONTINUOUS
 62
          15
100
AcDbLine
 10
-14339.82817909653
 20
-6808.385815537405
 30
0.0
 11
-14406.220054831558
 21
-6968.669982368298
 31
0.0
  0
LINE
  5
33
100
AcDbEntity
  8
FREI
  6
CONTINUOUS
 62
          15
100
AcDbLine
 10
-14270.555078277817
 20
-6832.65891635612
 30
0.0
 11
-14270.555078277817
 21
-6808.385815537406
 31
0.0
  0
LINE
  5
34
100
AcDbEntity
  8
FREI
  6
GESTRICHELT
 62
          15
100
AcDbLine
 10
-14270.555078277819
 20
-6870.658916356121
 30
0.0
 11
-14270.555078277817
 21
-6832.65891635612
 31
0.0
  0
LINE
  5
35
100
AcDbEntity
  8
FREI
  6
GESTRICHELT
 62
          15
100
AcDbLine
 10
-14270.555078277817
 20
-6902.65891635612
 30
0.0
 11
-14270.555078277817
 21
-6884.658916356121
 31
0.0
  0
LINE
  5
36
100
AcDbEntity
  8
FREI
  6
CONTINUOUS
 62
          15
100
AcDbLine
 10
-14270.555078277817
 20
-6975.625875041585
 30
0.0
 11
-14270.555078277817
 21
-6902.65891635612
 31
0.0
  0
LINE
  5
37
100
AcDbEntity
  8
FREI
  6
CONTINUOUS
 62
          15
100
AcDbLine
 10
-14406.220054831558
 20
-6968.669982368298
 30
0.0
 11
-14287.963474670114
 21
-7017.653461711031
 31
0.0
  0
LINE
  5
38
100
AcDbEntity
  8
FREI
  6
CONTINUOUS
 62
          15
100
AcDbLine
 10
-14339.82817909653
 20
-6808.385815537405
 30
0.0
 11
-14201.281977459103
 21
-6808.385815537408
 31
0.0
  0
CIRCLE
  5
39
100
AcDbEntity
  8
FREI
  6
CONTINUOUS
 62
          15
100
AcDbCircle
 10
-14270.555078277817
 20
-6877.658916356121
 30
0.0
 40
7.0
  0
CIRCLE
  5
3A
100
AcDbEntity
  8
Frei
  6
CONTINUOUS
 62
           7
100
AcDbCircle
 10
-13807.666131277818
 20
-6877.658916356122
 30
0.0
 40
6.25
  0
CIRCLE
  5
3B
100
AcDbEntity
  8
FREI
  6
CONTINUOUS
 62
          15
100
AcDbCircle
 10
-14204.959631469517
 20
-6850.4883926582
 30
0.0
 40
6.25
  0
ARC
  5
3C
100
AcDbEntity
  8
FREI
  6
CONTINUOUS
 62
          15
100
AcDbCircle
 10
-14270.555078277817
 20
-6877.658916356121
 30
0.0
 40
17.25
100
AcDbArc
 50
111.69299050693
 51
293.307009493072
  0
LINE
  5
3D
100
AcDbEntity
  8
FREI
  6
CONTINUOUS
 62
          15
100
AcDbLine
 10
-14210.966169110608
 20
-6835.389253425577
 30
0.0
 11
-14276.931249004512
 21
-6861.630599324569
 31
0.0
  0
LINE
  5
3E
100
AcDbEntity
  8
FREI
  6
CONTINUOUS
 62
          15
100
AcDbLine
 10
-14259.406720039848
 20
-6891.638764579452
 30
0.0
 11
-14263.729980172646
 21
-6893.501281578993
 31
0.0
  0
ARC
  5
3F
100
AcDbEntity
  8
FREI
  6
CONTINUOUS
 62
          15
100
AcDbCircle
 10
-14204.959631469517
 20
-6850.4883926582
 30
0.0
 40
16.25
100
AcDbArc
 50
43.677190698584
 51
111.692990506929
  0
ARC
  5
40
100
AcDbEntity
  8
FREI
  6
GESTRICHELT
 62
          15
100
AcDbCircle
 10
-14204.959631469517
 20
-6850.4883926582
 30
0.0
 40
16.25
100
AcDbArc
 50
308.476134970704
 51
43.677190698584
  0
ARC
  5
41
100
AcDbEntity
  8
FREI
  6
CONTINUOUS
 62
          15
100
AcDbCircle
 10
-14204.959631469517
 20
-6850.4883926582
 30
0.0
 40
16.25
100
AcDbArc
 50
223.699865029297
 51
308.476134970704
  0
ARC
  5
42
100
AcDbEntity
  8
FREI
  6
GESTRICHELT
 62
          15
100
AcDbCircle
 10
-14204.959631469517
 20
-6850.4883926582
 30
0.0
 40
16.25
100
AcDbArc
 50
216.333732352792
 51
223.699865029297
  0
ARC
  5
43
100
AcDbEntity
  8
FREI
  6
CONTINUOUS
 62
          15
100
AcDbCircle
 10
-14204.959631469517
 20
-6850.4883926582
 30
0.0
 40
16.25
100
AcDbArc
 50
210.049825852107
 51
216.333732352792
  0
LINE
  5
44
100
AcDbEntity
  8
FREI
  6
CONTINUOUS
 62
          15
100
AcDbLine
 10
-14227.032603982003
 20
-6857.74359279122
 30
0.0
 11
-14256.00493983757
 21
-6889.226383928251
 31
0.0
  0
ARC
  5
45
100
AcDbEntity
  8
FREI
  6
CONTINUOUS
 62
          15
100
AcDbCircle
 10
-14223.35342457502
 20
-6861.129392385293
 30
0.0
 40
5.0
100
AcDbArc
 50
30.049825852111
 51
137.377894256055
  0
ARC
  5
46
100
AcDbEntity
  8
FREI
  6
CONTINUOUS
 62
          15
100
AcDbCircle
 10
-14263.363298651539
 20
-6882.454784740107
 30
0.0
 40
10.0
100
AcDbArc
 50
293.30700949307
 51
317.377894256059
  0
LINE
  5
47
100
AcDbEntity
  8
Frei
  6
GESTRICHELT
 62
           7
100
AcDbLine
 10
-13825.225098940042
 20
-6876.457810712725
 30
0.0
 11
-13824.031174675663
 21
-6858.998585505089
 31
0.0
  0
LINE
  5
48
100
AcDbEntity
  8
Frei
  6
GESTRICHELT
 62
           7
100
AcDbLine
 10
-13824.031174675663
 20
-6858.998585505089
 30
0.0
 11
-13828.021854723122
 21
-6858.725688530376
 31
0.0
  0
LINE
  5
49
100
AcDbEntity
  8
Frei
  6
CONTINUOUS
 62
           7
100
AcDbLine
 10
-13828.021854723122
 20
-6858.725688530376
 30
0.0
 11
-13827.373724408175
 21
-6849.24782341766
 31
0.0
  0
LINE
  5
4A
100
AcDbEntity
  8
Frei
  6
CONTINUOUS
 62
           7
100
AcDbLine
 10
-13827.373724408175
 20
-6849.24782341766
 30
0.0
 11
-13856.904756759377
 21
-6847.228385804769
 31
0.0
  0
LINE
  5
4B
100
AcDbEntity
  8
Frei
  6
CONTINUOUS
 62
           7
100
AcDbLine
 10
-13856.904756759377
 20
-6847.228385804769
 30
0.0
 11
-13856.938868881216
 21
-6847.727220810702
 31
0.0
  0
LINE
  5
4C
100
AcDbEntity
  8
Frei
  6
CONTINUOUS
 62
           7
100
AcDbLine
 10
-13856.938868881216
 20
-6847.727220810702
 30
0.0
 11
-14084.780738482792
 21
-6832.146939501165
 31
0.0
  0
LINE
  5
4D
100
AcDbEntity
  8
Frei
  6
CONTINUOUS
 62
           7
100
AcDbLine
 10
-14084.780738482792
 20
-6832.146939501165
 30
0.0
 11
-14084.746626360953
 21
-6831.648104495233
 31
0.0
  0
LINE
  5
4E
100
AcDbEntity
  8
Frei
  6
CONTINUOUS
 62
           7
100
AcDbLine
 10
-14084.746626360953
 20
-6831.648104495233
 30
0.0
 11
-14114.277658712153
 21
-6829.628666882343
 31
0.0
  0
LINE
  5
4F
100
AcDbEntity
  8
Frei
  6
CONTINUOUS
 62
           7
100
AcDbLine
 10
-14114.277658712153
 20
-6829.628666882343
 30
0.0
 11
-14114.9257890271
 21
-6839.106531995059
 31
0.0
  0
LINE
  5
50
100
AcDbEntity
  8
Frei
  6
CONTINUOUS
 62
           7
100
AcDbLine
 10
-14114.9257890271
 20
-6839.106531995059
 30
0.0
 11
-14125.40132415168
 21
-6838.390177436433
 31
0.0
  0
LINE
  5
51
100
AcDbEntity
  8
Frei
  6
CONTINUOUS
 62
           7
100
AcDbLine
 10
-14125.40132415168
 20
-6838.390177436433
 30
0.0
 11
-14125.435436273519
 21
-6838.889012442365
 31
0.0
  0
LINE
  5
52
100
AcDbEntity
  8
Frei
  6
CONTINUOUS
 62
           7
100
AcDbLine
 10
-14125.435436273519
 20
-6838.889012442365
 30
0.0
 11
-14136.409806404034
 21
-6838.1385457619
 31
0.0
  0
LINE
  5
53
100
AcDbEntity
  8
Frei
  6
CONTINUOUS
 62
           7
100
AcDbLine
 10
-14136.409806404034
 20
-6838.1385457619
 30
0.0
 11
-14138.729430689111
 21
-6872.059326165307
 31
0.0
  0
LINE
  5
54
100
AcDbEntity
  8
Frei
  6
CONTINUOUS
 62
           7
100
AcDbLine
 10
-14138.729430689111
 20
-6872.059326165307
 30
0.0
 11
-14127.755060558597
 21
-6872.809792845772
 31
0.0
  0
LINE
  5
55
100
AcDbEntity
  8
Frei
  6
CONTINUOUS
 62
           7
100
AcDbLine
 10
-14127.755060558597
 20
-6872.809792845772
 30
0.0
 11
-14127.789172680436
 21
-6873.308627851704
 31
0.0
  0
LINE
  5
56
100
AcDbEntity
  8
Frei
  6
CONTINUOUS
 62
           7
100
AcDbLine
 10
-14127.789172680436
 20
-6873.308627851704
 30
0.0
 11
-14117.313637555855
 21
-6874.02498241033
 31
0.0
  0
LINE
  5
57
100
AcDbEntity
  8
Frei
  6
CONTINUOUS
 62
           7
100
AcDbLine
 10
-14117.313637555855
 20
-6874.02498241033
 30
0.0
 11
-14117.961767870804
 21
-6883.502847523047
 31
0.0
  0
LINE
  5
58
100
AcDbEntity
  8
Frei
  6
CONTINUOUS
 62
           7
100
AcDbLine
 10
-14117.961767870804
 20
-6883.502847523047
 30
0.0
 11
-14088.430735519603
 21
-6885.522285135936
 31
0.0
  0
LINE
  5
59
100
AcDbEntity
  8
Frei
  6
CONTINUOUS
 62
           7
100
AcDbLine
 10
-14088.430735519603
 20
-6885.522285135936
 30
0.0
 11
-14088.396623397763
 21
-6885.023450130004
 31
0.0
  0
LINE
  5
5A
100
AcDbEntity
  8
Frei
  6
CONTINUOUS
 62
           7
100
AcDbLine
 10
-13865.230810528243
 20
-6900.283973357182
 30
0.0
 11
-13860.554753796188
 21
-6900.60373143954
 31
0.0
  0
LINE
  5
5B
100
AcDbEntity
  8
Frei
  6
GESTRICHELT
 62
           7
100
AcDbLine
 10
-13893.165573870019
 20
-6898.373738544146
 30
0.0
 11
-13865.230810528243
 21
-6900.283973357182
 31
0.0
  0
LINE
  5
5C
100
AcDbEntity
  8
Frei
  6
CONTINUOUS
 62
           7
100
AcDbLine
 10
-14055.78580332393
 20
-6887.2534430254
 30
0.0
 11
-13893.165573870019
 21
-6898.373738544146
 31
0.0
  0
LINE
  5
5D
100
AcDbEntity
  8
Frei
  6
GESTRICHELT
 62
           7
100
AcDbLine
 10
-14083.720566665705
 20
-6885.343208212364
 30
0.0
 11
-14055.78580332393
 21
-6887.2534430254
 31
0.0
  0
LINE
  5
5E
100
AcDbEntity
  8
Frei
  6
CONTINUOUS
 62
           7
100
AcDbLine
 10
-14088.396623397763
 20
-6885.023450130004
 30
0.0
 11
-14083.720566665705
 21
-6885.343208212364
 31
0.0
  0
LINE
  5
5F
100
AcDbEntity
  8
Frei
  6
CONTINUOUS
 62
           7
100
AcDbLine
 10
-13860.554753796188
 20
-6900.60373143954
 30
0.0
 11
-13860.588865918027
 21
-6901.102566445472
 31
0.0
  0
LINE
  5
60
100
AcDbEntity
  8
Frei
  6
CONTINUOUS
 62
           7
100
AcDbLine
 10
-13860.588865918027
 20
-6901.102566445472
 30
0.0
 11
-13831.057833566825
 21
-6903.122004058363
 31
0.0
  0
LINE
  5
61
100
AcDbEntity
  8
Frei
  6
CONTINUOUS
 62
           7
100
AcDbLine
 10
-13831.057833566825
 20
-6903.122004058363
 30
0.0
 11
-13830.409703251877
 21
-6893.644138945647
 31
0.0
  0
LINE
  5
62
100
AcDbEntity
  8
Frei
  6
GESTRICHELT
 62
           7
100
AcDbLine
 10
-13830.409703251877
 20
-6893.644138945647
 30
0.0
 11
-13826.419023204418
 21
-6893.91703592036
 31
0.0
  0
LINE
  5
63
100
AcDbEntity
  8
Frei
  6
GESTRICHELT
 62
           7
100
AcDbLine
 10
-13826.419023204418
 20
-6893.91703592036
 30
0.0
 11
-13825.225098940042
 21
-6876.457810712725
 31
0.0
  0
LINE
  5
64
100
AcDbEntity
  8
Frei
  6
CONTINUOUS
 62
           7
100
AcDbLine
 10
-13828.021854723122
 20
-6858.725688530376
 30
0.0
 11
-13830.409703251877
 21
-6893.644138945647
 31
0.0
  0
LINE
  5
65
100
AcDbEntity
  8
Frei
  6
CONTINUOUS
 62
           7
100
AcDbLine
 10
-13859.225281813768
 20
-6881.162338512986
 30
0.0
 11
-13860.554753796188
 21
-6900.60373143954
 31
0.0
  0
LINE
  5
66
100
AcDbEntity
  8
Frei
  6
GESTRICHELT
 62
           7
100
AcDbLine
 10
-13858.705000569782
 20
-6873.554060767845
 30
0.0
 11
-13859.225281813768
 21
-6881.162338512986
 31
0.0
  0
LINE
  5
67
100
AcDbEntity
  8
Frei
  6
CONTINUOUS
 62
           7
100
AcDbLine
 10
-13856.938868881216
 20
-6847.727220810702
 30
0.0
 11
-13858.705000569782
 21
-6873.554060767845
 31
0.0
  0
LINE
  5
68
100
AcDbEntity
  8
Frei
  6
CONTINUOUS
 62
           7
100
AcDbLine
 10
-14087.06712686874
 20
-6865.581698248796
 30
0.0
 11
-14088.396623397763
 21
-6885.023450130004
 31
0.0
  0
LINE
  5
69
100
AcDbEntity
  8
Frei
  6
CONTINUOUS
 62
           7
100
AcDbLine
 10
-14086.546845624754
 20
-6857.973420503655
 30
0.0
 11
-14087.06712686874
 21
-6865.581698248796
 31
0.0
  0
LINE
  5
6A
100
AcDbEntity
  8
Frei
  6
CONTINUOUS
 62
           7
100
AcDbLine
 10
-14084.780738482792
 20
-6832.146939501165
 30
0.0
 11
-14086.546845624754
 21
-6857.973420503655
 31
0.0
  0
LINE
  5
6B
100
AcDbEntity
  8
Frei
  6
CONTINUOUS
 62
           7
100
AcDbLine
 10
-14114.9257890271
 20
-6839.106531995059
 30
0.0
 11
-14117.313637555855
 21
-6874.02498241033
 31
0.0
  0
LINE
  5
6C
100
AcDbEntity
  8
Frei
  6
CONTINUOUS
 62
           7
100
AcDbLine
 10
-14125.40132415168
 20
-6838.390177436433
 30
0.0
 11
-14127.789172680436
 21
-6873.308627851704
 31
0.0
  0
LINE
  5
6D
100
AcDbEntity
  8
Frei
  6
GESTRICHELT
 62
           7
100
AcDbLine
 10
-14150.683736329986
 20
-6848.188133107658
 30
0.0
 11
-14168.819535105013
 21
-6846.947942322908
 31
0.0
  0
LINE
  5
6E
100
AcDbEntity
  8
Frei
  6
CONTINUOUS
 62
           7
100
AcDbLine
 10
-14145.640468185353
 20
-6848.533009821145
 30
0.0
 11
-14150.683736329986
 21
-6848.188133107658
 31
0.0
  0
LINE
  5
6F
100
AcDbEntity
  8
Frei
  6
GESTRICHELT
 62
           7
100
AcDbLine
 10
-14151.502427254129
 20
-6860.160173250037
 30
0.0
 11
-14169.638226029156
 21
-6858.919982465286
 31
0.0
  0
LINE
  5
70
100
AcDbEntity
  8
Frei
  6
CONTINUOUS
 62
           7
100
AcDbLine
 10
-14146.459159109496
 20
-6860.505049963524
 30
0.0
 11
-14151.502427254129
 21
-6860.160173250037
 31
0.0
  0
LINE
  5
71
100
AcDbEntity
  8
Frei
  6
GESTRICHELT
 62
           7
100
AcDbLine
 10
-14169.636862137919
 20
-6847.660631361252
 30
0.0
 11
-14168.819535105013
 21
-6846.947942322908
 31
0.0
  0
LINE
  5
72
100
AcDbEntity
  8
Frei
  6
GESTRICHELT
 62
           7
100
AcDbLine
 10
-14170.350925726443
 20
-6858.102664726835
 30
0.0
 11
-14169.638226029156
 21
-6858.919982465286
 31
0.0
  0
LINE
  5
73
100
AcDbEntity
  8
Frei
  6
GESTRICHELT
 62
           7
100
AcDbLine
 10
-14169.636862137919
 20
-6847.660631361252
 30
0.0
 11
-14170.350925726443
 21
-6858.102664726835
 31
0.0
  0
LINE
  5
74
100
AcDbEntity
  8
Frei
  6
CONTINUOUS
 62
           7
100
AcDbLine
 10
-14150.736049997795
 20
-6848.953136496055
 30
0.0
 11
-14145.692781853162
 21
-6849.298013209542
 31
0.0
  0
LINE
  5
75
100
AcDbEntity
  8
Frei
  6
GESTRICHELT
 62
           7
100
AcDbLine
 10
-14169.636862137919
 20
-6847.660631361252
 30
0.0
 11
-14150.736049997795
 21
-6848.953136496055
 31
0.0
  0
LINE
  5
76
100
AcDbEntity
  8
Frei
  6
CONTINUOUS
 62
           7
100
AcDbLine
 10
-14151.450113586319
 20
-6859.395169861638
 30
0.0
 11
-14146.406845441687
 21
-6859.740046575125
 31
0.0
  0
LINE
  5
77
100
AcDbEntity
  8
Frei
  6
GESTRICHELT
 62
           7
100
AcDbLine
 10
-14170.350925726443
 20
-6858.102664726835
 30
0.0
 11
-14151.450113586319
 21
-6859.395169861638
 31
0.0
  0
LINE
  5
78
100
AcDbEntity
  8
Frei
  6
GESTRICHELT
 62
           7
100
AcDbLine
 10
-14168.819535105013
 20
-6846.947942322908
 30
0.0
 11
-14169.638226029156
 21
-6858.919982465286
 31
0.0
  0
LINE
  5
79
100
AcDbEntity
  8
Frei
  6
CONTINUOUS
 62
           7
100
AcDbLine
 10
-14137.023824597143
 20
-6847.117575868684
 30
0.0
 11
-14145.504019697995
 21
-6846.537669797415
 31
0.0
  0
LINE
  5
7A
100
AcDbEntity
  8
Frei
  6
CONTINUOUS
 62
           7
100
AcDbLine
 10
-14145.504019697995
 20
-6846.537669797415
 30
0.0
 11
-14146.595607596853
 21
-6862.500389987254
 31
0.0
  0
LINE
  5
7B
100
AcDbEntity
  8
Frei
  6
CONTINUOUS
 62
           7
100
AcDbLine
 10
-14146.595607596853
 20
-6862.500389987254
 30
0.0
 11
-14138.115412496001
 21
-6863.080296058522
 31
0.0
  0
LINE
  5
7C
100
AcDbEntity
  8
Frei
  6
CONTINUOUS
 62
           7
100
AcDbLine
 10
-14145.731636924422
 20
-6849.866206234699
 30
0.0
 11
-14140.410733520042
 21
-6850.230068640238
 31
0.0
  0
LINE
  5
7D
100
AcDbEntity
  8
Frei
  6
CONTINUOUS
 62
           7
100
AcDbLine
 10
-14146.367990370427
 20
-6859.171853549968
 30
0.0
 11
-14141.047086966048
 21
-6859.535715955506
 31
0.0
  0
LINE
  5
7E
100
AcDbEntity
  8
Frei
  6
CONTINUOUS
 62
           7
100
AcDbLine
 10
-14140.410733520042
 20
-6850.230068640238
 30
0.0
 11
-14141.047086966048
 21
-6859.535715955506
 31
0.0
  0
LINE
  5
7F
100
AcDbEntity
  8
Frei
  6
CONTINUOUS
 62
           7
100
AcDbLine
 10
-14145.731636924422
 20
-6849.866206234699
 30
0.0
 11
-14141.047086966048
 21
-6859.535715955506
 31
0.0
  0
LINE
  5
80
100
AcDbEntity
  8
Frei
  6
CONTINUOUS
 62
           7
100
AcDbLine
 10
-14140.410733520042
 20
-6850.230068640238
 30
0.0
 11
-14146.367990370427
 21
-6859.171853549968
 31
0.0
  0
CIRCLE
  5
81
100
AcDbEntity
  8
Frei
  6
CONTINUOUS
 62
           7
100
AcDbCircle
 10
-14102.561678587441
 20
-6863.506916685386
 30
0.0
 40
5.7225
  0
ARC
  5
82
100
AcDbEntity
  8
Frei
  6
CONTINUOUS
 62
           7
100
AcDbCircle
 10
-14102.561678587441
 20
-6863.506916685386
 30
0.0
 40
6.5785
100
AcDbArc
 50
106.088
 51
16.088
  0
CIRCLE
  5
83
100
AcDbEntity
  8
Frei
  6
CONTINUOUS
 62
           7
100
AcDbCircle
 10
-13842.773813691536
 20
-6869.24375425532
 30
0.0
 40
5.7225
  0
ARC
  5
84
100
AcDbEntity
  8
Frei
  6
CONTINUOUS
 62
           7
100
AcDbCircle
 10
-13842.773813691536
 20
-6869.24375425532
 30
0.0
 40
6.57849
100
AcDbArc
 50
106.087999999994
 51
16.088000000002
  0
LINE
  5
85
100
AcDbEntity
  8
Frei
  6
CONTINUOUS
 62
           7
100
AcDbLine
 10
-14093.865261178669
 20
-6846.995852602404
 30
0.0
 11
-14101.343152329071
 21
-6853.516522217189
 31
0.0
  0
LINE
  5
86
100
AcDbEntity
  8
Frei
  6
CONTINUOUS
 62
           7
100
AcDbLine
 10
-14094.686705348593
 20
-6846.053815259353
 30
0.0
 11
-14102.164590358814
 21
-6852.574395083841
 31
0.0
  0
CIRCLE
  5
87
100
AcDbEntity
  8
Frei
  6
CONTINUOUS
 62
           7
100
AcDbCircle
 10
-14098.014927133227
 20
-6849.785143796522
 30
0.0
 40
5.0
  0
LINE
  5
88
100
AcDbEntity
  8
Frei
  6
CONTINUOUS
 62
           7
100
AcDbLine
 10
-13843.17060261916
 20
-6880.17629632414
 30
0.0
 11
-13850.648886697387
 21
-6886.696848858928
 31
0.0
  0
LINE
  5
89
100
AcDbEntity
  8
Frei
  6
CONTINUOUS
 62
           7
100
AcDbLine
 10
-13843.992240182904
 20
-6879.234155545941
 30
0.0
 11
-13851.470530401311
 21
-6885.75479787103
 31
0.0
  0
CIRCLE
  5
8A
100
AcDbEntity
  8
Frei
  6
CONTINUOUS
 62
           7
100
AcDbCircle
 10
-13847.320565145754
 20
-6882.965527144184
 30
0.0
 40
5.0
  0
LINE
  5
8B
100
AcDbEntity
  8
Frei
  6
CONTINUOUS
 62
           7
100
AcDbLine
 10
-14150.733633423126
 20
-6843.203113880563
 30
0.0
 11
-14153.333681194448
 21
-6843.025313314627
 31
0.0
  0
LINE
  5
8C
100
AcDbEntity
  8
Frei
  6
CONTINUOUS
 62
           7
100
AcDbLine
 10
-14155.93370901237
 20
-6842.847514113177
 30
0.0
 11
-14153.333681194448
 21
-6843.025313314627
 31
0.0
  0
LINE
  5
8D
100
AcDbEntity
  8
Frei
  6
CONTINUOUS
 62
           7
100
AcDbLine
 10
-14157.430548918681
 20
-6864.736394173493
 30
0.0
 11
-14154.830521100759
 21
-6864.914193374943
 31
0.0
  0
LINE
  5
8E
100
AcDbEntity
  8
Frei
  6
CONTINUOUS
 62
           7
100
AcDbLine
 10
-14152.230473329437
 20
-6865.09199394088
 30
0.0
 11
-14154.830521100759
 21
-6864.914193374943
 31
0.0
  0
LINE
  5
8F
100
AcDbEntity
  8
Frei
  6
CONTINUOUS
 62
           7
100
AcDbLine
 10
-14151.107844081946
 20
-6848.675343872343
 30
0.0
 11
-14153.707891853268
 21
-6848.497543306406
 31
0.0
  0
LINE
  5
90
100
AcDbEntity
  8
Frei
  6
CONTINUOUS
 62
           7
100
AcDbLine
 10
-14156.30791967119
 20
-6848.319744104956
 30
0.0
 11
-14153.707891853268
 21
-6848.497543306406
 31
0.0
  0
LINE
  5
91
100
AcDbEntity
  8
Frei
  6
CONTINUOUS
 62
           7
100
AcDbLine
 10
-14157.056338259859
 20
-6859.264164181714
 30
0.0
 11
-14154.456310441938
 21
-6859.441963383164
 31
0.0
  0
LINE
  5
92
100
AcDbEntity
  8
Frei
  6
CONTINUOUS
 62
           7
100
AcDbLine
 10
-14151.856262670615
 20
-6859.6197639491
 30
0.0
 11
-14154.456310441938
 21
-6859.441963383164
 31
0.0
  0
ARC
  5
93
100
AcDbEntity
  8
Frei
  6
CONTINUOUS
 62
           7
100
AcDbCircle
 10
-14189.780330444148
 20
-6851.528580747172
 30
0.0
 40
38.7776
100
AcDbArc
 50
356.947436999999
 51
4.21961
  0
ARC
  5
94
100
AcDbEntity
  8
Frei
  6
CONTINUOUS
 62
           7
100
AcDbCircle
 10
-14118.38387185106
 20
-6856.4109259424
 30
0.0
 40
38.7776
100
AcDbArc
 50
167.956
 51
175.229
  0
ARC
  5
95
100
AcDbEntity
  8
Frei
  6
CONTINUOUS
 62
           7
100
AcDbCircle
 10
-14118.38387185106
 20
-6856.4109259424
 30
0.0
 40
38.7776
100
AcDbArc
 50
176.946999999999
 51
184.219999999999
  0
ARC
  5
96
100
AcDbEntity
  8
Frei
  6
CONTINUOUS
 62
           7
100
AcDbCircle
 10
-14189.780330444148
 20
-6851.528580747172
 30
0.0
 40
38.7776
100
AcDbArc
 50
347.956389999999
 51
355.228562999999
  0
LINE
  5
97
100
AcDbEntity
  8
Frei
  6
CONTINUOUS
 62
           7
100
AcDbLine
 10
-14151.057749547766
 20
-6853.593568940103
 30
0.0
 11
-14151.093081792058
 21
-6854.174153178847
 31
0.0
  0
LINE
  5
98
100
AcDbEntity
  8
Frei
  6
CONTINUOUS
 62
           7
100
AcDbLine
 10
-14157.027048669555
 20
-6853.185366916356
 30
0.0
 11
-14157.071120503151
 21
-6853.765353510724
 31
0.0
  0
LINE
  5
99
100
AcDbEntity
  8
Frei
  6
CONTINUOUS
 62
           7
100
AcDbLine
 10
-14157.106412840638
 20
-6854.345940478437
 30
0.0
 11
-14157.071120503151
 21
-6853.765353510724
 31
0.0
  0
LINE
  5
9A
100
AcDbEntity
  8
Frei
  6
CONTINUOUS
 62
           7
100
AcDbLine
 10
-14151.137113718849
 20
-6854.754142502186
 30
0.0
 11
-14151.093081792058
 21
-6854.174153178847
 31
0.0
  0
ARC
  5
9B
100
AcDbEntity
  8
Frei
  6
CONTINUOUS
 62
           7
100
AcDbCircle
 10
-14160.642654926918
 20
-6845.274424512067
 30
0.0
 40
10.1345
100
AcDbArc
 50
340.369499999999
 51
356.087999999999
  0
ARC
  5
9C
100
AcDbEntity
  8
Frei
  6
CONTINUOUS
 62
           7
100
AcDbCircle
 10
-14146.398910190825
 20
-6846.248462721311
 30
0.0
 40
10.1232
100
AcDbArc
 50
176.088
 51
191.806999999999
  0
ARC
  5
9D
100
AcDbEntity
  8
Frei
  6
CONTINUOUS
 62
           7
100
AcDbCircle
 10
-14147.521537391589
 20
-6862.665082859747
 30
0.0
 40
10.1345
100
AcDbArc
 50
160.369
 51
176.088
  0
ARC
  5
9E
100
AcDbEntity
  8
Frei
  6
CONTINUOUS
 62
           7
100
AcDbCircle
 10
-14161.765282127682
 20
-6861.691044650503
 30
0.0
 40
10.1232
100
AcDbArc
 50
356.087999999999
 51
11.8065
  0
ARC
  5
9F
100
AcDbEntity
  8
Frei
  6
CONTINUOUS
 62
           7
100
AcDbCircle
 10
-14160.642654926918
 20
-6845.274424512067
 30
0.0
 40
10.1232
100
AcDbArc
 50
356.087999999999
 51
11.8065
  0
ARC
  5
A0
100
AcDbEntity
  8
Frei
  6
CONTINUOUS
 62
           7
100
AcDbCircle
 10
-14146.398910190825
 20
-6846.248462721311
 30
0.0
 40
10.1345
100
AcDbArc
 50
160.369
 51
176.088
  0
ARC
  5
A1
100
AcDbEntity
  8
Frei
  6
CONTINUOUS
 62
           7
100
AcDbCircle
 10
-14147.521537391589
 20
-6862.665082859747
 30
0.0
 40
10.1232
100
AcDbArc
 50
176.088
 51
191.806999999999
  0
ARC
  5
A2
100
AcDbEntity
  8
Frei
  6
CONTINUOUS
 62
           7
100
AcDbCircle
 10
-14161.765282127682
 20
-6861.691044650503
 30
0.0
 40
10.1345
100
AcDbArc
 50
340.369499999999
 51
356.087999999999
  0
LINE
  5
A3
100
AcDbEntity
  8
Frei
  6
CONTINUOUS
 62
           7
100
AcDbLine
 10
-14150.531768191675
 20
-6845.965843109629
 30
0.0
 11
-14151.093081792058
 21
-6854.174153178847
 31
0.0
  0
LINE
  5
A4
100
AcDbEntity
  8
Frei
  6
CONTINUOUS
 62
           7
100
AcDbLine
 10
-14156.509806902768
 20
-6845.557043441506
 30
0.0
 11
-14157.071120503151
 21
-6853.765353510724
 31
0.0
  0
LINE
  5
A5
100
AcDbEntity
  8
Frei
  6
CONTINUOUS
 62
           7
100
AcDbLine
 10
-14157.632434103532
 20
-6861.973663579942
 30
0.0
 11
-14157.071120503151
 21
-6853.765353510724
 31
0.0
  0
LINE
  5
A6
100
AcDbEntity
  8
Frei
  6
CONTINUOUS
 62
           7
100
AcDbLine
 10
-14151.654395392439
 20
-6862.382463248065
 30
0.0
 11
-14151.093081792058
 21
-6854.174153178847
 31
0.0
  0
LINE
  5
A7
100
AcDbEntity
  8
Frei
  6
CONTINUOUS
 62
           7
100
AcDbLine
 10
-13822.009040584502
 20
-6888.262953635433
 30
0.0
 11
-13822.849967343
 21
-6888.220177546436
 31
0.0
  0
LINE
  5
A8
100
AcDbEntity
  8
Frei
  6
CONTINUOUS
 62
           7
100
AcDbLine
 10
-13821.170262886804
 20
-6887.518566039082
 30
0.0
 11
-13821.660735268741
 21
-6894.69093704272
 31
0.0
  0
LINE
  5
A9
100
AcDbEntity
  8
Frei
  6
CONTINUOUS
 62
           7
100
AcDbLine
 10
-13819.702351972583
 20
-6866.052726034995
 30
0.0
 11
-13819.712376910556
 21
-6866.199324655172
 31
0.0
  0
LINE
  5
AA
100
AcDbEntity
  8
Frei
  6
CONTINUOUS
 62
           7
100
AcDbLine
 10
-13821.270909130468
 20
-6865.128986780732
 30
0.0
 11
-13820.431987505808
 21
-6865.201084732324
 31
0.0
  0
LINE
  5
AB
100
AcDbEntity
  8
Frei
  6
CONTINUOUS
 62
           7
100
AcDbLine
 10
-13819.511913591972
 20
-6866.785681592459
 30
0.0
 11
-13820.881819661716
 21
-6886.818358118584
 31
0.0
  0
LINE
  5
AC
100
AcDbEntity
  8
Frei
  6
CONTINUOUS
 62
           7
100
AcDbLine
 10
-13808.153831536303
 20
-6887.246520251671
 30
0.0
 11
-13820.321460251131
 21
-6886.627579822551
 31
0.0
  0
LINE
  5
AD
100
AcDbEntity
  8
Frei
  6
CONTINUOUS
 62
           7
100
AcDbLine
 10
-13806.844125562622
 20
-6868.094173463387
 30
0.0
 11
-13818.982741377327
 21
-6867.050965957844
 31
0.0
  0
LINE
  5
AE
100
AcDbEntity
  8
Frei
  6
CONTINUOUS
 62
           7
100
AcDbLine
 10
-13821.16023794883
 20
-6887.371967418903
 30
0.0
 11
-13821.170262886804
 21
-6887.518566039082
 31
0.0
  0
LINE
  5
AF
100
AcDbEntity
  8
Frei
  6
CONTINUOUS
 62
           7
100
AcDbLine
 10
-13822.238679683636
 20
-6856.238298401737
 30
0.0
 11
-13821.359085544076
 21
-6856.329381806972
 31
0.0
  0
LINE
  5
B0
100
AcDbEntity
  8
Frei
  6
CONTINUOUS
 62
           7
100
AcDbLine
 10
-13819.211879590646
 20
-6858.880355031357
 30
0.0
 11
-13819.702351972583
 21
-6866.052726034995
 31
0.0
  0
LINE
  5
B1
100
AcDbEntity
  8
Frei
  6
CONTINUOUS
 62
           7
100
AcDbLine
 10
-13824.135218102072
 20
-6896.925862657932
 30
0.0
 11
-13825.019023251682
 21
-6896.896358512797
 31
0.0
  0
LINE
  5
B2
100
AcDbEntity
  8
Frei
  6
CONTINUOUS
 62
           7
100
AcDbLine
 10
-13823.43444251893
 20
-6851.090801496423
 30
0.0
 11
-13827.471168850398
 21
-6850.672791912535
 31
0.0
  0
LINE
  5
B3
100
AcDbEntity
  8
Frei
  6
CONTINUOUS
 62
           7
100
AcDbLine
 10
-13826.904386274235
 20
-6901.833157011992
 30
0.0
 11
-13830.960438217808
 21
-6901.697753472796
 31
0.0
  0
LINE
  5
B4
100
AcDbEntity
  8
Frei
  6
CONTINUOUS
 62
           7
100
AcDbLine
 10
-13824.527522738397
 20
-6889.708952739142
 30
0.0
 11
-13825.019023251682
 21
-6896.896358512797
 31
0.0
  0
LINE
  5
B5
100
AcDbEntity
  8
Frei
  6
CONTINUOUS
 62
           7
100
AcDbLine
 10
-13822.238679683636
 20
-6856.238298401737
 30
0.0
 11
-13822.730180196921
 21
-6863.425704175388
 31
0.0
  0
LINE
  5
B6
100
AcDbEntity
  8
Frei
  6
CONTINUOUS
 62
           7
100
AcDbLine
 10
-13822.002971883307
 20
-6852.791450312681
 30
0.0
 11
-13822.238679683636
 21
-6856.238298401737
 31
0.0
  0
LINE
  5
B7
100
AcDbEntity
  8
Frei
  6
CONTINUOUS
 62
           7
100
AcDbLine
 10
-13825.019023251682
 20
-6896.896358512797
 30
0.0
 11
-13825.254731052011
 21
-6900.343206601852
 31
0.0
  0
ARC
  5
B8
100
AcDbEntity
  8
Frei
  6
CONTINUOUS
 62
           7
100
AcDbCircle
 10
-13807.666131277823
 20
-6877.658916356126
 30
0.0
 40
9.6
100
AcDbArc
 50
267.087999999997
 51
85.088000000002
  0
ARC
  5
B9
100
AcDbEntity
  8
Frei
  6
CONTINUOUS
 62
           7
100
AcDbCircle
 10
-13807.666131277823
 20
-6877.658916356126
 30
0.0
 40
4.799999999999
100
AcDbArc
 50
176.087999999989
 51
356.08800000001
  0
ARC
  5
BA
100
AcDbEntity
  8
Frei
  6
CONTINUOUS
 62
           7
100
AcDbCircle
 10
-13807.666131277818
 20
-6877.658916356122
 30
0.0
 40
4.799999999996
100
AcDbArc
 50
356.087999999956
 51
66.291117282785
  0
ARC
  5
BB
100
AcDbEntity
  8
Frei
  6
CONTINUOUS
 62
           7
100
AcDbCircle
 10
-13807.666131277823
 20
-6877.658916356126
 30
0.0
 40
4.8
100
AcDbArc
 50
66.291117282759
 51
176.088
  0
ARC
  5
BC
100
AcDbEntity
  8
Frei
  6
CONTINUOUS
 62
           7
100
AcDbCircle
 10
-13820.362101939339
 20
-6887.426546813838
 30
0.0
 40
0.799999999992
100
AcDbArc
 50
87.087999999855
 51
130.515004001098
  0
ARC
  5
BD
100
AcDbEntity
  8
Frei
  6
CONTINUOUS
 62
           7
100
AcDbCircle
 10
-13820.36210193935
 20
-6887.426546813838
 30
0.0
 40
0.799999999986
100
AcDbArc
 50
130.515004000449
 51
176.088000000456
  0
ARC
  5
BE
100
AcDbEntity
  8
Frei
  6
CONTINUOUS
 62
           7
100
AcDbCircle
 10
-13821.968398896295
 20
-6887.463986644138
 30
0.0
 40
0.8
100
AcDbArc
 50
267.087999999976
 51
356.087999999999
  0
ARC
  5
BF
100
AcDbEntity
  8
Frei
  6
CONTINUOUS
 62
           7
100
AcDbCircle
 10
-13822.931250719414
 20
-6889.818111529028
 30
0.0
 40
1.599999999999
100
AcDbArc
 50
87.087999999911
 51
176.088
  0
ARC
  5
C0
100
AcDbEntity
  8
Frei
  6
CONTINUOUS
 62
           7
100
AcDbCircle
 10
-13818.914240901073
 20
-6866.25390405012
 30
0.0
 40
0.79999999999
100
AcDbArc
 50
176.087999999609
 51
221.660995999455
  0
ARC
  5
C1
100
AcDbEntity
  8
Frei
  6
CONTINUOUS
 62
           7
100
AcDbCircle
 10
-13818.914240901066
 20
-6866.253904050125
 30
0.0
 40
0.799999999992
100
AcDbArc
 50
221.660995998901
 51
265.088000000144
  0
ARC
  5
C2
100
AcDbEntity
  8
Frei
  6
CONTINUOUS
 62
           7
100
AcDbCircle
 10
-13821.133908177937
 20
-6863.534862965274
 30
0.0
 40
1.600000000001
100
AcDbArc
 50
176.088000000032
 51
265.088000000024
  0
ARC
  5
C3
100
AcDbEntity
  8
Frei
  6
CONTINUOUS
 62
           7
100
AcDbCircle
 10
-13820.500487982075
 20
-6865.998146640053
 30
0.0
 40
0.800000000001
100
AcDbArc
 50
356.088000000064
 51
85.087999999895
  0
ARC
  5
C4
100
AcDbEntity
  8
Frei
  6
CONTINUOUS
 62
           7
100
AcDbCircle
 10
-13826.851003070995
 20
-6900.234047811968
 30
0.0
 40
1.599999999998
100
AcDbArc
 50
268.087999999915
 51
356.088000000064
  0
ARC
  5
C5
100
AcDbEntity
  8
Frei
  6
CONTINUOUS
 62
           7
100
AcDbCircle
 10
-13824.055143297215
 20
-6894.527198857892
 30
0.0
 40
2.400000000001
100
AcDbArc
 50
268.087999999977
 51
356.087999999999
  0
ARC
  5
C6
100
AcDbEntity
  8
Frei
  6
CONTINUOUS
 62
           7
100
AcDbCircle
 10
-13821.606287619121
 20
-6858.716616846528
 30
0.0
 40
2.399999999999
100
AcDbArc
 50
356.087999999999
 51
84.087999999979
  0
ARC
  5
C7
100
AcDbEntity
  8
Frei
  6
CONTINUOUS
 62
           7
100
AcDbCircle
 10
-13823.59924390229
 20
-6852.682291522793
 30
0.0
 40
1.599999999998
100
AcDbArc
 50
356.087999999934
 51
84.088000000085
  0
LINE
  5
C8
100
AcDbEntity
  8
Frei
  6
CONTINUOUS
 62
           7
100
AcDbLine
 10
-14157.480465965222
 20
-6859.751373581912
 30
0.0
 11
-14157.439531419015
 21
-6859.152771574793
 31
0.0
  0
LINE
  5
C9
100
AcDbEntity
  8
Frei
  6
CONTINUOUS
 62
           7
100
AcDbLine
 10
-14157.439531419015
 20
-6859.152771574793
 30
0.0
 11
-14156.702709587285
 21
-6848.377935446653
 31
0.0
  0
LINE
  5
CA
100
AcDbEntity
  8
Frei
  6
CONTINUOUS
 62
           7
100
AcDbLine
 10
-14156.702709587285
 20
-6848.377935446653
 30
0.0
 11
-14156.661775041079
 21
-6847.779333439534
 31
0.0
  0
LINE
  5
CB
100
AcDbEntity
  8
Frei
  6
CONTINUOUS
 62
           7
100
AcDbLine
 10
-14156.661775041079
 20
-6847.779333439534
 30
0.0
 11
-14156.436635036938
 21
-6844.487022400381
 31
0.0
  0
LINE
  5
CC
100
AcDbEntity
  8
Frei
  6
CONTINUOUS
 62
           7
100
AcDbLine
 10
-14181.833891712053
 20
-6864.100011804812
 30
0.0
 11
-14180.532758459321
 21
-6864.188987950269
 31
0.0
  0
LINE
  5
CD
100
AcDbEntity
  8
Frei
  6
CONTINUOUS
 62
           7
100
AcDbLine
 10
-14178.895376611033
 20
-6840.244907665512
 30
0.0
 11
-14180.196509863765
 21
-6840.155931520056
 31
0.0
  0
LINE
  5
CE
100
AcDbEntity
  8
Frei
  6
CONTINUOUS
 62
           7
100
AcDbLine
 10
-14180.532758459321
 20
-6864.188987950269
 30
0.0
 11
-14176.745774651541
 21
-6864.447955447575
 31
0.0
  0
LINE
  5
CF
100
AcDbEntity
  8
Frei
  6
CONTINUOUS
 62
           7
100
AcDbLine
 10
-14175.108392803253
 20
-6840.503875162818
 30
0.0
 11
-14178.895376611033
 21
-6840.244907665512
 31
0.0
  0
LINE
  5
D0
100
AcDbEntity
  8
Frei
  6
CONTINUOUS
 62
           7
100
AcDbLine
 10
-14215.649610027018
 20
-6837.731521729305
 30
0.0
 11
-14180.196509863765
 21
-6840.155931520056
 31
0.0
  0
LINE
  5
D1
100
AcDbEntity
  8
Frei
  6
CONTINUOUS
 62
           7
100
AcDbLine
 10
-14217.286991875306
 20
-6861.675602014062
 30
0.0
 11
-14181.833891712053
 21
-6864.100011804812
 31
0.0
  0
LINE
  5
D2
100
AcDbEntity
  8
Frei
  6
CONTINUOUS
 62
           7
100
AcDbLine
 10
-14174.333293431197
 20
-6842.361083003485
 30
0.0
 11
-14175.725068002241
 21
-6862.713551245528
 31
0.0
  0
LINE
  5
D3
100
AcDbEntity
  8
Frei
  6
CONTINUOUS
 62
           7
100
AcDbLine
 10
-14157.273136228307
 20
-6843.527717570392
 30
0.0
 11
-14159.987177324456
 21
-6843.342121733194
 31
0.0
  0
LINE
  5
D4
100
AcDbEntity
  8
Frei
  6
CONTINUOUS
 62
           7
100
AcDbLine
 10
-14157.705605969362
 20
-6863.043684621067
 30
0.0
 11
-14157.480465965222
 21
-6859.751373581912
 31
0.0
  0
LINE
  5
D5
100
AcDbEntity
  8
Frei
  6
CONTINUOUS
 62
           7
100
AcDbLine
 10
-14174.82716499156
 20
-6862.77495306484
 30
0.0
 11
-14172.99091454245
 21
-6862.900522438085
 31
0.0
  0
LINE
  5
D6
100
AcDbEntity
  8
Frei
  6
CONTINUOUS
 62
           7
100
AcDbLine
 10
-14171.517270878991
 20
-6841.350850181805
 30
0.0
 11
-14171.599139971406
 21
-6842.548054196042
 31
0.0
  0
LINE
  5
D7
100
AcDbEntity
  8
Frei
  6
CONTINUOUS
 62
           7
100
AcDbLine
 10
-14171.599139971406
 20
-6842.548054196042
 30
0.0
 11
-14173.435390420516
 21
-6842.422484822797
 31
0.0
  0
LINE
  5
D8
100
AcDbEntity
  8
Frei
  6
CONTINUOUS
 62
           7
100
AcDbLine
 10
-14171.599139971406
 20
-6842.548054196042
 30
0.0
 11
-14172.99091454245
 21
-6862.900522438085
 31
0.0
  0
LINE
  5
D9
100
AcDbEntity
  8
Frei
  6
CONTINUOUS
 62
           7
100
AcDbLine
 10
-14172.99091454245
 20
-6862.900522438085
 30
0.0
 11
-14173.072783634865
 21
-6864.097726452323
 31
0.0
  0
LINE
  5
DA
100
AcDbEntity
  8
Frei
  6
CONTINUOUS
 62
           7
100
AcDbLine
 10
-14161.460820987915
 20
-6864.891793989476
 30
0.0
 11
-14161.3789518955
 21
-6863.694589975237
 31
0.0
  0
LINE
  5
DB
100
AcDbEntity
  8
Frei
  6
CONTINUOUS
 62
           7
100
AcDbLine
 10
-14161.3789518955
 20
-6863.694589975237
 30
0.0
 11
-14158.664910799351
 21
-6863.880185812435
 31
0.0
  0
LINE
  5
DC
100
AcDbEntity
  8
Frei
  6
CONTINUOUS
 62
           7
100
AcDbLine
 10
-14161.3789518955
 20
-6863.694589975237
 30
0.0
 11
-14159.987177324456
 21
-6843.342121733194
 31
0.0
  0
LINE
  5
DD
100
AcDbEntity
  8
Frei
  6
CONTINUOUS
 62
           7
100
AcDbLine
 10
-14159.987177324456
 20
-6843.342121733194
 30
0.0
 11
-14159.905308232041
 21
-6842.144917718957
 31
0.0
  0
LINE
  5
DE
100
AcDbEntity
  8
Frei
  6
CONTINUOUS
 62
           7
100
AcDbLine
 10
-14171.517270878991
 20
-6841.350850181805
 30
0.0
 11
-14159.905308232041
 21
-6842.144917718957
 31
0.0
  0
LINE
  5
DF
100
AcDbEntity
  8
Frei
  6
CONTINUOUS
 62
           7
100
AcDbLine
 10
-14173.072783634865
 20
-6864.097726452323
 30
0.0
 11
-14161.460820987915
 21
-6864.891793989476
 31
0.0
  0
ARC
  5
E0
100
AcDbEntity
  8
Frei
  6
CONTINUOUS
 62
           7
100
AcDbCircle
 10
-14196.74457325655
 20
-6851.052340915343
 30
0.0
 40
20.866107311614
100
AcDbArc
 50
320.981694434247
 51
31.194305565753
  0
ARC
  5
E1
100
AcDbEntity
  8
Frei
  6
CONTINUOUS
 62
           7
100
AcDbCircle
 10
-14186.877154953312
 20
-6851.727110270735
 30
0.0
 40
29.660254037844
100
AcDbArc
 50
152.22307458395
 51
199.95292541605
  0
ARC
  5
E2
100
AcDbEntity
  8
Frei
  6
CONTINUOUS
 62
           7
100
AcDbCircle
 10
-14197.460134304049
 20
-6851.003408291639
 30
0.0
 40
22.516660498395
100
AcDbArc
 50
143.883772496028
 51
208.292227503973
  0
CIRCLE
  5
E3
100
AcDbEntity
  8
Frei
  6
CONTINUOUS
 62
           7
100
AcDbCircle
 10
-14204.959281072666
 20
-6850.490589814146
 30
0.0
 40
5.1
  0
ARC
  5
E4
100
AcDbEntity
  8
Frei
  6
CONTINUOUS
 62
           7
100
AcDbCircle
 10
-14175.169794622563
 20
-6841.401778173495
 30
0.0
 40
0.9
100
AcDbArc
 50
356.087999999999
 51
86.088
  0
ARC
  5
E5
100
AcDbEntity
  8
Frei
  6
CONTINUOUS
 62
           7
100
AcDbCircle
 10
-14173.373988601204
 20
-6841.524581812117
 30
0.0
 40
0.9
100
AcDbArc
 50
176.088
 51
266.087999999999
  0
ARC
  5
E6
100
AcDbEntity
  8
Frei
  6
CONTINUOUS
 62
           7
100
AcDbCircle
 10
-14157.334538047617
 20
-6844.425620581071
 30
0.0
 40
0.9
100
AcDbArc
 50
356.087999999999
 51
86.088
  0
ARC
  5
E7
100
AcDbEntity
  8
Frei
  6
CONTINUOUS
 62
           7
100
AcDbCircle
 10
-14158.603508980041
 20
-6862.982282801757
 30
0.0
 40
0.9
100
AcDbArc
 50
266.087999999999
 51
356.087999999999
  0
ARC
  5
E8
100
AcDbEntity
  8
Frei
  6
CONTINUOUS
 62
           7
100
AcDbCircle
 10
-14174.888566810872
 20
-6863.672856075518
 30
0.0
 40
0.9
100
AcDbArc
 50
86.088
 51
176.088
  0
ARC
  5
E9
100
AcDbEntity
  8
Frei
  6
CONTINUOUS
 62
           7
100
AcDbCircle
 10
-14176.684372832231
 20
-6863.550052436896
 30
0.0
 40
0.9
100
AcDbArc
 50
266.087999999999
 51
356.087999999999
  0
LINE
  5
EA
100
AcDbEntity
  8
Frei
  6
CONTINUOUS
 62
           7
100
AcDbLine
 10
-13899.186512850092
 20
-6891.146252979994
 30
0.0
 11
-13895.694667808566
 21
-6891.38503783287
 31
0.0
  0
LINE
  5
EB
100
AcDbEntity
  8
Frei
  6
CONTINUOUS
 62
           7
100
AcDbLine
 10
-13899.050064362735
 20
-6889.150912956264
 30
0.0
 11
-13899.186512850092
 21
-6891.146252979994
 31
0.0
  0
LINE
  5
EC
100
AcDbEntity
  8
Frei
  6
CONTINUOUS
 62
           7
100
AcDbLine
 10
-13894.048867481753
 20
-6881.975396963831
 30
0.0
 11
-13894.628773553022
 21
-6890.455592064684
 31
0.0
  0
LINE
  5
ED
100
AcDbEntity
  8
Frei
  6
CONTINUOUS
 62
           7
100
AcDbLine
 10
-13898.538382535146
 20
-6881.668387867278
 30
0.0
 11
-13894.048867481753
 21
-6881.975396963831
 31
0.0
  0
LINE
  5
EE
100
AcDbEntity
  8
Frei
  6
CONTINUOUS
 62
           7
100
AcDbLine
 10
-13898.572494656984
 20
-6882.16722287321
 30
0.0
 11
-13898.538382535146
 21
-6881.668387867278
 31
0.0
  0
LINE
  5
EF
100
AcDbEntity
  8
Frei
  6
CONTINUOUS
 62
           7
100
AcDbLine
 10
-13895.062917460826
 20
-6882.853346303493
 30
0.0
 11
-13898.572494656984
 21
-6882.16722287321
 31
0.0
  0
LINE
  5
F0
100
AcDbEntity
  8
Frei
  6
CONTINUOUS
 62
           7
100
AcDbLine
 10
-13894.800476654327
 20
-6885.432173244211
 30
0.0
 11
-13894.660016483407
 21
-6883.378168790183
 31
0.0
  0
LINE
  5
F1
100
AcDbEntity
  8
Frei
  6
CONTINUOUS
 62
           7
100
AcDbLine
 10
-13899.050064362735
 20
-6889.150912956264
 30
0.0
 11
-13898.572494656984
 21
-6882.16722287321
 31
0.0
  0
LINE
  5
F2
100
AcDbEntity
  8
Frei
  6
CONTINUOUS
 62
           7
100
AcDbLine
 10
-13895.479755784045
 20
-6888.948937437193
 30
0.0
 11
-13899.050064362735
 21
-6889.150912956264
 31
0.0
  0
LINE
  5
F3
100
AcDbEntity
  8
Frei
  6
CONTINUOUS
 62
           7
100
AcDbLine
 10
-13894.868700898007
 20
-6886.429843256075
 30
0.0
 11
-13895.009161068927
 21
-6888.483847710102
 31
0.0
  0
LINE
  5
F4
100
AcDbEntity
  8
Frei
  6
CONTINUOUS
 62
           2
100
AcDbLine
 10
-13896.417209892425
 20
-6885.822782957808
 30
0.0
 11
-13893.64682560411
 21
-6886.012231744002
 31
0.0
  0
LINE
  5
F5
100
AcDbEntity
  8
Frei
  6
CONTINUOUS
 62
           7
100
AcDbLine
 10
-13896.383097770584
 20
-6885.323947951878
 30
0.0
 11
-13894.800476654327
 21
-6885.432173244211
 31
0.0
  0
LINE
  5
F6
100
AcDbEntity
  8
Frei
  6
CONTINUOUS
 62
           7
100
AcDbLine
 10
-13896.417209892425
 20
-6885.822782957808
 30
0.0
 11
-13896.383097770584
 21
-6885.323947951878
 31
0.0
  0
LINE
  5
F7
100
AcDbEntity
  8
Frei
  6
CONTINUOUS
 62
           7
100
AcDbLine
 10
-13896.451322014263
 20
-6886.321617963742
 30
0.0
 11
-13896.417209892425
 21
-6885.822782957808
 31
0.0
  0
LINE
  5
F8
100
AcDbEntity
  8
Frei
  6
CONTINUOUS
 62
           7
100
AcDbLine
 10
-13894.868700898007
 20
-6886.429843256075
 30
0.0
 11
-13896.451322014263
 21
-6886.321617963742
 31
0.0
  0
LINE
  5
F9
100
AcDbEntity
  8
Frei
  6
CONTINUOUS
 62
           7
100
AcDbLine
 10
-14038.361479505245
 20
-6881.628970986814
 30
0.0
 11
-14036.110079463848
 21
-6848.705860595273
 31
0.0
  0
LINE
  5
FA
100
AcDbEntity
  8
Frei
  6
CONTINUOUS
 62
           7
100
AcDbLine
 10
-14052.328859671354
 20
-6880.673831575312
 30
0.0
 11
-14038.361479505245
 21
-6881.628970986814
 31
0.0
  0
LINE
  5
FB
100
AcDbEntity
  8
Frei
  6
CONTINUOUS
 62
           7
100
AcDbLine
 10
-14046.086779582496
 20
-6848.023618158486
 30
0.0
 11
-14036.60891446978
 21
-6848.671748473435
 31
0.0
  0
LINE
  5
FC
100
AcDbEntity
  8
Frei
  6
CONTINUOUS
 62
           7
100
AcDbLine
 10
-14046.223228069854
 20
-6850.018958182216
 30
0.0
 11
-14046.086779582496
 21
-6848.023618158486
 31
0.0
  0
LINE
  5
FD
100
AcDbEntity
  8
Frei
  6
CONTINUOUS
 62
           7
100
AcDbLine
 10
-14046.700797775606
 20
-6857.00264826527
 30
0.0
 11
-14046.734909897445
 21
-6857.501483271202
 31
0.0
  0
LINE
  5
FE
100
AcDbEntity
  8
Frei
  6
CONTINUOUS
 62
           7
100
AcDbLine
 10
-14051.723259956769
 20
-6857.160362052809
 30
0.0
 11
-14051.1433538855
 21
-6848.680166951957
 31
0.0
  0
LINE
  5
FF
100
AcDbEntity
  8
Frei
  6
CONTINUOUS
 62
           7
100
AcDbLine
 10
-14046.734909897445
 20
-6857.501483271202
 30
0.0
 11
-14051.723259956769
 21
-6857.160362052809
 31
0.0
  0
LINE
  5
100
100
AcDbEntity
  8
Frei
  6
CONTINUOUS
 62
           7
100
AcDbLine
 10
-14050.077459629956
 20
-6847.750721183771
 30
0.0
 11
-14046.086779582496
 21
-6848.023618158486
 31
0.0
  0
LINE
  5
101
100
AcDbEntity
  8
Frei
  6
CONTINUOUS
 62
           7
100
AcDbLine
 10
-14050.210374971763
 20
-6856.316524834987
 30
0.0
 11
-14046.700797775606
 21
-6857.00264826527
 31
0.0
  0
LINE
  5
102
100
AcDbEntity
  8
Frei
  6
CONTINUOUS
 62
           7
100
AcDbLine
 10
-14050.472815778261
 20
-6853.737697894268
 30
0.0
 11
-14050.613275949181
 21
-6855.791702348297
 31
0.0
  0
LINE
  5
103
100
AcDbEntity
  8
Frei
  6
CONTINUOUS
 62
           7
100
AcDbLine
 10
-14046.223228069854
 20
-6850.018958182216
 30
0.0
 11
-14046.700797775606
 21
-6857.00264826527
 31
0.0
  0
LINE
  5
104
100
AcDbEntity
  8
Frei
  6
CONTINUOUS
 62
           7
100
AcDbLine
 10
-14049.793536648544
 20
-6850.220933701286
 30
0.0
 11
-14046.223228069854
 21
-6850.018958182216
 31
0.0
  0
LINE
  5
105
100
AcDbEntity
  8
Frei
  6
CONTINUOUS
 62
           7
100
AcDbLine
 10
-14050.404591534583
 20
-6852.740027882404
 30
0.0
 11
-14050.264131363661
 21
-6850.686023428378
 31
0.0
  0
LINE
  5
106
100
AcDbEntity
  8
Frei
  6
CONTINUOUS
 62
           2
100
AcDbLine
 10
-14048.856082540166
 20
-6853.34708818067
 30
0.0
 11
-14051.62646682848
 21
-6853.157639394476
 31
0.0
  0
LINE
  5
107
100
AcDbEntity
  8
Frei
  6
CONTINUOUS
 62
           7
100
AcDbLine
 10
-14048.890194662004
 20
-6853.845923186602
 30
0.0
 11
-14050.472815778261
 21
-6853.737697894268
 31
0.0
  0
LINE
  5
108
100
AcDbEntity
  8
Frei
  6
CONTINUOUS
 62
           7
100
AcDbLine
 10
-14048.856082540166
 20
-6853.34708818067
 30
0.0
 11
-14048.890194662004
 21
-6853.845923186602
 31
0.0
  0
LINE
  5
109
100
AcDbEntity
  8
Frei
  6
CONTINUOUS
 62
           7
100
AcDbLine
 10
-14048.821970418327
 20
-6852.848253174738
 30
0.0
 11
-14048.856082540166
 21
-6853.34708818067
 31
0.0
  0
LINE
  5
10A
100
AcDbEntity
  8
Frei
  6
CONTINUOUS
 62
           7
100
AcDbLine
 10
-14050.404591534583
 20
-6852.740027882404
 30
0.0
 11
-14048.821970418327
 21
-6852.848253174738
 31
0.0
  0
LINE
  5
10B
100
AcDbEntity
  8
Frei
  6
CONTINUOUS
 62
           7
100
AcDbLine
 10
-14012.647199200899
 20
-6886.695112361615
 30
0.0
 11
-14012.681311322738
 21
-6887.193947367547
 31
0.0
  0
LINE
  5
10C
100
AcDbEntity
  8
Frei
  6
CONTINUOUS
 62
           7
100
AcDbLine
 10
-14012.681311322738
 20
-6887.193947367547
 30
0.0
 11
-13935.86072040914
 21
-6892.447214130809
 31
0.0
  0
LINE
  5
10D
100
AcDbEntity
  8
Frei
  6
CONTINUOUS
 62
           7
100
AcDbLine
 10
-13935.86072040914
 20
-6892.447214130809
 30
0.0
 11
-13932.65418095624
 21
-6845.55672357316
 31
0.0
  0
LINE
  5
10E
100
AcDbEntity
  8
Frei
  6
CONTINUOUS
 62
           7
100
AcDbLine
 10
-13932.65418095624
 20
-6845.55672357316
 30
0.0
 11
-14009.474771869838
 21
-6840.303456809899
 31
0.0
  0
LINE
  5
10F
100
AcDbEntity
  8
Frei
  6
CONTINUOUS
 62
           7
100
AcDbLine
 10
-14036.60891446978
 20
-6848.671748473435
 30
0.0
 11
-14036.110079463848
 21
-6848.705860595273
 31
0.0
  0
LINE
  5
110
100
AcDbEntity
  8
Frei
  6
CONTINUOUS
 62
           7
100
AcDbLine
 10
-14010.472441881702
 20
-6840.23523256622
 30
0.0
 11
-14035.913027184257
 21
-6838.495514352413
 31
0.0
  0
LINE
  5
111
100
AcDbEntity
  8
Frei
  6
CONTINUOUS
 62
           7
100
AcDbLine
 10
-14038.620731631225
 20
-6885.420117031901
 30
0.0
 11
-14038.361479505245
 21
-6881.628970986814
 31
0.0
  0
LINE
  5
112
100
AcDbEntity
  8
Frei
  6
CONTINUOUS
 62
           7
100
AcDbLine
 10
-14036.60891446978
 20
-6848.671748473435
 30
0.0
 11
-14035.913027184257
 21
-6838.495514352413
 31
0.0
  0
LINE
  5
113
100
AcDbEntity
  8
Frei
  6
CONTINUOUS
 62
           7
100
AcDbLine
 10
-14012.647199200899
 20
-6886.695112361615
 30
0.0
 11
-14013.644869212763
 21
-6886.626888117935
 31
0.0
  0
LINE
  5
114
100
AcDbEntity
  8
Frei
  6
CONTINUOUS
 62
           7
100
AcDbLine
 10
-14009.508883991679
 20
-6840.802291815829
 30
0.0
 11
-14012.647199200899
 21
-6886.695112361615
 31
0.0
  0
LINE
  5
115
100
AcDbEntity
  8
Frei
  6
CONTINUOUS
 62
           7
100
AcDbLine
 10
-14009.508883991679
 20
-6840.802291815829
 30
0.0
 11
-14010.506554003543
 21
-6840.734067572152
 31
0.0
  0
LINE
  5
116
100
AcDbEntity
  8
Frei
  6
CONTINUOUS
 62
           7
100
AcDbLine
 10
-14009.474771869838
 20
-6840.303456809899
 30
0.0
 11
-14009.508883991679
 21
-6840.802291815829
 31
0.0
  0
LINE
  5
117
100
AcDbEntity
  8
Frei
  6
CONTINUOUS
 62
           7
100
AcDbLine
 10
-14013.644869212763
 20
-6886.626888117935
 30
0.0
 11
-14010.472441881702
 21
-6840.23523256622
 31
0.0
  0
LINE
  5
118
100
AcDbEntity
  8
Frei
  6
CONTINUOUS
 62
           7
100
AcDbLine
 10
-14013.678981334602
 20
-6887.125723123869
 30
0.0
 11
-14013.644869212763
 21
-6886.626888117935
 31
0.0
  0
LINE
  5
119
100
AcDbEntity
  8
Frei
  6
CONTINUOUS
 62
           7
100
AcDbLine
 10
-14038.620731631225
 20
-6885.420117031901
 30
0.0
 11
-14013.678981334602
 21
-6887.125723123869
 31
0.0
  0
LINE
  5
11A
100
AcDbEntity
  8
Frei
  6
CONTINUOUS
 62
           7
100
AcDbLine
 10
-13934.863050397274
 20
-6892.515438374487
 30
0.0
 11
-13909.921300100654
 21
-6894.221044466454
 31
0.0
  0
LINE
  5
11B
100
AcDbEntity
  8
Frei
  6
CONTINUOUS
 62
           7
100
AcDbLine
 10
-13934.828938275436
 20
-6892.016603368555
 30
0.0
 11
-13934.863050397274
 21
-6892.515438374487
 31
0.0
  0
LINE
  5
11C
100
AcDbEntity
  8
Frei
  6
CONTINUOUS
 62
           7
100
AcDbLine
 10
-13931.656510944375
 20
-6845.624947816839
 30
0.0
 11
-13934.828938275436
 21
-6892.016603368555
 31
0.0
  0
LINE
  5
11D
100
AcDbEntity
  8
Frei
  6
CONTINUOUS
 62
           7
100
AcDbLine
 10
-13931.690623066215
 20
-6846.12378282277
 30
0.0
 11
-13932.688293078081
 21
-6846.055558579092
 31
0.0
  0
LINE
  5
11E
100
AcDbEntity
  8
Frei
  6
CONTINUOUS
 62
           7
100
AcDbLine
 10
-13934.828938275436
 20
-6892.016603368555
 30
0.0
 11
-13935.826608287301
 21
-6891.948379124875
 31
0.0
  0
LINE
  5
11F
100
AcDbEntity
  8
Frei
  6
CONTINUOUS
 62
           7
100
AcDbLine
 10
-13906.21592564182
 20
-6847.364666030646
 30
0.0
 11
-13906.911812927343
 21
-6857.540900151666
 31
0.0
  0
LINE
  5
120
100
AcDbEntity
  8
Frei
  6
CONTINUOUS
 62
           7
100
AcDbLine
 10
-13906.21592564182
 20
-6847.364666030646
 30
0.0
 11
-13931.656510944375
 21
-6845.624947816839
 31
0.0
  0
LINE
  5
121
100
AcDbEntity
  8
Frei
  6
CONTINUOUS
 62
           7
100
AcDbLine
 10
-13907.410647933277
 20
-6857.506788029827
 30
0.0
 11
-13906.911812927343
 21
-6857.540900151666
 31
0.0
  0
LINE
  5
122
100
AcDbEntity
  8
Frei
  6
CONTINUOUS
 62
           7
100
AcDbLine
 10
-13907.410647933277
 20
-6857.506788029827
 30
0.0
 11
-13909.921300100654
 21
-6894.221044466454
 31
0.0
  0
LINE
  5
123
100
AcDbEntity
  8
Frei
  6
CONTINUOUS
 62
           7
100
AcDbLine
 10
-14082.945192599476
 20
-6852.018288341335
 30
0.0
 11
-14084.940532623204
 21
-6851.881839853977
 31
0.0
  0
LINE
  5
124
100
AcDbEntity
  8
Frei
  6
CONTINUOUS
 62
           7
100
AcDbLine
 10
-14083.243783217507
 20
-6871.042242810447
 30
0.0
 11
-14082.01574683129
 21
-6853.084182596878
 31
0.0
  0
LINE
  5
125
100
AcDbEntity
  8
Frei
  6
CONTINUOUS
 62
           7
100
AcDbLine
 10
-14086.305017496779
 20
-6871.835240091274
 30
0.0
 11
-14084.309677473051
 21
-6871.971688578631
 31
0.0
  0
LINE
  5
126
100
AcDbEntity
  8
Frei
  6
CONTINUOUS
 62
           7
100
AcDbLine
 10
-14086.893342046573
 20
-6865.780995776406
 30
0.0
 11
-14087.234463264967
 21
-6870.769345835732
 31
0.0
  0
LINE
  5
127
100
AcDbEntity
  8
Frei
  6
CONTINUOUS
 62
           7
100
AcDbLine
 10
-14084.940532623204
 20
-6851.881839853977
 30
0.0
 11
-14086.00642687875
 21
-6852.811285622163
 31
0.0
  0
LINE
  5
128
100
AcDbEntity
  8
Frei
  6
CONTINUOUS
 62
           7
100
AcDbLine
 10
-14082.945192599476
 20
-6852.018288341335
 30
0.0
 11
-14082.01574683129
 21
-6853.084182596878
 31
0.0
  0
LINE
  5
129
100
AcDbEntity
  8
Frei
  6
CONTINUOUS
 62
           7
100
AcDbLine
 10
-14083.243783217507
 20
-6871.042242810447
 30
0.0
 11
-14084.309677473051
 21
-6871.971688578631
 31
0.0
  0
LINE
  5
12A
100
AcDbEntity
  8
Frei
  6
CONTINUOUS
 62
           7
100
AcDbLine
 10
-14086.305017496779
 20
-6871.835240091274
 30
0.0
 11
-14087.234463264967
 21
-6870.769345835732
 31
0.0
  0
LINE
  5
12B
100
AcDbEntity
  8
Frei
  6
CONTINUOUS
 62
           7
100
AcDbLine
 10
-14086.305017496779
 20
-6871.835240091274
 30
0.0
 11
-14084.940532623204
 21
-6851.881839853977
 31
0.0
  0
LINE
  5
12C
100
AcDbEntity
  8
Frei
  6
CONTINUOUS
 62
           7
100
AcDbLine
 10
-14084.309677473051
 20
-6871.971688578631
 30
0.0
 11
-14082.945192599476
 21
-6852.018288341335
 31
0.0
  0
LINE
  5
12D
100
AcDbEntity
  8
Frei
  6
CONTINUOUS
 62
           7
100
AcDbLine
 10
-14083.755465045097
 20
-6878.524767899433
 30
0.0
 11
-14083.243783217507
 21
-6871.042242810447
 31
0.0
  0
LINE
  5
12E
100
AcDbEntity
  8
Frei
  6
CONTINUOUS
 62
           7
100
AcDbLine
 10
-14054.174904386069
 20
-6871.025405853399
 30
0.0
 11
-14054.823034701016
 21
-6880.503270966116
 31
0.0
  0
LINE
  5
12F
100
AcDbEntity
  8
Frei
  6
CONTINUOUS
 62
           7
100
AcDbLine
 10
-14087.413442352687
 20
-6858.729081449674
 30
0.0
 11
-14086.347548097143
 21
-6857.799635681487
 31
0.0
  0
LINE
  5
130
100
AcDbEntity
  8
Frei
  6
CONTINUOUS
 62
           7
100
AcDbLine
 10
-14086.00642687875
 20
-6852.811285622163
 30
0.0
 11
-14086.347548097143
 21
-6857.799635681487
 31
0.0
  0
LINE
  5
131
100
AcDbEntity
  8
Frei
  6
CONTINUOUS
 62
           7
100
AcDbLine
 10
-14087.447554474526
 20
-6859.227916455606
 30
0.0
 11
-14087.413442352687
 21
-6858.729081449674
 31
0.0
  0
LINE
  5
132
100
AcDbEntity
  8
Frei
  6
CONTINUOUS
 62
           7
100
AcDbLine
 10
-14086.893342046573
 20
-6865.780995776406
 30
0.0
 11
-14087.822787814759
 21
-6864.715101520862
 31
0.0
  0
LINE
  5
133
100
AcDbEntity
  8
Frei
  6
CONTINUOUS
 62
           7
100
AcDbLine
 10
-14086.825117802895
 20
-6864.783325764542
 30
0.0
 11
-14086.893342046573
 21
-6865.780995776406
 31
0.0
  0
LINE
  5
134
100
AcDbEntity
  8
Frei
  6
CONTINUOUS
 62
           2
100
AcDbLine
 10
-14086.415772340823
 20
-6858.797305693352
 30
0.0
 11
-14087.413442352687
 21
-6858.729081449674
 31
0.0
  0
LINE
  5
135
100
AcDbEntity
  8
Frei
  6
CONTINUOUS
 62
           7
100
AcDbLine
 10
-14086.347548097143
 20
-6857.799635681487
 30
0.0
 11
-14086.415772340823
 21
-6858.797305693352
 31
0.0
  0
LINE
  5
136
100
AcDbEntity
  8
Frei
  6
CONTINUOUS
 62
           2
100
AcDbLine
 10
-14086.825117802895
 20
-6864.783325764542
 30
0.0
 11
-14087.822787814759
 21
-6864.715101520862
 31
0.0
  0
LINE
  5
137
100
AcDbEntity
  8
Frei
  6
CONTINUOUS
 62
           7
100
AcDbLine
 10
-14086.415772340823
 20
-6858.797305693352
 30
0.0
 11
-14086.825117802895
 21
-6864.783325764542
 31
0.0
  0
LINE
  5
138
100
AcDbEntity
  8
Frei
  6
CONTINUOUS
 62
           1
100
AcDbLine
 10
-14084.965001359784
 20
-6859.397682316694
 30
0.0
 11
-14087.447554474526
 21
-6859.227916455606
 31
0.0
  0
LINE
  5
139
100
AcDbEntity
  8
Frei
  6
CONTINUOUS
 62
           7
100
AcDbLine
 10
-14087.481666596364
 20
-6859.726751461538
 30
0.0
 11
-14087.447554474526
 21
-6859.227916455606
 31
0.0
  0
LINE
  5
13A
100
AcDbEntity
  8
Frei
  6
CONTINUOUS
 62
           1
100
AcDbLine
 10
-14085.306122578177
 20
-6864.386032376018
 30
0.0
 11
-14087.788675692918
 21
-6864.21626651493
 31
0.0
  0
LINE
  5
13B
100
AcDbEntity
  8
Frei
  6
CONTINUOUS
 62
           7
100
AcDbLine
 10
-14087.822787814759
 20
-6864.715101520862
 30
0.0
 11
-14087.788675692918
 21
-6864.21626651493
 31
0.0
  0
LINE
  5
13C
100
AcDbEntity
  8
Frei
  6
CONTINUOUS
 62
           1
100
AcDbLine
 10
-14084.999113481623
 20
-6859.896517322626
 30
0.0
 11
-14087.481666596364
 21
-6859.726751461538
 31
0.0
  0
LINE
  5
13D
100
AcDbEntity
  8
Frei
  6
CONTINUOUS
 62
           7
100
AcDbLine
 10
-14087.754563571079
 20
-6863.717431508998
 30
0.0
 11
-14087.481666596364
 21
-6859.726751461538
 31
0.0
  0
LINE
  5
13E
100
AcDbEntity
  8
Frei
  6
CONTINUOUS
 62
           1
100
AcDbLine
 10
-14085.272010456338
 20
-6863.887197370086
 30
0.0
 11
-14087.754563571079
 21
-6863.717431508998
 31
0.0
  0
LINE
  5
13F
100
AcDbEntity
  8
Frei
  6
CONTINUOUS
 62
           7
100
AcDbLine
 10
-14087.788675692918
 20
-6864.21626651493
 30
0.0
 11
-14087.754563571079
 21
-6863.717431508998
 31
0.0
  0
LINE
  5
140
100
AcDbEntity
  8
Frei
  6
CONTINUOUS
 62
           7
100
AcDbLine
 10
-14079.915750572747
 20
-6850.667119736396
 30
0.0
 11
-14052.844531634333
 21
-6851.570840622033
 31
0.0
  0
LINE
  5
141
100
AcDbEntity
  8
Frei
  6
CONTINUOUS
 62
           7
100
AcDbLine
 10
-14081.977819600525
 20
-6852.529557749072
 30
0.0
 11
-14082.01574683129
 21
-6853.084182596878
 31
0.0
  0
LINE
  5
142
100
AcDbEntity
  8
Frei
  6
CONTINUOUS
 62
           7
100
AcDbLine
 10
-14054.823034701016
 20
-6880.503270966116
 30
0.0
 11
-14083.755465045097
 21
-6878.524767899433
 31
0.0
  0
LINE
  5
143
100
AcDbEntity
  8
Frei
  6
CONTINUOUS
 62
           7
100
AcDbLine
 10
-14083.823689288776
 20
-6879.522437911297
 30
0.0
 11
-14083.755465045097
 21
-6878.524767899433
 31
0.0
  0
LINE
  5
144
100
AcDbEntity
  8
Frei
  6
CONTINUOUS
 62
           7
100
AcDbLine
 10
-14083.324854282844
 20
-6879.556550033138
 30
0.0
 11
-14083.823689288776
 21
-6879.522437911297
 31
0.0
  0
LINE
  5
145
100
AcDbEntity
  8
Frei
  6
CONTINUOUS
 62
           7
100
AcDbLine
 10
-14054.823034701016
 20
-6880.503270966116
 30
0.0
 11
-14054.891258944695
 21
-6881.50094097798
 31
0.0
  0
LINE
  5
146
100
AcDbEntity
  8
Frei
  6
CONTINUOUS
 62
           7
100
AcDbLine
 10
-14094.687304575247
 20
-6891.809905628754
 30
0.0
 11
-14084.211769450667
 21
-6892.52626018738
 31
0.0
  0
LINE
  5
147
100
AcDbEntity
  8
Frei
  6
CONTINUOUS
 62
           7
100
AcDbLine
 10
-14097.275397491905
 20
-6907.670289453074
 30
0.0
 11
-14097.309509613744
 21
-6908.169124459006
 31
0.0
  0
LINE
  5
148
100
AcDbEntity
  8
Frei
  6
CONTINUOUS
 62
           7
100
AcDbLine
 10
-14095.915340961465
 20
-6909.767965842322
 30
0.0
 11
-14085.439805836884
 21
-6910.484320400949
 31
0.0
  0
LINE
  5
149
100
AcDbEntity
  8
Frei
  6
CONTINUOUS
 62
           7
100
AcDbLine
 10
-14085.201020984008
 20
-6906.992475359421
 30
0.0
 11
-14083.324854282844
 21
-6879.556550033138
 31
0.0
  0
LINE
  5
14A
100
AcDbEntity
  8
Frei
  6
CONTINUOUS
 62
           7
100
AcDbLine
 10
-14055.390093950627
 20
-6881.466828856141
 30
0.0
 11
-14083.324854282844
 21
-6879.556550033138
 31
0.0
  0
LINE
  5
14B
100
AcDbEntity
  8
Frei
  6
CONTINUOUS
 62
           7
100
AcDbLine
 10
-14083.806852331729
 20
-6908.591316742737
 30
0.0
 11
-14077.856647002591
 21
-6908.998213064653
 31
0.0
  0
LINE
  5
14C
100
AcDbEntity
  8
Frei
  6
CONTINUOUS
 62
           7
100
AcDbLine
 10
-14057.266260651792
 20
-6908.902754182425
 30
0.0
 11
-14055.390093950627
 21
-6881.466828856141
 31
0.0
  0
LINE
  5
14D
100
AcDbEntity
  8
Frei
  6
CONTINUOUS
 62
           7
100
AcDbLine
 10
-14054.891258944695
 20
-6881.50094097798
 30
0.0
 11
-14055.390093950627
 21
-6881.466828856141
 31
0.0
  0
LINE
  5
14E
100
AcDbEntity
  8
Frei
  6
CONTINUOUS
 62
           7
100
AcDbLine
 10
-14077.856647002591
 20
-6908.998213064653
 30
0.0
 11
-14085.439805836884
 21
-6910.484320400949
 31
0.0
  0
LINE
  5
14F
100
AcDbEntity
  8
Frei
  6
CONTINUOUS
 62
           7
100
AcDbLine
 10
-14058.865102035108
 20
-6910.296922834705
 30
0.0
 11
-14077.856647002591
 21
-6908.998213064653
 31
0.0
  0
LINE
  5
150
100
AcDbEntity
  8
Frei
  6
CONTINUOUS
 62
           7
100
AcDbLine
 10
-14101.308608139727
 20
-6893.361788068572
 30
0.0
 11
-14096.320258080403
 21
-6893.702909286965
 31
0.0
  0
LINE
  5
151
100
AcDbEntity
  8
Frei
  6
CONTINUOUS
 62
           7
100
AcDbLine
 10
-14096.286145958564
 20
-6893.204074281033
 30
0.0
 11
-14096.320258080403
 21
-6893.702909286965
 31
0.0
  0
LINE
  5
152
100
AcDbEntity
  8
Frei
  6
CONTINUOUS
 62
           7
100
AcDbLine
 10
-14102.263747551229
 20
-6907.329168234681
 30
0.0
 11
-14097.275397491905
 21
-6907.670289453074
 31
0.0
  0
LINE
  5
153
100
AcDbEntity
  8
Frei
  6
CONTINUOUS
 62
           7
100
AcDbLine
 10
-14097.207173248225
 20
-6906.67261944121
 30
0.0
 11
-14097.275397491905
 21
-6907.670289453074
 31
0.0
  0
LINE
  5
154
100
AcDbEntity
  8
Frei
  6
CONTINUOUS
 62
           2
100
AcDbLine
 10
-14096.388482324081
 20
-6894.700579298829
 30
0.0
 11
-14101.376832383405
 21
-6894.359458080437
 31
0.0
  0
LINE
  5
155
100
AcDbEntity
  8
Frei
  6
CONTINUOUS
 62
           7
100
AcDbLine
 10
-14096.320258080403
 20
-6893.702909286965
 30
0.0
 11
-14096.388482324081
 21
-6894.700579298829
 31
0.0
  0
LINE
  5
156
100
AcDbEntity
  8
Frei
  6
CONTINUOUS
 62
           2
100
AcDbLine
 10
-14097.207173248225
 20
-6906.67261944121
 30
0.0
 11
-14102.19552330755
 21
-6906.331498222815
 31
0.0
  0
LINE
  5
157
100
AcDbEntity
  8
Frei
  6
CONTINUOUS
 62
           7
100
AcDbLine
 10
-14096.388482324081
 20
-6894.700579298829
 30
0.0
 11
-14097.207173248225
 21
-6906.67261944121
 31
0.0
  0
LINE
  5
158
100
AcDbEntity
  8
Frei
  6
CONTINUOUS
 62
           7
100
AcDbLine
 10
-14053.219764974567
 20
-6857.058025687291
 30
0.0
 11
-14052.465537763304
 21
-6857.109602441566
 31
0.0
  0
LINE
  5
159
100
AcDbEntity
  8
Frei
  6
CONTINUOUS
 62
           7
100
AcDbLine
 10
-14052.844531634333
 20
-6851.570840622033
 30
0.0
 11
-14053.219764974567
 21
-6857.058025687291
 31
0.0
  0
LINE
  5
15A
100
AcDbEntity
  8
Frei
  6
CONTINUOUS
 62
           7
100
AcDbLine
 10
-14053.458549827443
 20
-6860.549870728817
 30
0.0
 11
-14052.70432261618
 21
-6860.601447483094
 31
0.0
  0
LINE
  5
15B
100
AcDbEntity
  8
Frei
  6
CONTINUOUS
 62
           7
100
AcDbLine
 10
-14053.219764974567
 20
-6857.058025687291
 30
0.0
 11
-14053.458549827443
 21
-6860.549870728817
 31
0.0
  0
LINE
  5
15C
100
AcDbEntity
  8
Frei
  6
CONTINUOUS
 62
           7
100
AcDbLine
 10
-14053.936119533193
 20
-6867.533560811871
 30
0.0
 11
-14053.181892321931
 21
-6867.585137566148
 31
0.0
  0
LINE
  5
15D
100
AcDbEntity
  8
Frei
  6
CONTINUOUS
 62
           7
100
AcDbLine
 10
-14053.458549827443
 20
-6860.549870728817
 30
0.0
 11
-14053.936119533193
 21
-6867.533560811871
 31
0.0
  0
LINE
  5
15E
100
AcDbEntity
  8
Frei
  6
CONTINUOUS
 62
           7
100
AcDbLine
 10
-14054.174904386069
 20
-6871.025405853399
 30
0.0
 11
-14053.420677174807
 21
-6871.076982607674
 31
0.0
  0
LINE
  5
15F
100
AcDbEntity
  8
Frei
  6
CONTINUOUS
 62
           7
100
AcDbLine
 10
-14053.936119533193
 20
-6867.533560811871
 30
0.0
 11
-14054.174904386069
 21
-6871.025405853399
 31
0.0
  0
LINE
  5
160
100
AcDbEntity
  8
Frei
  6
CONTINUOUS
 62
           7
100
AcDbLine
 10
-14052.200829662519
 20
-6864.144052135864
 30
0.0
 11
-14051.842652383206
 21
-6858.906284573572
 31
0.0
  0
LINE
  5
161
100
AcDbEntity
  8
Frei
  6
CONTINUOUS
 62
           7
100
AcDbLine
 10
-14101.245282176362
 20
-6892.435747540811
 30
0.0
 11
-14101.155949278227
 21
-6891.129397353025
 31
0.0
  0
LINE
  5
162
100
AcDbEntity
  8
Frei
  6
CONTINUOUS
 62
           7
100
AcDbLine
 10
-14106.65053483948
 20
-6909.272014104619
 30
0.0
 11
-14102.416406412729
 21
-6909.561558950229
 31
0.0
  0
LINE
  5
163
100
AcDbEntity
  8
Frei
  6
CONTINUOUS
 62
           7
100
AcDbLine
 10
-14106.233632235686
 20
-6892.094626322416
 30
0.0
 11
-14101.245282176362
 21
-6892.435747540811
 31
0.0
  0
LINE
  5
164
100
AcDbEntity
  8
Frei
  6
CONTINUOUS
 62
           7
100
AcDbLine
 10
-14101.381730663719
 20
-6894.431087564539
 30
0.0
 11
-14101.245282176362
 21
-6892.435747540811
 31
0.0
  0
LINE
  5
165
100
AcDbEntity
  8
Frei
  6
CONTINUOUS
 62
           7
100
AcDbLine
 10
-14101.381730663719
 20
-6894.431087564539
 30
0.0
 11
-14106.370080723043
 21
-6894.089966346146
 31
0.0
  0
LINE
  5
166
100
AcDbEntity
  8
Frei
  6
CONTINUOUS
 62
           7
100
AcDbLine
 10
-14106.233632235686
 20
-6892.094626322416
 30
0.0
 11
-14106.370080723043
 21
-6894.089966346146
 31
0.0
  0
LINE
  5
167
100
AcDbEntity
  8
Frei
  6
CONTINUOUS
 62
           7
100
AcDbLine
 10
-14101.471063561852
 20
-6895.737437752325
 30
0.0
 11
-14101.381730663719
 21
-6894.431087564539
 31
0.0
  0
LINE
  5
168
100
AcDbEntity
  8
Frei
  6
CONTINUOUS
 62
           7
100
AcDbLine
 10
-14101.64972935812
 20
-6898.350138127897
 30
0.0
 11
-14101.471063561852
 21
-6895.737437752325
 31
0.0
  0
LINE
  5
169
100
AcDbEntity
  8
Frei
  6
CONTINUOUS
 62
           7
100
AcDbLine
 10
-14101.64972935812
 20
-6898.350138127897
 30
0.0
 11
-14106.638079417444
 21
-6898.009016909502
 31
0.0
  0
LINE
  5
16A
100
AcDbEntity
  8
Frei
  6
CONTINUOUS
 62
           7
100
AcDbLine
 10
-14106.370080723043
 20
-6894.089966346146
 30
0.0
 11
-14106.638079417444
 21
-6898.009016909502
 31
0.0
  0
LINE
  5
16B
100
AcDbEntity
  8
Frei
  6
CONTINUOUS
 62
           7
100
AcDbLine
 10
-14101.922626332835
 20
-6902.340818175355
 30
0.0
 11
-14101.64972935812
 21
-6898.350138127897
 31
0.0
  0
LINE
  5
16C
100
AcDbEntity
  8
Frei
  6
CONTINUOUS
 62
           7
100
AcDbLine
 10
-14101.922626332835
 20
-6902.340818175355
 30
0.0
 11
-14106.910976392159
 21
-6901.999696956962
 31
0.0
  0
LINE
  5
16D
100
AcDbEntity
  8
Frei
  6
CONTINUOUS
 62
           7
100
AcDbLine
 10
-14106.638079417444
 20
-6898.009016909502
 30
0.0
 11
-14106.910976392159
 21
-6901.999696956962
 31
0.0
  0
LINE
  5
16E
100
AcDbEntity
  8
Frei
  6
CONTINUOUS
 62
           7
100
AcDbLine
 10
-14102.101292129102
 20
-6904.953518550927
 30
0.0
 11
-14101.922626332835
 21
-6902.340818175355
 31
0.0
  0
LINE
  5
16F
100
AcDbEntity
  8
Frei
  6
CONTINUOUS
 62
           7
100
AcDbLine
 10
-14102.190625027237
 20
-6906.259868738713
 30
0.0
 11
-14102.101292129102
 21
-6904.953518550927
 31
0.0
  0
LINE
  5
170
100
AcDbEntity
  8
Frei
  6
CONTINUOUS
 62
           7
100
AcDbLine
 10
-14102.190625027237
 20
-6906.259868738713
 30
0.0
 11
-14107.178975086561
 21
-6905.91874752032
 31
0.0
  0
LINE
  5
171
100
AcDbEntity
  8
Frei
  6
CONTINUOUS
 62
           7
100
AcDbLine
 10
-14106.910976392159
 20
-6901.999696956962
 30
0.0
 11
-14107.178975086561
 21
-6905.91874752032
 31
0.0
  0
LINE
  5
172
100
AcDbEntity
  8
Frei
  6
CONTINUOUS
 62
           7
100
AcDbLine
 10
-14102.327073514594
 20
-6908.255208762443
 30
0.0
 11
-14102.190625027237
 21
-6906.259868738713
 31
0.0
  0
LINE
  5
173
100
AcDbEntity
  8
Frei
  6
CONTINUOUS
 62
           7
100
AcDbLine
 10
-14102.327073514594
 20
-6908.255208762443
 30
0.0
 11
-14107.315423573918
 21
-6907.91408754405
 31
0.0
  0
LINE
  5
174
100
AcDbEntity
  8
Frei
  6
CONTINUOUS
 62
           7
100
AcDbLine
 10
-14107.178975086561
 20
-6905.91874752032
 30
0.0
 11
-14107.315423573918
 21
-6907.91408754405
 31
0.0
  0
LINE
  5
175
100
AcDbEntity
  8
Frei
  6
CONTINUOUS
 62
           7
100
AcDbLine
 10
-14102.416406412729
 20
-6909.561558950229
 30
0.0
 11
-14102.327073514594
 21
-6908.255208762443
 31
0.0
  0
LINE
  5
176
100
AcDbEntity
  8
Frei
  6
CONTINUOUS
 62
           7
100
AcDbLine
 10
-14106.233632235686
 20
-6892.094626322416
 30
0.0
 11
-14105.390077704978
 21
-6890.839852507415
 31
0.0
  0
LINE
  5
177
100
AcDbEntity
  8
Frei
  6
CONTINUOUS
 62
           7
100
AcDbLine
 10
-14101.155949278227
 20
-6891.129397353025
 30
0.0
 11
-14105.390077704978
 21
-6890.839852507415
 31
0.0
  0
LINE
  5
178
100
AcDbEntity
  8
Frei
  6
CONTINUOUS
 62
           7
100
AcDbLine
 10
-14106.65053483948
 20
-6909.272014104619
 30
0.0
 11
-14107.315423573918
 21
-6907.91408754405
 31
0.0
  0
LINE
  5
179
100
AcDbEntity
  8
Frei
  6
CONTINUOUS
 62
           7
100
AcDbLine
 10
-14105.705191988603
 20
-6895.447892906717
 30
0.0
 11
-14106.370080723043
 21
-6894.089966346146
 31
0.0
  0
LINE
  5
17A
100
AcDbEntity
  8
Frei
  6
CONTINUOUS
 62
           7
100
AcDbLine
 10
-14101.471063561852
 20
-6895.737437752325
 30
0.0
 11
-14105.705191988603
 21
-6895.447892906717
 31
0.0
  0
LINE
  5
17B
100
AcDbEntity
  8
Frei
  6
CONTINUOUS
 62
           7
100
AcDbLine
 10
-14106.638079417444
 20
-6898.009016909502
 30
0.0
 11
-14105.705191988603
 21
-6895.447892906717
 31
0.0
  0
LINE
  5
17C
100
AcDbEntity
  8
Frei
  6
CONTINUOUS
 62
           7
100
AcDbLine
 10
-14106.335420555853
 20
-6904.663973705319
 30
0.0
 11
-14106.910976392159
 21
-6901.999696956962
 31
0.0
  0
LINE
  5
17D
100
AcDbEntity
  8
Frei
  6
CONTINUOUS
 62
           7
100
AcDbLine
 10
-14102.101292129102
 20
-6904.953518550927
 30
0.0
 11
-14106.335420555853
 21
-6904.663973705319
 31
0.0
  0
LINE
  5
17E
100
AcDbEntity
  8
Frei
  6
CONTINUOUS
 62
           7
100
AcDbLine
 10
-14107.178975086561
 20
-6905.91874752032
 30
0.0
 11
-14106.335420555853
 21
-6904.663973705319
 31
0.0
  0
LINE
  5
17F
100
AcDbEntity
  8
Frei
  6
CONTINUOUS
 62
           3
100
AcDbLine
 10
-14061.872554946514
 20
-6902.974680897589
 30
0.0
 11
-14079.830615160083
 21
-6901.746644511371
 31
0.0
  0
LINE
  5
180
100
AcDbEntity
  8
Frei
  6
CONTINUOUS
 62
           3
100
AcDbLine
 10
-14062.512091499841
 20
-6903.5323483585
 30
0.0
 11
-14061.872554946514
 21
-6902.974680897589
 31
0.0
  0
LINE
  5
181
100
AcDbEntity
  8
Frei
  6
CONTINUOUS
 62
           3
100
AcDbLine
 10
-14061.95442403893
 20
-6904.171884911826
 30
0.0
 11
-14062.512091499841
 21
-6903.5323483585
 31
0.0
  0
LINE
  5
182
100
AcDbEntity
  8
Frei
  6
CONTINUOUS
 62
           3
100
AcDbLine
 10
-14079.912484252498
 20
-6902.943848525611
 30
0.0
 11
-14061.95442403893
 21
-6904.171884911826
 31
0.0
  0
LINE
  5
183
100
AcDbEntity
  8
Frei
  6
CONTINUOUS
 62
           3
100
AcDbLine
 10
-14079.272947699172
 20
-6902.386181064698
 30
0.0
 11
-14079.912484252498
 21
-6902.943848525611
 31
0.0
  0
LINE
  5
184
100
AcDbEntity
  8
Frei
  6
CONTINUOUS
 62
           3
100
AcDbLine
 10
-14079.830615160083
 20
-6901.746644511371
 30
0.0
 11
-14079.272947699172
 21
-6902.386181064698
 31
0.0
  0
LINE
  5
185
100
AcDbEntity
  8
Frei
  6
CONTINUOUS
 62
           3
100
AcDbLine
 10
-14062.512091499841
 20
-6903.5323483585
 30
0.0
 11
-14079.272947699172
 21
-6902.386181064698
 31
0.0
  0
LINE
  5
186
100
AcDbEntity
  8
Frei
  6
CONTINUOUS
 62
           3
100
AcDbLine
 10
-14079.77603576514
 20
-6900.948508501881
 30
0.0
 11
-14079.136499211814
 21
-6900.390841040968
 31
0.0
  0
LINE
  5
187
100
AcDbEntity
  8
Frei
  6
CONTINUOUS
 62
           3
100
AcDbLine
 10
-14061.817975551572
 20
-6902.176544888096
 30
0.0
 11
-14079.77603576514
 21
-6900.948508501881
 31
0.0
  0
LINE
  5
188
100
AcDbEntity
  8
Frei
  6
CONTINUOUS
 62
           3
100
AcDbLine
 10
-14062.375643012483
 20
-6901.53700833477
 30
0.0
 11
-14061.817975551572
 21
-6902.176544888096
 31
0.0
  0
LINE
  5
189
100
AcDbEntity
  8
Frei
  6
CONTINUOUS
 62
           3
100
AcDbLine
 10
-14061.736106459157
 20
-6900.979340873859
 30
0.0
 11
-14062.375643012483
 21
-6901.53700833477
 31
0.0
  0
LINE
  5
18A
100
AcDbEntity
  8
Frei
  6
CONTINUOUS
 62
           3
100
AcDbLine
 10
-14079.694166672725
 20
-6899.751304487643
 30
0.0
 11
-14061.736106459157
 21
-6900.979340873859
 31
0.0
  0
LINE
  5
18B
100
AcDbEntity
  8
Frei
  6
CONTINUOUS
 62
           3
100
AcDbLine
 10
-14079.136499211814
 20
-6900.390841040968
 30
0.0
 11
-14079.694166672725
 21
-6899.751304487643
 31
0.0
  0
LINE
  5
18C
100
AcDbEntity
  8
Frei
  6
CONTINUOUS
 62
           3
100
AcDbLine
 10
-14079.136499211814
 20
-6900.390841040968
 30
0.0
 11
-14062.375643012483
 21
-6901.53700833477
 31
0.0
  0
LINE
  5
18D
100
AcDbEntity
  8
Frei
  6
CONTINUOUS
 62
           3
100
AcDbLine
 10
-14079.639587277783
 20
-6898.953168478151
 30
0.0
 11
-14079.000050724457
 21
-6898.395501017238
 31
0.0
  0
LINE
  5
18E
100
AcDbEntity
  8
Frei
  6
CONTINUOUS
 62
           3
100
AcDbLine
 10
-14061.681527064215
 20
-6900.181204864366
 30
0.0
 11
-14079.639587277783
 21
-6898.953168478151
 31
0.0
  0
LINE
  5
18F
100
AcDbEntity
  8
Frei
  6
CONTINUOUS
 62
           3
100
AcDbLine
 10
-14062.239194525126
 20
-6899.54166831104
 30
0.0
 11
-14061.681527064215
 21
-6900.181204864366
 31
0.0
  0
LINE
  5
190
100
AcDbEntity
  8
Frei
  6
CONTINUOUS
 62
           3
100
AcDbLine
 10
-14061.599657971799
 20
-6898.984000850129
 30
0.0
 11
-14062.239194525126
 21
-6899.54166831104
 31
0.0
  0
LINE
  5
191
100
AcDbEntity
  8
Frei
  6
CONTINUOUS
 62
           3
100
AcDbLine
 10
-14079.557718185368
 20
-6897.755964463913
 30
0.0
 11
-14061.599657971799
 21
-6898.984000850129
 31
0.0
  0
LINE
  5
192
100
AcDbEntity
  8
Frei
  6
CONTINUOUS
 62
           3
100
AcDbLine
 10
-14079.000050724457
 20
-6898.395501017238
 30
0.0
 11
-14079.557718185368
 21
-6897.755964463913
 31
0.0
  0
LINE
  5
193
100
AcDbEntity
  8
Frei
  6
CONTINUOUS
 62
           3
100
AcDbLine
 10
-14079.503138790426
 20
-6896.957828454421
 30
0.0
 11
-14078.863602237099
 21
-6896.400160993508
 31
0.0
  0
LINE
  5
194
100
AcDbEntity
  8
Frei
  6
CONTINUOUS
 62
           3
100
AcDbLine
 10
-14073.424415932066
 20
-6897.37351326464
 30
0.0
 11
-14079.503138790426
 21
-6896.957828454421
 31
0.0
  0
LINE
  5
195
100
AcDbEntity
  8
Frei
  6
CONTINUOUS
 62
           3
100
AcDbLine
 10
-14062.102746037768
 20
-6897.54632828731
 30
0.0
 11
-14061.545078576857
 21
-6898.185864840638
 31
0.0
  0
LINE
  5
196
100
AcDbEntity
  8
Frei
  6
CONTINUOUS
 62
           3
100
AcDbLine
 10
-14061.463209484442
 20
-6896.988660826399
 30
0.0
 11
-14062.102746037768
 21
-6897.54632828731
 31
0.0
  0
LINE
  5
197
100
AcDbEntity
  8
Frei
  6
CONTINUOUS
 62
           3
100
AcDbLine
 10
-14067.5419323428
 20
-6896.572976016179
 30
0.0
 11
-14061.463209484442
 21
-6896.988660826399
 31
0.0
  0
LINE
  5
198
100
AcDbEntity
  8
Frei
  6
CONTINUOUS
 62
           3
100
AcDbLine
 10
-14078.863602237099
 20
-6896.400160993508
 30
0.0
 11
-14079.42126969801
 21
-6895.760624440183
 31
0.0
  0
LINE
  5
199
100
AcDbEntity
  8
Frei
  6
CONTINUOUS
 62
           3
100
AcDbLine
 10
-14079.366690303068
 20
-6894.96248843069
 30
0.0
 11
-14078.727153749742
 21
-6894.404820969778
 31
0.0
  0
LINE
  5
19A
100
AcDbEntity
  8
Frei
  6
CONTINUOUS
 62
           3
100
AcDbLine
 10
-14074.032444868339
 20
-6895.327263211984
 30
0.0
 11
-14079.366690303068
 21
-6894.96248843069
 31
0.0
  0
LINE
  5
19B
100
AcDbEntity
  8
Frei
  6
CONTINUOUS
 62
           3
100
AcDbLine
 10
-14061.966297550411
 20
-6895.55098826358
 30
0.0
 11
-14061.4086300895
 21
-6896.190524816908
 31
0.0
  0
LINE
  5
19C
100
AcDbEntity
  8
Frei
  6
CONTINUOUS
 62
           3
100
AcDbLine
 10
-14067.30054298514
 20
-6895.186213482288
 30
0.0
 11
-14061.966297550411
 21
-6895.55098826358
 31
0.0
  0
LINE
  5
19D
100
AcDbEntity
  8
Frei
  6
CONTINUOUS
 62
           3
100
AcDbLine
 10
-14072.784879378742
 20
-6896.815845803729
 30
0.0
 11
-14078.863602237099
 21
-6896.400160993508
 31
0.0
  0
LINE
  5
19E
100
AcDbEntity
  8
Frei
  6
CONTINUOUS
 62
           3
100
AcDbLine
 10
-14062.239194525126
 20
-6899.54166831104
 30
0.0
 11
-14079.000050724457
 21
-6898.395501017238
 31
0.0
  0
LINE
  5
19F
100
AcDbEntity
  8
Frei
  6
CONTINUOUS
 62
           3
100
AcDbLine
 10
-14072.784879378742
 20
-6896.815845803729
 30
0.0
 11
-14073.342546839651
 21
-6896.176309250403
 31
0.0
  0
LINE
  5
1A0
100
AcDbEntity
  8
Frei
  6
CONTINUOUS
 62
           3
100
AcDbLine
 10
-14079.42126969801
 20
-6895.760624440183
 30
0.0
 11
-14073.342546839651
 21
-6896.176309250403
 31
0.0
  0
LINE
  5
1A1
100
AcDbEntity
  8
Frei
  6
CONTINUOUS
 62
           3
100
AcDbLine
 10
-14073.424415932066
 20
-6897.37351326464
 30
0.0
 11
-14072.784879378742
 21
-6896.815845803729
 31
0.0
  0
LINE
  5
1A2
100
AcDbEntity
  8
Frei
  6
CONTINUOUS
 62
           3
100
AcDbLine
 10
-14073.392908315012
 20
-6894.769595751071
 30
0.0
 11
-14074.032444868339
 21
-6895.327263211984
 31
0.0
  0
LINE
  5
1A3
100
AcDbEntity
  8
Frei
  6
CONTINUOUS
 62
           3
100
AcDbLine
 10
-14078.727153749742
 20
-6894.404820969778
 30
0.0
 11
-14073.392908315012
 21
-6894.769595751071
 31
0.0
  0
LINE
  5
1A4
100
AcDbEntity
  8
Frei
  6
CONTINUOUS
 62
           3
100
AcDbLine
 10
-14066.742875524227
 20
-6895.825750035614
 30
0.0
 11
-14067.30054298514
 21
-6895.186213482288
 31
0.0
  0
LINE
  5
1A5
100
AcDbEntity
  8
Frei
  6
CONTINUOUS
 62
           3
100
AcDbLine
 10
-14061.4086300895
 20
-6896.190524816908
 30
0.0
 11
-14066.742875524227
 21
-6895.825750035614
 31
0.0
  0
LINE
  5
1A6
100
AcDbEntity
  8
Frei
  6
CONTINUOUS
 62
           3
100
AcDbLine
 10
-14068.181468896128
 20
-6897.13064347709
 30
0.0
 11
-14067.5419323428
 21
-6896.572976016179
 31
0.0
  0
LINE
  5
1A7
100
AcDbEntity
  8
Frei
  6
CONTINUOUS
 62
           3
100
AcDbLine
 10
-14062.102746037768
 20
-6897.54632828731
 30
0.0
 11
-14068.181468896128
 21
-6897.13064347709
 31
0.0
  0
LINE
  5
1A8
100
AcDbEntity
  8
Frei
  6
CONTINUOUS
 62
           3
100
AcDbLine
 10
-14067.623801435215
 20
-6897.770180030419
 30
0.0
 11
-14068.181468896128
 21
-6897.13064347709
 31
0.0
  0
LINE
  5
1A9
100
AcDbEntity
  8
Frei
  6
CONTINUOUS
 62
           3
100
AcDbLine
 10
-14061.545078576857
 20
-6898.185864840638
 30
0.0
 11
-14067.623801435215
 21
-6897.770180030419
 31
0.0
  0
LINE
  5
1AA
100
AcDbEntity
  8
Frei
  6
CONTINUOUS
 62
           3
100
AcDbLine
 10
-14079.42126969801
 20
-6895.760624440183
 30
0.0
 11
-14079.503138790426
 21
-6896.957828454421
 31
0.0
  0
LINE
  5
1AB
100
AcDbEntity
  8
Frei
  6
CONTINUOUS
 62
           3
100
AcDbLine
 10
-14079.639587277783
 20
-6898.953168478151
 30
0.0
 11
-14079.557718185368
 21
-6897.755964463913
 31
0.0
  0
LINE
  5
1AC
100
AcDbEntity
  8
Frei
  6
CONTINUOUS
 62
           3
100
AcDbLine
 10
-14079.77603576514
 20
-6900.948508501881
 30
0.0
 11
-14079.694166672725
 21
-6899.751304487643
 31
0.0
  0
LINE
  5
1AD
100
AcDbEntity
  8
Frei
  6
CONTINUOUS
 62
           3
100
AcDbLine
 10
-14079.912484252498
 20
-6902.943848525611
 30
0.0
 11
-14079.830615160083
 21
-6901.746644511371
 31
0.0
  0
LINE
  5
1AE
100
AcDbEntity
  8
Frei
  6
CONTINUOUS
 62
           3
100
AcDbLine
 10
-14079.325755756861
 20
-6894.363886423571
 30
0.0
 11
-14079.366690303068
 21
-6894.96248843069
 31
0.0
  0
LINE
  5
1AF
100
AcDbEntity
  8
Frei
  6
CONTINUOUS
 62
           3
100
AcDbLine
 10
-14061.4086300895
 20
-6896.190524816908
 30
0.0
 11
-14061.367695543293
 21
-6895.591922809788
 31
0.0
  0
LINE
  5
1B0
100
AcDbEntity
  8
Frei
  6
CONTINUOUS
 62
           3
100
AcDbLine
 10
-14061.545078576857
 20
-6898.185864840638
 30
0.0
 11
-14061.463209484442
 21
-6896.988660826399
 31
0.0
  0
LINE
  5
1B1
100
AcDbEntity
  8
Frei
  6
CONTINUOUS
 62
           3
100
AcDbLine
 10
-14061.681527064215
 20
-6900.181204864366
 30
0.0
 11
-14061.599657971799
 21
-6898.984000850129
 31
0.0
  0
LINE
  5
1B2
100
AcDbEntity
  8
Frei
  6
CONTINUOUS
 62
           3
100
AcDbLine
 10
-14061.817975551572
 20
-6902.176544888096
 30
0.0
 11
-14061.736106459157
 21
-6900.979340873859
 31
0.0
  0
LINE
  5
1B3
100
AcDbEntity
  8
Frei
  6
CONTINUOUS
 62
           3
100
AcDbLine
 10
-14061.95442403893
 20
-6904.171884911826
 30
0.0
 11
-14061.872554946514
 21
-6902.974680897589
 31
0.0
  0
LINE
  5
1B4
100
AcDbEntity
  8
Frei
  6
CONTINUOUS
 62
           3
100
AcDbLine
 10
-14060.86283614007
 20
-6888.209164721988
 30
0.0
 11
-14060.780967047656
 21
-6887.01196070775
 31
0.0
  0
LINE
  5
1B5
100
AcDbEntity
  8
Frei
  6
CONTINUOUS
 62
           3
100
AcDbLine
 10
-14060.999284627427
 20
-6890.204504745718
 30
0.0
 11
-14060.917415535014
 21
-6889.00730073148
 31
0.0
  0
LINE
  5
1B6
100
AcDbEntity
  8
Frei
  6
CONTINUOUS
 62
           3
100
AcDbLine
 10
-14061.135733114785
 20
-6892.199844769448
 30
0.0
 11
-14061.053864022369
 21
-6891.002640755211
 31
0.0
  0
LINE
  5
1B7
100
AcDbEntity
  8
Frei
  6
CONTINUOUS
 62
           3
100
AcDbLine
 10
-14061.272181602142
 20
-6894.195184793178
 30
0.0
 11
-14061.190312509727
 21
-6892.997980778941
 31
0.0
  0
LINE
  5
1B8
100
AcDbEntity
  8
Frei
  6
CONTINUOUS
 62
           3
100
AcDbLine
 10
-14061.367695543293
 20
-6895.591922809788
 30
0.0
 11
-14061.326760997084
 21
-6894.993320802669
 31
0.0
  0
LINE
  5
1B9
100
AcDbEntity
  8
Frei
  6
CONTINUOUS
 62
           3
100
AcDbLine
 10
-14079.284821210653
 20
-6893.765284416453
 30
0.0
 11
-14079.325755756861
 21
-6894.363886423571
 31
0.0
  0
LINE
  5
1BA
100
AcDbEntity
  8
Frei
  6
CONTINUOUS
 62
           3
100
AcDbLine
 10
-14078.820896353638
 20
-6886.981128335772
 30
0.0
 11
-14078.739027261225
 21
-6885.783924321535
 31
0.0
  0
LINE
  5
1BB
100
AcDbEntity
  8
Frei
  6
CONTINUOUS
 62
           3
100
AcDbLine
 10
-14078.957344840996
 20
-6888.976468359502
 30
0.0
 11
-14078.875475748582
 21
-6887.779264345263
 31
0.0
  0
LINE
  5
1BC
100
AcDbEntity
  8
Frei
  6
CONTINUOUS
 62
           3
100
AcDbLine
 10
-14079.093793328353
 20
-6890.97180838323
 30
0.0
 11
-14079.011924235938
 21
-6889.774604368993
 31
0.0
  0
LINE
  5
1BD
100
AcDbEntity
  8
Frei
  6
CONTINUOUS
 62
           3
100
AcDbLine
 10
-14079.148372723295
 20
-6891.769944392723
 30
0.0
 11
-14079.230241815711
 21
-6892.96714840696
 31
0.0
  0
LINE
  5
1BE
100
AcDbEntity
  8
Frei
  6
CONTINUOUS
 62
           3
100
AcDbLine
 10
-14067.269035368085
 20
-6892.582295968721
 30
0.0
 11
-14061.190312509727
 21
-6892.997980778941
 31
0.0
  0
LINE
  5
1BF
100
AcDbEntity
  8
Frei
  6
CONTINUOUS
 62
           3
100
AcDbLine
 10
-14067.908571921413
 20
-6893.13996342963
 30
0.0
 11
-14067.269035368085
 21
-6892.582295968721
 31
0.0
  0
LINE
  5
1C0
100
AcDbEntity
  8
Frei
  6
CONTINUOUS
 62
           3
100
AcDbLine
 10
-14067.908571921413
 20
-6893.13996342963
 30
0.0
 11
-14061.829849063053
 21
-6893.55564823985
 31
0.0
  0
LINE
  5
1C1
100
AcDbEntity
  8
Frei
  6
CONTINUOUS
 62
           3
100
AcDbLine
 10
-14067.3509044605
 20
-6893.779499982958
 30
0.0
 11
-14067.908571921413
 21
-6893.13996342963
 31
0.0
  0
LINE
  5
1C2
100
AcDbEntity
  8
Frei
  6
CONTINUOUS
 62
           3
100
AcDbLine
 10
-14066.661006431812
 20
-6894.628546021377
 30
0.0
 11
-14061.326760997084
 21
-6894.993320802669
 31
0.0
  0
LINE
  5
1C3
100
AcDbEntity
  8
Frei
  6
CONTINUOUS
 62
           3
100
AcDbLine
 10
-14067.30054298514
 20
-6895.186213482288
 30
0.0
 11
-14066.661006431812
 21
-6894.628546021377
 31
0.0
  0
LINE
  5
1C4
100
AcDbEntity
  8
Frei
  6
CONTINUOUS
 62
           3
100
AcDbLine
 10
-14073.950575775923
 20
-6894.130059197745
 30
0.0
 11
-14073.392908315012
 21
-6894.769595751071
 31
0.0
  0
LINE
  5
1C5
100
AcDbEntity
  8
Frei
  6
CONTINUOUS
 62
           3
100
AcDbLine
 10
-14072.511982404027
 20
-6892.825165756269
 30
0.0
 11
-14073.069649864936
 21
-6892.185629202942
 31
0.0
  0
LINE
  5
1C6
100
AcDbEntity
  8
Frei
  6
CONTINUOUS
 62
           3
100
AcDbLine
 10
-14073.151518957351
 20
-6893.38283321718
 30
0.0
 11
-14079.230241815711
 21
-6892.96714840696
 31
0.0
  0
LINE
  5
1C7
100
AcDbEntity
  8
Frei
  6
CONTINUOUS
 62
           3
100
AcDbLine
 10
-14073.151518957351
 20
-6893.38283321718
 30
0.0
 11
-14072.511982404027
 21
-6892.825165756269
 31
0.0
  0
LINE
  5
1C8
100
AcDbEntity
  8
Frei
  6
CONTINUOUS
 62
           3
100
AcDbLine
 10
-14078.454256775027
 20
-6890.414140922319
 30
0.0
 11
-14061.693400575696
 21
-6891.560308216122
 31
0.0
  0
LINE
  5
1C9
100
AcDbEntity
  8
Frei
  6
CONTINUOUS
 62
           3
100
AcDbLine
 10
-14078.590705262384
 20
-6892.409480946048
 30
0.0
 11
-14072.511982404027
 21
-6892.825165756269
 31
0.0
  0
LINE
  5
1CA
100
AcDbEntity
  8
Frei
  6
CONTINUOUS
 62
           3
100
AcDbLine
 10
-14061.326760997084
 20
-6894.993320802669
 30
0.0
 11
-14061.966297550411
 21
-6895.55098826358
 31
0.0
  0
LINE
  5
1CB
100
AcDbEntity
  8
Frei
  6
CONTINUOUS
 62
           3
100
AcDbLine
 10
-14079.284821210653
 20
-6893.765284416453
 30
0.0
 11
-14073.950575775923
 21
-6894.130059197745
 31
0.0
  0
LINE
  5
1CC
100
AcDbEntity
  8
Frei
  6
CONTINUOUS
 62
           3
100
AcDbLine
 10
-14078.727153749742
 20
-6894.404820969778
 30
0.0
 11
-14079.284821210653
 21
-6893.765284416453
 31
0.0
  0
LINE
  5
1CD
100
AcDbEntity
  8
Frei
  6
CONTINUOUS
 62
           3
100
AcDbLine
 10
-14079.230241815711
 20
-6892.96714840696
 30
0.0
 11
-14078.590705262384
 21
-6892.409480946048
 31
0.0
  0
LINE
  5
1CE
100
AcDbEntity
  8
Frei
  6
CONTINUOUS
 62
           3
100
AcDbLine
 10
-14061.272181602142
 20
-6894.195184793178
 30
0.0
 11
-14067.3509044605
 21
-6893.779499982958
 31
0.0
  0
LINE
  5
1CF
100
AcDbEntity
  8
Frei
  6
CONTINUOUS
 62
           3
100
AcDbLine
 10
-14061.829849063053
 20
-6893.55564823985
 30
0.0
 11
-14061.272181602142
 21
-6894.195184793178
 31
0.0
  0
LINE
  5
1D0
100
AcDbEntity
  8
Frei
  6
CONTINUOUS
 62
           3
100
AcDbLine
 10
-14061.190312509727
 20
-6892.997980778941
 30
0.0
 11
-14061.829849063053
 21
-6893.55564823985
 31
0.0
  0
LINE
  5
1D1
100
AcDbEntity
  8
Frei
  6
CONTINUOUS
 62
           3
100
AcDbLine
 10
-14079.148372723295
 20
-6891.769944392723
 30
0.0
 11
-14073.069649864936
 21
-6892.185629202942
 31
0.0
  0
LINE
  5
1D2
100
AcDbEntity
  8
Frei
  6
CONTINUOUS
 62
           3
100
AcDbLine
 10
-14078.590705262384
 20
-6892.409480946048
 30
0.0
 11
-14079.148372723295
 21
-6891.769944392723
 31
0.0
  0
LINE
  5
1D3
100
AcDbEntity
  8
Frei
  6
CONTINUOUS
 62
           3
100
AcDbLine
 10
-14079.093793328353
 20
-6890.97180838323
 30
0.0
 11
-14078.454256775027
 21
-6890.414140922319
 31
0.0
  0
LINE
  5
1D4
100
AcDbEntity
  8
Frei
  6
CONTINUOUS
 62
           3
100
AcDbLine
 10
-14061.135733114785
 20
-6892.199844769448
 30
0.0
 11
-14079.093793328353
 21
-6890.97180838323
 31
0.0
  0
LINE
  5
1D5
100
AcDbEntity
  8
Frei
  6
CONTINUOUS
 62
           3
100
AcDbLine
 10
-14061.693400575696
 20
-6891.560308216122
 30
0.0
 11
-14061.135733114785
 21
-6892.199844769448
 31
0.0
  0
LINE
  5
1D6
100
AcDbEntity
  8
Frei
  6
CONTINUOUS
 62
           3
100
AcDbLine
 10
-14061.053864022369
 20
-6891.002640755211
 30
0.0
 11
-14061.693400575696
 21
-6891.560308216122
 31
0.0
  0
LINE
  5
1D7
100
AcDbEntity
  8
Frei
  6
CONTINUOUS
 62
           3
100
AcDbLine
 10
-14079.011924235938
 20
-6889.774604368993
 30
0.0
 11
-14061.053864022369
 21
-6891.002640755211
 31
0.0
  0
LINE
  5
1D8
100
AcDbEntity
  8
Frei
  6
CONTINUOUS
 62
           3
100
AcDbLine
 10
-14078.454256775027
 20
-6890.414140922319
 30
0.0
 11
-14079.011924235938
 21
-6889.774604368993
 31
0.0
  0
LINE
  5
1D9
100
AcDbEntity
  8
Frei
  6
CONTINUOUS
 62
           3
100
AcDbLine
 10
-14061.556952088338
 20
-6889.564968192392
 30
0.0
 11
-14078.317808287669
 21
-6888.418800898589
 31
0.0
  0
LINE
  5
1DA
100
AcDbEntity
  8
Frei
  6
CONTINUOUS
 62
           3
100
AcDbLine
 10
-14078.957344840996
 20
-6888.976468359502
 30
0.0
 11
-14078.317808287669
 21
-6888.418800898589
 31
0.0
  0
LINE
  5
1DB
100
AcDbEntity
  8
Frei
  6
CONTINUOUS
 62
           3
100
AcDbLine
 10
-14060.999284627427
 20
-6890.204504745718
 30
0.0
 11
-14078.957344840996
 21
-6888.976468359502
 31
0.0
  0
LINE
  5
1DC
100
AcDbEntity
  8
Frei
  6
CONTINUOUS
 62
           3
100
AcDbLine
 10
-14061.556952088338
 20
-6889.564968192392
 30
0.0
 11
-14060.999284627427
 21
-6890.204504745718
 31
0.0
  0
LINE
  5
1DD
100
AcDbEntity
  8
Frei
  6
CONTINUOUS
 62
           3
100
AcDbLine
 10
-14060.917415535014
 20
-6889.00730073148
 30
0.0
 11
-14061.556952088338
 21
-6889.564968192392
 31
0.0
  0
LINE
  5
1DE
100
AcDbEntity
  8
Frei
  6
CONTINUOUS
 62
           3
100
AcDbLine
 10
-14078.875475748582
 20
-6887.779264345263
 30
0.0
 11
-14060.917415535014
 21
-6889.00730073148
 31
0.0
  0
LINE
  5
1DF
100
AcDbEntity
  8
Frei
  6
CONTINUOUS
 62
           3
100
AcDbLine
 10
-14078.317808287669
 20
-6888.418800898589
 30
0.0
 11
-14078.875475748582
 21
-6887.779264345263
 31
0.0
  0
LINE
  5
1E0
100
AcDbEntity
  8
Frei
  6
CONTINUOUS
 62
           3
100
AcDbLine
 10
-14078.181359800312
 20
-6886.423460874859
 30
0.0
 11
-14061.420503600981
 21
-6887.569628168661
 31
0.0
  0
LINE
  5
1E1
100
AcDbEntity
  8
Frei
  6
CONTINUOUS
 62
           3
100
AcDbLine
 10
-14078.181359800312
 20
-6886.423460874859
 30
0.0
 11
-14078.820896353638
 21
-6886.981128335772
 31
0.0
  0
LINE
  5
1E2
100
AcDbEntity
  8
Frei
  6
CONTINUOUS
 62
           3
100
AcDbLine
 10
-14078.739027261225
 20
-6885.783924321535
 30
0.0
 11
-14078.181359800312
 21
-6886.423460874859
 31
0.0
  0
LINE
  5
1E3
100
AcDbEntity
  8
Frei
  6
CONTINUOUS
 62
           3
100
AcDbLine
 10
-14060.780967047656
 20
-6887.01196070775
 30
0.0
 11
-14078.739027261225
 21
-6885.783924321535
 31
0.0
  0
LINE
  5
1E4
100
AcDbEntity
  8
Frei
  6
CONTINUOUS
 62
           3
100
AcDbLine
 10
-14061.420503600981
 20
-6887.569628168661
 30
0.0
 11
-14060.780967047656
 21
-6887.01196070775
 31
0.0
  0
LINE
  5
1E5
100
AcDbEntity
  8
Frei
  6
CONTINUOUS
 62
           3
100
AcDbLine
 10
-14060.86283614007
 20
-6888.209164721988
 30
0.0
 11
-14061.420503600981
 21
-6887.569628168661
 31
0.0
  0
LINE
  5
1E6
100
AcDbEntity
  8
Frei
  6
CONTINUOUS
 62
           3
100
AcDbLine
 10
-14078.820896353638
 20
-6886.981128335772
 30
0.0
 11
-14060.86283614007
 21
-6888.209164721988
 31
0.0
  0
LINE
  5
1E7
100
AcDbEntity
  8
Frei
  6
CONTINUOUS
 62
           3
100
AcDbLine
 10
-13888.265924087444
 20
-6900.011958878406
 30
0.0
 11
-13870.307863873875
 21
-6901.239995264623
 31
0.0
  0
LINE
  5
1E8
100
AcDbEntity
  8
Frei
  6
CONTINUOUS
 62
           3
100
AcDbLine
 10
-13887.626387534119
 20
-6899.454291417493
 30
0.0
 11
-13888.265924087444
 21
-6900.011958878406
 31
0.0
  0
LINE
  5
1E9
100
AcDbEntity
  8
Frei
  6
CONTINUOUS
 62
           3
100
AcDbLine
 10
-13888.18405499503
 20
-6898.814754864168
 30
0.0
 11
-13887.626387534119
 21
-6899.454291417493
 31
0.0
  0
LINE
  5
1EA
100
AcDbEntity
  8
Frei
  6
CONTINUOUS
 62
           3
100
AcDbLine
 10
-13870.225994781462
 20
-6900.042791250386
 30
0.0
 11
-13888.18405499503
 21
-6898.814754864168
 31
0.0
  0
LINE
  5
1EB
100
AcDbEntity
  8
Frei
  6
CONTINUOUS
 62
           3
100
AcDbLine
 10
-13870.865531334788
 20
-6900.600458711295
 30
0.0
 11
-13870.225994781462
 21
-6900.042791250386
 31
0.0
  0
LINE
  5
1EC
100
AcDbEntity
  8
Frei
  6
CONTINUOUS
 62
           3
100
AcDbLine
 10
-13870.307863873875
 20
-6901.239995264623
 30
0.0
 11
-13870.865531334788
 21
-6900.600458711295
 31
0.0
  0
LINE
  5
1ED
100
AcDbEntity
  8
Frei
  6
CONTINUOUS
 62
           3
100
AcDbLine
 10
-13887.626387534119
 20
-6899.454291417493
 30
0.0
 11
-13870.865531334788
 21
-6900.600458711295
 31
0.0
  0
LINE
  5
1EE
100
AcDbEntity
  8
Frei
  6
CONTINUOUS
 62
           3
100
AcDbLine
 10
-13870.362443268818
 20
-6902.038131274114
 30
0.0
 11
-13871.001979822146
 21
-6902.595798735025
 31
0.0
  0
LINE
  5
1EF
100
AcDbEntity
  8
Frei
  6
CONTINUOUS
 62
           3
100
AcDbLine
 10
-13888.320503482386
 20
-6900.810094887896
 30
0.0
 11
-13870.362443268818
 21
-6902.038131274114
 31
0.0
  0
LINE
  5
1F0
100
AcDbEntity
  8
Frei
  6
CONTINUOUS
 62
           3
100
AcDbLine
 10
-13887.762836021477
 20
-6901.449631441223
 30
0.0
 11
-13888.320503482386
 21
-6900.810094887896
 31
0.0
  0
LINE
  5
1F1
100
AcDbEntity
  8
Frei
  6
CONTINUOUS
 62
           3
100
AcDbLine
 10
-13888.402372574801
 20
-6902.007298902136
 30
0.0
 11
-13887.762836021477
 21
-6901.449631441223
 31
0.0
  0
LINE
  5
1F2
100
AcDbEntity
  8
Frei
  6
CONTINUOUS
 62
           3
100
AcDbLine
 10
-13870.444312361233
 20
-6903.235335288353
 30
0.0
 11
-13888.402372574801
 21
-6902.007298902136
 31
0.0
  0
LINE
  5
1F3
100
AcDbEntity
  8
Frei
  6
CONTINUOUS
 62
           3
100
AcDbLine
 10
-13871.001979822146
 20
-6902.595798735025
 30
0.0
 11
-13870.444312361233
 21
-6903.235335288353
 31
0.0
  0
LINE
  5
1F4
100
AcDbEntity
  8
Frei
  6
CONTINUOUS
 62
           3
100
AcDbLine
 10
-13871.001979822146
 20
-6902.595798735025
 30
0.0
 11
-13887.762836021477
 21
-6901.449631441223
 31
0.0
  0
LINE
  5
1F5
100
AcDbEntity
  8
Frei
  6
CONTINUOUS
 62
           3
100
AcDbLine
 10
-13870.498891756175
 20
-6904.033471297844
 30
0.0
 11
-13871.138428309503
 21
-6904.591138758755
 31
0.0
  0
LINE
  5
1F6
100
AcDbEntity
  8
Frei
  6
CONTINUOUS
 62
           3
100
AcDbLine
 10
-13888.456951969743
 20
-6902.805434911626
 30
0.0
 11
-13870.498891756175
 21
-6904.033471297844
 31
0.0
  0
LINE
  5
1F7
100
AcDbEntity
  8
Frei
  6
CONTINUOUS
 62
           3
100
AcDbLine
 10
-13887.899284508834
 20
-6903.444971464953
 30
0.0
 11
-13888.456951969743
 21
-6902.805434911626
 31
0.0
  0
LINE
  5
1F8
100
AcDbEntity
  8
Frei
  6
CONTINUOUS
 62
           3
100
AcDbLine
 10
-13888.538821062159
 20
-6904.002638925864
 30
0.0
 11
-13887.899284508834
 21
-6903.444971464953
 31
0.0
  0
LINE
  5
1F9
100
AcDbEntity
  8
Frei
  6
CONTINUOUS
 62
           3
100
AcDbLine
 10
-13870.58076084859
 20
-6905.230675312081
 30
0.0
 11
-13888.538821062159
 21
-6904.002638925864
 31
0.0
  0
LINE
  5
1FA
100
AcDbEntity
  8
Frei
  6
CONTINUOUS
 62
           3
100
AcDbLine
 10
-13871.138428309503
 20
-6904.591138758755
 30
0.0
 11
-13870.58076084859
 21
-6905.230675312081
 31
0.0
  0
LINE
  5
1FB
100
AcDbEntity
  8
Frei
  6
CONTINUOUS
 62
           3
100
AcDbLine
 10
-13870.635340243532
 20
-6906.028811321574
 30
0.0
 11
-13871.274876796861
 21
-6906.586478782485
 31
0.0
  0
LINE
  5
1FC
100
AcDbEntity
  8
Frei
  6
CONTINUOUS
 62
           3
100
AcDbLine
 10
-13876.714063101892
 20
-6905.613126511355
 30
0.0
 11
-13870.635340243532
 21
-6906.028811321574
 31
0.0
  0
LINE
  5
1FD
100
AcDbEntity
  8
Frei
  6
CONTINUOUS
 62
           3
100
AcDbLine
 10
-13888.035732996192
 20
-6905.440311488683
 30
0.0
 11
-13888.593400457101
 21
-6904.800774935357
 31
0.0
  0
LINE
  5
1FE
100
AcDbEntity
  8
Frei
  6
CONTINUOUS
 62
           3
100
AcDbLine
 10
-13888.675269549516
 20
-6905.997978949594
 30
0.0
 11
-13888.035732996192
 21
-6905.440311488683
 31
0.0
  0
LINE
  5
1FF
100
AcDbEntity
  8
Frei
  6
CONTINUOUS
 62
           3
100
AcDbLine
 10
-13882.596546691158
 20
-6906.413663759815
 30
0.0
 11
-13888.675269549516
 21
-6905.997978949594
 31
0.0
  0
LINE
  5
200
100
AcDbEntity
  8
Frei
  6
CONTINUOUS
 62
           3
100
AcDbLine
 10
-13871.274876796861
 20
-6906.586478782485
 30
0.0
 11
-13870.717209335948
 21
-6907.226015335811
 31
0.0
  0
LINE
  5
201
100
AcDbEntity
  8
Frei
  6
CONTINUOUS
 62
           3
100
AcDbLine
 10
-13870.77178873089
 20
-6908.024151345304
 30
0.0
 11
-13871.411325284218
 21
-6908.581818806215
 31
0.0
  0
LINE
  5
202
100
AcDbEntity
  8
Frei
  6
CONTINUOUS
 62
           3
100
AcDbLine
 10
-13876.106034165621
 20
-6907.65937656401
 30
0.0
 11
-13870.77178873089
 21
-6908.024151345304
 31
0.0
  0
LINE
  5
203
100
AcDbEntity
  8
Frei
  6
CONTINUOUS
 62
           3
100
AcDbLine
 10
-13888.172181483549
 20
-6907.435651512413
 30
0.0
 11
-13888.729848944458
 21
-6906.796114959087
 31
0.0
  0
LINE
  5
204
100
AcDbEntity
  8
Frei
  6
CONTINUOUS
 62
           3
100
AcDbLine
 10
-13877.353599655218
 20
-6906.170793972266
 30
0.0
 11
-13871.274876796861
 21
-6906.586478782485
 31
0.0
  0
LINE
  5
205
100
AcDbEntity
  8
Frei
  6
CONTINUOUS
 62
           3
100
AcDbLine
 10
-13887.899284508834
 20
-6903.444971464953
 30
0.0
 11
-13871.138428309503
 21
-6904.591138758755
 31
0.0
  0
LINE
  5
206
100
AcDbEntity
  8
Frei
  6
CONTINUOUS
 62
           3
100
AcDbLine
 10
-13877.353599655218
 20
-6906.170793972266
 30
0.0
 11
-13876.795932194307
 21
-6906.810330525592
 31
0.0
  0
LINE
  5
207
100
AcDbEntity
  8
Frei
  6
CONTINUOUS
 62
           3
100
AcDbLine
 10
-13870.717209335948
 20
-6907.226015335811
 30
0.0
 11
-13876.795932194307
 21
-6906.810330525592
 31
0.0
  0
LINE
  5
208
100
AcDbEntity
  8
Frei
  6
CONTINUOUS
 62
           3
100
AcDbLine
 10
-13876.714063101892
 20
-6905.613126511355
 30
0.0
 11
-13877.353599655218
 21
-6906.170793972266
 31
0.0
  0
LINE
  5
209
100
AcDbEntity
  8
Frei
  6
CONTINUOUS
 62
           3
100
AcDbLine
 10
-13876.745570718947
 20
-6908.217044024921
 30
0.0
 11
-13876.106034165621
 21
-6907.65937656401
 31
0.0
  0
LINE
  5
20A
100
AcDbEntity
  8
Frei
  6
CONTINUOUS
 62
           3
100
AcDbLine
 10
-13883.395603509731
 20
-6907.16088974038
 30
0.0
 11
-13882.83793604882
 21
-6907.800426293705
 31
0.0
  0
LINE
  5
20B
100
AcDbEntity
  8
Frei
  6
CONTINUOUS
 62
           3
100
AcDbLine
 10
-13888.729848944458
 20
-6906.796114959087
 30
0.0
 11
-13883.395603509731
 21
-6907.16088974038
 31
0.0
  0
LINE
  5
20C
100
AcDbEntity
  8
Frei
  6
CONTINUOUS
 62
           3
100
AcDbLine
 10
-13881.957010137832
 20
-6905.855996298902
 30
0.0
 11
-13882.596546691158
 21
-6906.413663759815
 31
0.0
  0
LINE
  5
20D
100
AcDbEntity
  8
Frei
  6
CONTINUOUS
 62
           3
100
AcDbLine
 10
-13888.035732996192
 20
-6905.440311488683
 30
0.0
 11
-13881.957010137832
 21
-6905.855996298902
 31
0.0
  0
LINE
  5
20E
100
AcDbEntity
  8
Frei
  6
CONTINUOUS
 62
           3
100
AcDbLine
 10
-13882.514677598743
 20
-6905.216459745578
 30
0.0
 11
-13881.957010137832
 21
-6905.855996298902
 31
0.0
  0
LINE
  5
20F
100
AcDbEntity
  8
Frei
  6
CONTINUOUS
 62
           3
100
AcDbLine
 10
-13888.593400457101
 20
-6904.800774935357
 30
0.0
 11
-13882.514677598743
 21
-6905.216459745578
 31
0.0
  0
LINE
  5
210
100
AcDbEntity
  8
Frei
  6
CONTINUOUS
 62
           3
100
AcDbLine
 10
-13870.717209335948
 20
-6907.226015335811
 30
0.0
 11
-13870.635340243532
 21
-6906.028811321574
 31
0.0
  0
LINE
  5
211
100
AcDbEntity
  8
Frei
  6
CONTINUOUS
 62
           3
100
AcDbLine
 10
-13870.498891756175
 20
-6904.033471297844
 30
0.0
 11
-13870.58076084859
 21
-6905.230675312081
 31
0.0
  0
LINE
  5
212
100
AcDbEntity
  8
Frei
  6
CONTINUOUS
 62
           3
100
AcDbLine
 10
-13870.362443268818
 20
-6902.038131274114
 30
0.0
 11
-13870.444312361233
 21
-6903.235335288353
 31
0.0
  0
LINE
  5
213
100
AcDbEntity
  8
Frei
  6
CONTINUOUS
 62
           3
100
AcDbLine
 10
-13870.225994781462
 20
-6900.042791250386
 30
0.0
 11
-13870.307863873875
 21
-6901.239995264623
 31
0.0
  0
LINE
  5
214
100
AcDbEntity
  8
Frei
  6
CONTINUOUS
 62
           3
100
AcDbLine
 10
-13870.812723277098
 20
-6908.622753352422
 30
0.0
 11
-13870.77178873089
 21
-6908.024151345304
 31
0.0
  0
LINE
  5
215
100
AcDbEntity
  8
Frei
  6
CONTINUOUS
 62
           3
100
AcDbLine
 10
-13888.729848944458
 20
-6906.796114959087
 30
0.0
 11
-13888.770783490667
 21
-6907.394716966204
 31
0.0
  0
LINE
  5
216
100
AcDbEntity
  8
Frei
  6
CONTINUOUS
 62
           3
100
AcDbLine
 10
-13888.593400457101
 20
-6904.800774935357
 30
0.0
 11
-13888.675269549516
 21
-6905.997978949594
 31
0.0
  0
LINE
  5
217
100
AcDbEntity
  8
Frei
  6
CONTINUOUS
 62
           3
100
AcDbLine
 10
-13888.456951969743
 20
-6902.805434911626
 30
0.0
 11
-13888.538821062159
 21
-6904.002638925864
 31
0.0
  0
LINE
  5
218
100
AcDbEntity
  8
Frei
  6
CONTINUOUS
 62
           3
100
AcDbLine
 10
-13888.320503482386
 20
-6900.810094887896
 30
0.0
 11
-13888.402372574801
 21
-6902.007298902136
 31
0.0
  0
LINE
  5
219
100
AcDbEntity
  8
Frei
  6
CONTINUOUS
 62
           3
100
AcDbLine
 10
-13888.18405499503
 20
-6898.814754864168
 30
0.0
 11
-13888.265924087444
 21
-6900.011958878406
 31
0.0
  0
LINE
  5
21A
100
AcDbEntity
  8
Frei
  6
CONTINUOUS
 62
           3
100
AcDbLine
 10
-13889.275642893888
 20
-6914.777475054005
 30
0.0
 11
-13889.357511986304
 21
-6915.974679068244
 31
0.0
  0
LINE
  5
21B
100
AcDbEntity
  8
Frei
  6
CONTINUOUS
 62
           3
100
AcDbLine
 10
-13889.139194406531
 20
-6912.782135030277
 30
0.0
 11
-13889.221063498946
 21
-6913.979339044514
 31
0.0
  0
LINE
  5
21C
100
AcDbEntity
  8
Frei
  6
CONTINUOUS
 62
           3
100
AcDbLine
 10
-13889.002745919173
 20
-6910.786795006547
 30
0.0
 11
-13889.084615011589
 21
-6911.983999020784
 31
0.0
  0
LINE
  5
21D
100
AcDbEntity
  8
Frei
  6
CONTINUOUS
 62
           3
100
AcDbLine
 10
-13888.866297431816
 20
-6908.791454982817
 30
0.0
 11
-13888.948166524231
 21
-6909.988658997054
 31
0.0
  0
LINE
  5
21E
100
AcDbEntity
  8
Frei
  6
CONTINUOUS
 62
           3
100
AcDbLine
 10
-13888.770783490667
 20
-6907.394716966204
 30
0.0
 11
-13888.811718036874
 21
-6907.993318973324
 31
0.0
  0
LINE
  5
21F
100
AcDbEntity
  8
Frei
  6
CONTINUOUS
 62
           3
100
AcDbLine
 10
-13870.853657823305
 20
-6909.221355359541
 30
0.0
 11
-13870.812723277098
 21
-6908.622753352422
 31
0.0
  0
LINE
  5
220
100
AcDbEntity
  8
Frei
  6
CONTINUOUS
 62
           3
100
AcDbLine
 10
-13871.31758268032
 20
-6916.005511440222
 30
0.0
 11
-13871.399451772735
 21
-6917.202715454461
 31
0.0
  0
LINE
  5
221
100
AcDbEntity
  8
Frei
  6
CONTINUOUS
 62
           3
100
AcDbLine
 10
-13871.181134192962
 20
-6914.010171416494
 30
0.0
 11
-13871.263003285378
 21
-6915.207375430731
 31
0.0
  0
LINE
  5
222
100
AcDbEntity
  8
Frei
  6
CONTINUOUS
 62
           3
100
AcDbLine
 10
-13871.044685705605
 20
-6912.014831392764
 30
0.0
 11
-13871.12655479802
 21
-6913.212035407001
 31
0.0
  0
LINE
  5
223
100
AcDbEntity
  8
Frei
  6
CONTINUOUS
 62
           3
100
AcDbLine
 10
-13870.990106310663
 20
-6911.216695383271
 30
0.0
 11
-13870.908237218247
 21
-6910.019491369034
 31
0.0
  0
LINE
  5
224
100
AcDbEntity
  8
Frei
  6
CONTINUOUS
 62
           3
100
AcDbLine
 10
-13882.869443665873
 20
-6910.404343807275
 30
0.0
 11
-13888.948166524231
 21
-6909.988658997054
 31
0.0
  0
LINE
  5
225
100
AcDbEntity
  8
Frei
  6
CONTINUOUS
 62
           3
100
AcDbLine
 10
-13882.229907112547
 20
-6909.846676346362
 30
0.0
 11
-13882.869443665873
 21
-6910.404343807275
 31
0.0
  0
LINE
  5
226
100
AcDbEntity
  8
Frei
  6
CONTINUOUS
 62
           3
100
AcDbLine
 10
-13882.229907112547
 20
-6909.846676346362
 30
0.0
 11
-13888.308629970907
 21
-6909.430991536143
 31
0.0
  0
LINE
  5
227
100
AcDbEntity
  8
Frei
  6
CONTINUOUS
 62
           3
100
AcDbLine
 10
-13882.787574573458
 20
-6909.207139793036
 30
0.0
 11
-13882.229907112547
 21
-6909.846676346362
 31
0.0
  0
LINE
  5
228
100
AcDbEntity
  8
Frei
  6
CONTINUOUS
 62
           3
100
AcDbLine
 10
-13883.477472602146
 20
-6908.358093754618
 30
0.0
 11
-13888.811718036874
 21
-6907.993318973324
 31
0.0
  0
LINE
  5
229
100
AcDbEntity
  8
Frei
  6
CONTINUOUS
 62
           3
100
AcDbLine
 10
-13882.83793604882
 20
-6907.800426293705
 30
0.0
 11
-13883.477472602146
 21
-6908.358093754618
 31
0.0
  0
LINE
  5
22A
100
AcDbEntity
  8
Frei
  6
CONTINUOUS
 62
           3
100
AcDbLine
 10
-13876.745570718947
 20
-6908.217044024921
 30
0.0
 11
-13871.411325284218
 21
-6908.581818806215
 31
0.0
  0
LINE
  5
22B
100
AcDbEntity
  8
Frei
  6
CONTINUOUS
 62
           3
100
AcDbLine
 10
-13876.187903258036
 20
-6908.856580578247
 30
0.0
 11
-13876.745570718947
 21
-6908.217044024921
 31
0.0
  0
LINE
  5
22C
100
AcDbEntity
  8
Frei
  6
CONTINUOUS
 62
           3
100
AcDbLine
 10
-13877.626496629933
 20
-6910.161474019726
 30
0.0
 11
-13877.068829169022
 21
-6910.801010573052
 31
0.0
  0
LINE
  5
22D
100
AcDbEntity
  8
Frei
  6
CONTINUOUS
 62
           3
100
AcDbLine
 10
-13876.986960076607
 20
-6909.603806558813
 30
0.0
 11
-13870.908237218247
 21
-6910.019491369034
 31
0.0
  0
LINE
  5
22E
100
AcDbEntity
  8
Frei
  6
CONTINUOUS
 62
           3
100
AcDbLine
 10
-13876.986960076607
 20
-6909.603806558813
 30
0.0
 11
-13877.626496629933
 21
-6910.161474019726
 31
0.0
  0
LINE
  5
22F
100
AcDbEntity
  8
Frei
  6
CONTINUOUS
 62
           3
100
AcDbLine
 10
-13871.684222258933
 20
-6912.572498853675
 30
0.0
 11
-13888.445078458264
 21
-6911.426331559873
 31
0.0
  0
LINE
  5
230
100
AcDbEntity
  8
Frei
  6
CONTINUOUS
 62
           3
100
AcDbLine
 10
-13871.547773771576
 20
-6910.577158829945
 30
0.0
 11
-13877.626496629933
 21
-6910.161474019726
 31
0.0
  0
LINE
  5
231
100
AcDbEntity
  8
Frei
  6
CONTINUOUS
 62
           3
100
AcDbLine
 10
-13888.172181483549
 20
-6907.435651512413
 30
0.0
 11
-13882.83793604882
 21
-6907.800426293705
 31
0.0
  0
LINE
  5
232
100
AcDbEntity
  8
Frei
  6
CONTINUOUS
 62
           3
100
AcDbLine
 10
-13888.811718036874
 20
-6907.993318973324
 30
0.0
 11
-13888.172181483549
 21
-6907.435651512413
 31
0.0
  0
LINE
  5
233
100
AcDbEntity
  8
Frei
  6
CONTINUOUS
 62
           3
100
AcDbLine
 10
-13870.853657823305
 20
-6909.221355359541
 30
0.0
 11
-13876.187903258036
 21
-6908.856580578247
 31
0.0
  0
LINE
  5
234
100
AcDbEntity
  8
Frei
  6
CONTINUOUS
 62
           3
100
AcDbLine
 10
-13871.411325284218
 20
-6908.581818806215
 30
0.0
 11
-13870.853657823305
 21
-6909.221355359541
 31
0.0
  0
LINE
  5
235
100
AcDbEntity
  8
Frei
  6
CONTINUOUS
 62
           3
100
AcDbLine
 10
-13870.908237218247
 20
-6910.019491369034
 30
0.0
 11
-13871.547773771576
 21
-6910.577158829945
 31
0.0
  0
LINE
  5
236
100
AcDbEntity
  8
Frei
  6
CONTINUOUS
 62
           3
100
AcDbLine
 10
-13888.866297431816
 20
-6908.791454982817
 30
0.0
 11
-13882.787574573458
 21
-6909.207139793036
 31
0.0
  0
LINE
  5
237
100
AcDbEntity
  8
Frei
  6
CONTINUOUS
 62
           3
100
AcDbLine
 10
-13888.308629970907
 20
-6909.430991536143
 30
0.0
 11
-13888.866297431816
 21
-6908.791454982817
 31
0.0
  0
LINE
  5
238
100
AcDbEntity
  8
Frei
  6
CONTINUOUS
 62
           3
100
AcDbLine
 10
-13888.948166524231
 20
-6909.988658997054
 30
0.0
 11
-13888.308629970907
 21
-6909.430991536143
 31
0.0
  0
LINE
  5
239
100
AcDbEntity
  8
Frei
  6
CONTINUOUS
 62
           3
100
AcDbLine
 10
-13870.990106310663
 20
-6911.216695383271
 30
0.0
 11
-13877.068829169022
 21
-6910.801010573052
 31
0.0
  0
LINE
  5
23A
100
AcDbEntity
  8
Frei
  6
CONTINUOUS
 62
           3
100
AcDbLine
 10
-13871.547773771576
 20
-6910.577158829945
 30
0.0
 11
-13870.990106310663
 21
-6911.216695383271
 31
0.0
  0
LINE
  5
23B
100
AcDbEntity
  8
Frei
  6
CONTINUOUS
 62
           3
100
AcDbLine
 10
-13871.044685705605
 20
-6912.014831392764
 30
0.0
 11
-13871.684222258933
 21
-6912.572498853675
 31
0.0
  0
LINE
  5
23C
100
AcDbEntity
  8
Frei
  6
CONTINUOUS
 62
           3
100
AcDbLine
 10
-13889.002745919173
 20
-6910.786795006547
 30
0.0
 11
-13871.044685705605
 21
-6912.014831392764
 31
0.0
  0
LINE
  5
23D
100
AcDbEntity
  8
Frei
  6
CONTINUOUS
 62
           3
100
AcDbLine
 10
-13888.445078458264
 20
-6911.426331559873
 30
0.0
 11
-13889.002745919173
 21
-6910.786795006547
 31
0.0
  0
LINE
  5
23E
100
AcDbEntity
  8
Frei
  6
CONTINUOUS
 62
           3
100
AcDbLine
 10
-13889.084615011589
 20
-6911.983999020784
 30
0.0
 11
-13888.445078458264
 21
-6911.426331559873
 31
0.0
  0
LINE
  5
23F
100
AcDbEntity
  8
Frei
  6
CONTINUOUS
 62
           3
100
AcDbLine
 10
-13871.12655479802
 20
-6913.212035407001
 30
0.0
 11
-13889.084615011589
 21
-6911.983999020784
 31
0.0
  0
LINE
  5
240
100
AcDbEntity
  8
Frei
  6
CONTINUOUS
 62
           3
100
AcDbLine
 10
-13871.684222258933
 20
-6912.572498853675
 30
0.0
 11
-13871.12655479802
 21
-6913.212035407001
 31
0.0
  0
LINE
  5
241
100
AcDbEntity
  8
Frei
  6
CONTINUOUS
 62
           3
100
AcDbLine
 10
-13888.581526945622
 20
-6913.421671583601
 30
0.0
 11
-13871.82067074629
 21
-6914.567838877403
 31
0.0
  0
LINE
  5
242
100
AcDbEntity
  8
Frei
  6
CONTINUOUS
 62
           3
100
AcDbLine
 10
-13871.181134192962
 20
-6914.010171416494
 30
0.0
 11
-13871.82067074629
 21
-6914.567838877403
 31
0.0
  0
LINE
  5
243
100
AcDbEntity
  8
Frei
  6
CONTINUOUS
 62
           3
100
AcDbLine
 10
-13889.139194406531
 20
-6912.782135030277
 30
0.0
 11
-13871.181134192962
 21
-6914.010171416494
 31
0.0
  0
LINE
  5
244
100
AcDbEntity
  8
Frei
  6
CONTINUOUS
 62
           3
100
AcDbLine
 10
-13888.581526945622
 20
-6913.421671583601
 30
0.0
 11
-13889.139194406531
 21
-6912.782135030277
 31
0.0
  0
LINE
  5
245
100
AcDbEntity
  8
Frei
  6
CONTINUOUS
 62
           3
100
AcDbLine
 10
-13889.221063498946
 20
-6913.979339044514
 30
0.0
 11
-13888.581526945622
 21
-6913.421671583601
 31
0.0
  0
LINE
  5
246
100
AcDbEntity
  8
Frei
  6
CONTINUOUS
 62
           3
100
AcDbLine
 10
-13871.263003285378
 20
-6915.207375430731
 30
0.0
 11
-13889.221063498946
 21
-6913.979339044514
 31
0.0
  0
LINE
  5
247
100
AcDbEntity
  8
Frei
  6
CONTINUOUS
 62
           3
100
AcDbLine
 10
-13871.82067074629
 20
-6914.567838877403
 30
0.0
 11
-13871.263003285378
 21
-6915.207375430731
 31
0.0
  0
LINE
  5
248
100
AcDbEntity
  8
Frei
  6
CONTINUOUS
 62
           3
100
AcDbLine
 10
-13871.957119233648
 20
-6916.563178901133
 30
0.0
 11
-13888.717975432979
 21
-6915.417011607331
 31
0.0
  0
LINE
  5
249
100
AcDbEntity
  8
Frei
  6
CONTINUOUS
 62
           3
100
AcDbLine
 10
-13871.957119233648
 20
-6916.563178901133
 30
0.0
 11
-13871.31758268032
 21
-6916.005511440222
 31
0.0
  0
LINE
  5
24A
100
AcDbEntity
  8
Frei
  6
CONTINUOUS
 62
           3
100
AcDbLine
 10
-13871.399451772735
 20
-6917.202715454461
 30
0.0
 11
-13871.957119233648
 21
-6916.563178901133
 31
0.0
  0
LINE
  5
24B
100
AcDbEntity
  8
Frei
  6
CONTINUOUS
 62
           3
100
AcDbLine
 10
-13889.357511986304
 20
-6915.974679068244
 30
0.0
 11
-13871.399451772735
 21
-6917.202715454461
 31
0.0
  0
LINE
  5
24C
100
AcDbEntity
  8
Frei
  6
CONTINUOUS
 62
           3
100
AcDbLine
 10
-13888.717975432979
 20
-6915.417011607331
 30
0.0
 11
-13889.357511986304
 21
-6915.974679068244
 31
0.0
  0
LINE
  5
24D
100
AcDbEntity
  8
Frei
  6
CONTINUOUS
 62
           3
100
AcDbLine
 10
-13889.275642893888
 20
-6914.777475054005
 30
0.0
 11
-13888.717975432979
 21
-6915.417011607331
 31
0.0
  0
LINE
  5
24E
100
AcDbEntity
  8
Frei
  6
CONTINUOUS
 62
           3
100
AcDbLine
 10
-13871.31758268032
 20
-6916.005511440222
 30
0.0
 11
-13889.275642893888
 21
-6914.777475054005
 31
0.0
  0
LINE
  5
24F
100
AcDbEntity
  8
Frei
  6
CONTINUOUS
 62
           7
100
AcDbLine
 10
-13845.456650700537
 20
-6922.50379704725
 30
0.0
 11
-13844.791761966097
 21
-6923.861723607821
 31
0.0
  0
LINE
  5
250
100
AcDbEntity
  8
Frei
  6
CONTINUOUS
 62
           7
100
AcDbLine
 10
-13845.456650700537
 20
-6922.50379704725
 30
0.0
 11
-13849.690779127286
 21
-6922.214252201642
 31
0.0
  0
LINE
  5
251
100
AcDbEntity
  8
Frei
  6
CONTINUOUS
 62
           7
100
AcDbLine
 10
-13844.523763271694
 20
-6919.942673044463
 30
0.0
 11
-13845.456650700537
 21
-6922.50379704725
 31
0.0
  0
LINE
  5
252
100
AcDbEntity
  8
Frei
  6
CONTINUOUS
 62
           7
100
AcDbLine
 10
-13844.826422133287
 20
-6913.287716248648
 30
0.0
 11
-13844.250866296979
 21
-6915.951992997005
 31
0.0
  0
LINE
  5
253
100
AcDbEntity
  8
Frei
  6
CONTINUOUS
 62
           7
100
AcDbLine
 10
-13844.826422133287
 20
-6913.287716248648
 30
0.0
 11
-13849.060550560036
 21
-6912.99817140304
 31
0.0
  0
LINE
  5
254
100
AcDbEntity
  8
Frei
  6
CONTINUOUS
 62
           7
100
AcDbLine
 10
-13843.982867602579
 20
-6912.032942433647
 30
0.0
 11
-13844.826422133287
 21
-6913.287716248648
 31
0.0
  0
LINE
  5
255
100
AcDbEntity
  8
Frei
  6
CONTINUOUS
 62
           7
100
AcDbLine
 10
-13844.928210453454
 20
-6925.857063631551
 30
0.0
 11
-13845.771764984163
 21
-6927.111837446551
 31
0.0
  0
LINE
  5
256
100
AcDbEntity
  8
Frei
  6
CONTINUOUS
 62
           7
100
AcDbLine
 10
-13844.511307849662
 20
-6908.679675849347
 30
0.0
 11
-13848.745436276411
 21
-6908.390131003738
 31
0.0
  0
LINE
  5
257
100
AcDbEntity
  8
Frei
  6
CONTINUOUS
 62
           7
100
AcDbLine
 10
-13844.511307849662
 20
-6908.679675849347
 30
0.0
 11
-13843.846419115222
 21
-6910.037602409919
 31
0.0
  0
LINE
  5
258
100
AcDbEntity
  8
Frei
  6
CONTINUOUS
 62
           7
100
AcDbLine
 10
-13849.916560512778
 20
-6925.515942413158
 30
0.0
 11
-13850.005893410913
 21
-6926.822292600942
 31
0.0
  0
LINE
  5
259
100
AcDbEntity
  8
Frei
  6
CONTINUOUS
 62
           7
100
AcDbLine
 10
-13844.928210453454
 20
-6925.857063631551
 30
0.0
 11
-13844.791761966097
 21
-6923.861723607821
 31
0.0
  0
LINE
  5
25A
100
AcDbEntity
  8
Frei
  6
CONTINUOUS
 62
           7
100
AcDbLine
 10
-13844.928210453454
 20
-6925.857063631551
 30
0.0
 11
-13849.916560512778
 21
-6925.515942413158
 31
0.0
  0
LINE
  5
25B
100
AcDbEntity
  8
Frei
  6
CONTINUOUS
 62
           7
100
AcDbLine
 10
-13849.780112025421
 20
-6923.520602389428
 30
0.0
 11
-13849.916560512778
 21
-6925.515942413158
 31
0.0
  0
LINE
  5
25C
100
AcDbEntity
  8
Frei
  6
CONTINUOUS
 62
           7
100
AcDbLine
 10
-13844.791761966097
 20
-6923.861723607821
 30
0.0
 11
-13844.523763271694
 21
-6919.942673044463
 31
0.0
  0
LINE
  5
25D
100
AcDbEntity
  8
Frei
  6
CONTINUOUS
 62
           7
100
AcDbLine
 10
-13844.791761966097
 20
-6923.861723607821
 30
0.0
 11
-13849.780112025421
 21
-6923.520602389428
 31
0.0
  0
LINE
  5
25E
100
AcDbEntity
  8
Frei
  6
CONTINUOUS
 62
           7
100
AcDbLine
 10
-13849.690779127286
 20
-6922.214252201642
 30
0.0
 11
-13849.780112025421
 21
-6923.520602389428
 31
0.0
  0
LINE
  5
25F
100
AcDbEntity
  8
Frei
  6
CONTINUOUS
 62
           7
100
AcDbLine
 10
-13849.512113331019
 20
-6919.60155182607
 30
0.0
 11
-13849.690779127286
 21
-6922.214252201642
 31
0.0
  0
LINE
  5
260
100
AcDbEntity
  8
Frei
  6
CONTINUOUS
 62
           7
100
AcDbLine
 10
-13844.523763271694
 20
-6919.942673044463
 30
0.0
 11
-13844.250866296979
 21
-6915.951992997005
 31
0.0
  0
LINE
  5
261
100
AcDbEntity
  8
Frei
  6
CONTINUOUS
 62
           7
100
AcDbLine
 10
-13844.523763271694
 20
-6919.942673044463
 30
0.0
 11
-13849.512113331019
 21
-6919.60155182607
 31
0.0
  0
LINE
  5
262
100
AcDbEntity
  8
Frei
  6
CONTINUOUS
 62
           7
100
AcDbLine
 10
-13849.239216356304
 20
-6915.61087177861
 30
0.0
 11
-13849.512113331019
 21
-6919.60155182607
 31
0.0
  0
LINE
  5
263
100
AcDbEntity
  8
Frei
  6
CONTINUOUS
 62
           7
100
AcDbLine
 10
-13844.250866296979
 20
-6915.951992997005
 30
0.0
 11
-13843.982867602579
 21
-6912.032942433647
 31
0.0
  0
LINE
  5
264
100
AcDbEntity
  8
Frei
  6
CONTINUOUS
 62
           7
100
AcDbLine
 10
-13844.250866296979
 20
-6915.951992997005
 30
0.0
 11
-13849.239216356304
 21
-6915.61087177861
 31
0.0
  0
LINE
  5
265
100
AcDbEntity
  8
Frei
  6
CONTINUOUS
 62
           7
100
AcDbLine
 10
-13849.060550560036
 20
-6912.99817140304
 30
0.0
 11
-13849.239216356304
 21
-6915.61087177861
 31
0.0
  0
LINE
  5
266
100
AcDbEntity
  8
Frei
  6
CONTINUOUS
 62
           7
100
AcDbLine
 10
-13848.971217661903
 20
-6911.691821215254
 30
0.0
 11
-13849.060550560036
 21
-6912.99817140304
 31
0.0
  0
LINE
  5
267
100
AcDbEntity
  8
Frei
  6
CONTINUOUS
 62
           7
100
AcDbLine
 10
-13843.982867602579
 20
-6912.032942433647
 30
0.0
 11
-13843.846419115222
 21
-6910.037602409919
 31
0.0
  0
LINE
  5
268
100
AcDbEntity
  8
Frei
  6
CONTINUOUS
 62
           7
100
AcDbLine
 10
-13843.982867602579
 20
-6912.032942433647
 30
0.0
 11
-13848.971217661903
 21
-6911.691821215254
 31
0.0
  0
LINE
  5
269
100
AcDbEntity
  8
Frei
  6
CONTINUOUS
 62
           7
100
AcDbLine
 10
-13848.834769174546
 20
-6909.696481191524
 30
0.0
 11
-13848.971217661903
 21
-6911.691821215254
 31
0.0
  0
LINE
  5
26A
100
AcDbEntity
  8
Frei
  6
CONTINUOUS
 62
           7
100
AcDbLine
 10
-13848.834769174546
 20
-6909.696481191524
 30
0.0
 11
-13843.846419115222
 21
-6910.037602409919
 31
0.0
  0
LINE
  5
26B
100
AcDbEntity
  8
Frei
  6
CONTINUOUS
 62
           7
100
AcDbLine
 10
-13850.005893410913
 20
-6926.822292600942
 30
0.0
 11
-13845.771764984163
 21
-6927.111837446551
 31
0.0
  0
LINE
  5
26C
100
AcDbEntity
  8
Frei
  6
CONTINUOUS
 62
           7
100
AcDbLine
 10
-13848.745436276411
 20
-6908.390131003738
 30
0.0
 11
-13848.834769174546
 21
-6909.696481191524
 31
0.0
  0
LINE
  5
26D
100
AcDbEntity
  8
Frei
  6
CONTINUOUS
 62
           7
100
AcDbLine
 10
-13893.571297776001
 20
-6874.991706880777
 30
0.0
 11
-13893.929475055314
 21
-6880.229474443067
 31
0.0
  0
LINE
  5
26E
100
AcDbEntity
  8
Frei
  6
CONTINUOUS
 62
           7
100
AcDbLine
 10
-13892.552362463957
 20
-6882.07773332935
 30
0.0
 11
-13892.313577611081
 21
-6878.585888287824
 31
0.0
  0
LINE
  5
26F
100
AcDbEntity
  8
Frei
  6
CONTINUOUS
 62
           7
100
AcDbLine
 10
-13893.306589675218
 20
-6882.026156575075
 30
0.0
 11
-13892.552362463957
 21
-6882.07773332935
 31
0.0
  0
LINE
  5
270
100
AcDbEntity
  8
Frei
  6
CONTINUOUS
 62
           7
100
AcDbLine
 10
-13892.313577611081
 20
-6878.585888287824
 30
0.0
 11
-13891.836007905331
 21
-6871.60219820477
 31
0.0
  0
LINE
  5
271
100
AcDbEntity
  8
Frei
  6
CONTINUOUS
 62
           7
100
AcDbLine
 10
-13893.067804822342
 20
-6878.534311533547
 30
0.0
 11
-13892.313577611081
 21
-6878.585888287824
 31
0.0
  0
LINE
  5
272
100
AcDbEntity
  8
Frei
  6
CONTINUOUS
 62
           7
100
AcDbLine
 10
-13891.836007905331
 20
-6871.60219820477
 30
0.0
 11
-13891.597223052455
 21
-6868.110353163242
 31
0.0
  0
LINE
  5
273
100
AcDbEntity
  8
Frei
  6
CONTINUOUS
 62
           7
100
AcDbLine
 10
-13892.590235116591
 20
-6871.550621450493
 30
0.0
 11
-13891.836007905331
 21
-6871.60219820477
 31
0.0
  0
LINE
  5
274
100
AcDbEntity
  8
Frei
  6
CONTINUOUS
 62
           7
100
AcDbLine
 10
-13891.597223052455
 20
-6868.110353163242
 30
0.0
 11
-13891.221989712221
 21
-6862.623168097985
 31
0.0
  0
LINE
  5
275
100
AcDbEntity
  8
Frei
  6
CONTINUOUS
 62
           7
100
AcDbLine
 10
-13892.351450263715
 20
-6868.058776408967
 30
0.0
 11
-13891.597223052455
 21
-6868.110353163242
 31
0.0
  0
LINE
  5
276
100
AcDbEntity
  8
Frei
  6
CONTINUOUS
 62
           7
100
AcDbLine
 10
-13854.773360365058
 20
-6923.251110655136
 30
0.0
 11
-13853.954669440913
 21
-6911.279070512757
 31
0.0
  0
LINE
  5
277
100
AcDbEntity
  8
Frei
  6
CONTINUOUS
 62
           2
100
AcDbLine
 10
-13849.785010305734
 20
-6923.59223187353
 30
0.0
 11
-13854.773360365058
 21
-6923.251110655136
 31
0.0
  0
LINE
  5
278
100
AcDbEntity
  8
Frei
  6
CONTINUOUS
 62
           7
100
AcDbLine
 10
-13853.954669440913
 20
-6911.279070512757
 30
0.0
 11
-13853.886445197235
 21
-6910.281400500893
 31
0.0
  0
LINE
  5
279
100
AcDbEntity
  8
Frei
  6
CONTINUOUS
 62
           2
100
AcDbLine
 10
-13848.966319381589
 20
-6911.62019173115
 30
0.0
 11
-13853.954669440913
 21
-6911.279070512757
 31
0.0
  0
LINE
  5
27A
100
AcDbEntity
  8
Frei
  6
CONTINUOUS
 62
           7
100
AcDbLine
 10
-13854.841584608737
 20
-6924.248780667002
 30
0.0
 11
-13854.773360365058
 21
-6923.251110655136
 31
0.0
  0
LINE
  5
27B
100
AcDbEntity
  8
Frei
  6
CONTINUOUS
 62
           7
100
AcDbLine
 10
-13854.841584608737
 20
-6924.248780667002
 30
0.0
 11
-13849.853234549413
 21
-6924.589901885394
 31
0.0
  0
LINE
  5
27C
100
AcDbEntity
  8
Frei
  6
CONTINUOUS
 62
           7
100
AcDbLine
 10
-13853.886445197235
 20
-6910.281400500893
 30
0.0
 11
-13853.852333075396
 21
-6909.782565494959
 31
0.0
  0
LINE
  5
27D
100
AcDbEntity
  8
Frei
  6
CONTINUOUS
 62
           7
100
AcDbLine
 10
-13853.886445197235
 20
-6910.281400500893
 30
0.0
 11
-13848.898095137911
 21
-6910.622521719286
 31
0.0
  0
LINE
  5
27E
100
AcDbEntity
  8
Frei
  6
CONTINUOUS
 62
           7
100
AcDbLine
 10
-13874.260335098052
 20
-6922.920857055422
 30
0.0
 11
-13893.251880065536
 21
-6921.62214728537
 31
0.0
  0
LINE
  5
27F
100
AcDbEntity
  8
Frei
  6
CONTINUOUS
 62
           7
100
AcDbLine
 10
-13866.950073238473
 20
-6925.425429766585
 30
0.0
 11
-13874.260335098052
 21
-6922.920857055422
 31
0.0
  0
LINE
  5
280
100
AcDbEntity
  8
Frei
  6
CONTINUOUS
 62
           7
100
AcDbLine
 10
-13892.76988201665
 20
-6892.587380575771
 30
0.0
 11
-13893.268717022584
 21
-6892.553268453932
 31
0.0
  0
LINE
  5
281
100
AcDbEntity
  8
Frei
  6
CONTINUOUS
 62
           7
100
AcDbLine
 10
-13892.76988201665
 20
-6892.587380575771
 30
0.0
 11
-13894.646048717814
 21
-6920.023305902054
 31
0.0
  0
LINE
  5
282
100
AcDbEntity
  8
Frei
  6
CONTINUOUS
 62
           7
100
AcDbLine
 10
-13874.260335098052
 20
-6922.920857055422
 30
0.0
 11
-13868.310129768914
 21
-6923.327753377338
 31
0.0
  0
LINE
  5
283
100
AcDbEntity
  8
Frei
  6
CONTINUOUS
 62
           7
100
AcDbLine
 10
-13864.835121684433
 20
-6894.497659398774
 30
0.0
 11
-13892.76988201665
 21
-6892.587380575771
 31
0.0
  0
LINE
  5
284
100
AcDbEntity
  8
Frei
  6
CONTINUOUS
 62
           7
100
AcDbLine
 10
-13864.835121684433
 20
-6894.497659398774
 30
0.0
 11
-13866.711288385597
 21
-6921.933584725059
 31
0.0
  0
LINE
  5
285
100
AcDbEntity
  8
Frei
  6
CONTINUOUS
 62
           7
100
AcDbLine
 10
-13866.950073238473
 20
-6925.425429766585
 30
0.0
 11
-13856.474538113893
 21
-6926.141784325213
 31
0.0
  0
LINE
  5
286
100
AcDbEntity
  8
Frei
  6
CONTINUOUS
 62
           7
100
AcDbLine
 10
-13854.875696730576
 20
-6924.747615672934
 30
0.0
 11
-13854.841584608737
 21
-6924.248780667002
 31
0.0
  0
LINE
  5
287
100
AcDbEntity
  8
Frei
  6
CONTINUOUS
 62
           7
100
AcDbLine
 10
-13865.722036852256
 20
-6907.467369553018
 30
0.0
 11
-13855.246501727675
 21
-6908.183724111645
 31
0.0
  0
LINE
  5
288
100
AcDbEntity
  8
Frei
  6
CONTINUOUS
 62
           7
100
AcDbLine
 10
-13893.268717022584
 20
-6892.553268453932
 30
0.0
 11
-13893.200492778904
 21
-6891.555598442066
 31
0.0
  0
LINE
  5
289
100
AcDbEntity
  8
Frei
  6
CONTINUOUS
 62
           7
100
AcDbLine
 10
-13864.336286678501
 20
-6894.531771520615
 30
0.0
 11
-13864.835121684433
 21
-6894.497659398774
 31
0.0
  0
LINE
  5
28A
100
AcDbEntity
  8
Frei
  6
CONTINUOUS
 62
           7
100
AcDbLine
 10
-13864.268062434821
 20
-6893.534101508749
 30
0.0
 11
-13864.336286678501
 21
-6894.531771520615
 31
0.0
  0
LINE
  5
28B
100
AcDbEntity
  8
Frei
  6
CONTINUOUS
 62
           7
100
AcDbLine
 10
-13864.268062434821
 20
-6893.534101508749
 30
0.0
 11
-13893.200492778904
 21
-6891.555598442066
 31
0.0
  0
LINE
  5
28C
100
AcDbEntity
  8
Frei
  6
CONTINUOUS
 62
           7
100
AcDbLine
 10
-13862.528344221015
 20
-6868.093516206194
 30
0.0
 11
-13862.490416990249
 21
-6867.538891358388
 31
0.0
  0
LINE
  5
28D
100
AcDbEntity
  8
Frei
  6
CONTINUOUS
 62
           7
100
AcDbLine
 10
-13891.221989712221
 20
-6862.623168097985
 30
0.0
 11
-13864.279755284775
 21
-6865.413080338067
 31
0.0
  0
LINE
  5
28E
100
AcDbEntity
  8
Frei
  6
CONTINUOUS
 62
           7
100
AcDbLine
 10
-13858.290460842156
 20
-6879.409007555103
 30
0.0
 11
-13858.324572963995
 21
-6879.907842561035
 31
0.0
  0
LINE
  5
28F
100
AcDbEntity
  8
Frei
  6
CONTINUOUS
 62
           1
100
AcDbLine
 10
-13858.290460842156
 20
-6879.409007555103
 30
0.0
 11
-13860.773013956898
 21
-6879.239241694015
 31
0.0
  0
LINE
  5
290
100
AcDbEntity
  8
Frei
  6
CONTINUOUS
 62
           7
100
AcDbLine
 10
-13858.017563867441
 20
-6875.418327507643
 30
0.0
 11
-13858.290460842156
 21
-6879.409007555103
 31
0.0
  0
LINE
  5
291
100
AcDbEntity
  8
Frei
  6
CONTINUOUS
 62
           1
100
AcDbLine
 10
-13858.017563867441
 20
-6875.418327507643
 30
0.0
 11
-13860.500116982183
 21
-6875.248561646555
 31
0.0
  0
LINE
  5
292
100
AcDbEntity
  8
Frei
  6
CONTINUOUS
 62
           7
100
AcDbLine
 10
-13858.324572963995
 20
-6879.907842561035
 30
0.0
 11
-13858.358685085836
 21
-6880.406677566967
 31
0.0
  0
LINE
  5
293
100
AcDbEntity
  8
Frei
  6
CONTINUOUS
 62
           1
100
AcDbLine
 10
-13858.324572963995
 20
-6879.907842561035
 30
0.0
 11
-13860.807126078736
 21
-6879.738076699947
 31
0.0
  0
LINE
  5
294
100
AcDbEntity
  8
Frei
  6
CONTINUOUS
 62
           7
100
AcDbLine
 10
-13857.983451745602
 20
-6874.919492501711
 30
0.0
 11
-13858.017563867441
 21
-6875.418327507643
 31
0.0
  0
LINE
  5
295
100
AcDbEntity
  8
Frei
  6
CONTINUOUS
 62
           1
100
AcDbLine
 10
-13857.983451745602
 20
-6874.919492501711
 30
0.0
 11
-13860.466004860344
 21
-6874.749726640623
 31
0.0
  0
LINE
  5
296
100
AcDbEntity
  8
Frei
  6
CONTINUOUS
 62
           7
100
AcDbLine
 10
-13859.3563550977
 20
-6880.338453323288
 30
0.0
 11
-13858.947009635627
 21
-6874.352433252099
 31
0.0
  0
LINE
  5
297
100
AcDbEntity
  8
Frei
  6
CONTINUOUS
 62
           2
100
AcDbLine
 10
-13858.358685085836
 20
-6880.406677566967
 30
0.0
 11
-13859.3563550977
 21
-6880.338453323288
 31
0.0
  0
LINE
  5
298
100
AcDbEntity
  8
Frei
  6
CONTINUOUS
 62
           7
100
AcDbLine
 10
-13858.947009635627
 20
-6874.352433252099
 30
0.0
 11
-13858.878785391948
 21
-6873.354763240233
 31
0.0
  0
LINE
  5
299
100
AcDbEntity
  8
Frei
  6
CONTINUOUS
 62
           2
100
AcDbLine
 10
-13857.949339623763
 20
-6874.420657495777
 30
0.0
 11
-13858.947009635627
 21
-6874.352433252099
 31
0.0
  0
LINE
  5
29A
100
AcDbEntity
  8
Frei
  6
CONTINUOUS
 62
           7
100
AcDbLine
 10
-13859.424579341377
 20
-6881.336123335153
 30
0.0
 11
-13859.3563550977
 21
-6880.338453323288
 31
0.0
  0
LINE
  5
29B
100
AcDbEntity
  8
Frei
  6
CONTINUOUS
 62
           7
100
AcDbLine
 10
-13858.358685085836
 20
-6880.406677566967
 30
0.0
 11
-13859.424579341377
 21
-6881.336123335153
 31
0.0
  0
LINE
  5
29C
100
AcDbEntity
  8
Frei
  6
CONTINUOUS
 62
           7
100
AcDbLine
 10
-13857.949339623763
 20
-6874.420657495777
 30
0.0
 11
-13857.983451745602
 21
-6874.919492501711
 31
0.0
  0
LINE
  5
29D
100
AcDbEntity
  8
Frei
  6
CONTINUOUS
 62
           7
100
AcDbLine
 10
-13858.878785391948
 20
-6873.354763240233
 30
0.0
 11
-13858.537664173555
 21
-6868.366413180909
 31
0.0
  0
LINE
  5
29E
100
AcDbEntity
  8
Frei
  6
CONTINUOUS
 62
           7
100
AcDbLine
 10
-13858.878785391948
 20
-6873.354763240233
 30
0.0
 11
-13857.949339623763
 21
-6874.420657495777
 31
0.0
  0
LINE
  5
29F
100
AcDbEntity
  8
Frei
  6
CONTINUOUS
 62
           7
100
AcDbLine
 10
-13893.200492778904
 20
-6891.555598442066
 30
0.0
 11
-13892.552362463957
 21
-6882.07773332935
 31
0.0
  0
LINE
  5
2A0
100
AcDbEntity
  8
Frei
  6
CONTINUOUS
 62
           7
100
AcDbLine
 10
-13863.756380607232
 20
-6886.051576419763
 30
0.0
 11
-13864.268062434821
 21
-6893.534101508749
 31
0.0
  0
LINE
  5
2A1
100
AcDbEntity
  8
Frei
  6
CONTINUOUS
 62
           7
100
AcDbLine
 10
-13861.462449965471
 20
-6867.164070438008
 30
0.0
 11
-13862.826934839046
 21
-6887.117470675306
 31
0.0
  0
LINE
  5
2A2
100
AcDbEntity
  8
Frei
  6
CONTINUOUS
 62
           7
100
AcDbLine
 10
-13859.467109941741
 20
-6867.300518925365
 30
0.0
 11
-13860.831594815316
 21
-6887.253919162664
 31
0.0
  0
LINE
  5
2A3
100
AcDbEntity
  8
Frei
  6
CONTINUOUS
 62
           7
100
AcDbLine
 10
-13859.765700559772
 20
-6886.324473394478
 30
0.0
 11
-13860.831594815316
 21
-6887.253919162664
 31
0.0
  0
LINE
  5
2A4
100
AcDbEntity
  8
Frei
  6
CONTINUOUS
 62
           7
100
AcDbLine
 10
-13862.826934839046
 20
-6887.117470675306
 30
0.0
 11
-13863.756380607232
 21
-6886.051576419763
 31
0.0
  0
LINE
  5
2A5
100
AcDbEntity
  8
Frei
  6
CONTINUOUS
 62
           7
100
AcDbLine
 10
-13862.528344221015
 20
-6868.093516206194
 30
0.0
 11
-13861.462449965471
 21
-6867.164070438008
 31
0.0
  0
LINE
  5
2A6
100
AcDbEntity
  8
Frei
  6
CONTINUOUS
 62
           7
100
AcDbLine
 10
-13858.537664173555
 20
-6868.366413180909
 30
0.0
 11
-13859.467109941741
 21
-6867.300518925365
 31
0.0
  0
LINE
  5
2A7
100
AcDbEntity
  8
Frei
  6
CONTINUOUS
 62
           7
100
AcDbLine
 10
-13859.765700559772
 20
-6886.324473394478
 30
0.0
 11
-13859.424579341377
 21
-6881.336123335153
 31
0.0
  0
LINE
  5
2A8
100
AcDbEntity
  8
Frei
  6
CONTINUOUS
 62
           7
100
AcDbLine
 10
-13862.826934839046
 20
-6887.117470675306
 30
0.0
 11
-13860.831594815316
 21
-6887.253919162664
 31
0.0
  0
LINE
  5
2A9
100
AcDbEntity
  8
Frei
  6
CONTINUOUS
 62
           7
100
AcDbLine
 10
-13862.528344221015
 20
-6868.093516206194
 30
0.0
 11
-13863.756380607232
 21
-6886.051576419763
 31
0.0
  0
LINE
  5
2AA
100
AcDbEntity
  8
Frei
  6
CONTINUOUS
 62
           7
100
AcDbLine
 10
-13859.467109941741
 20
-6867.300518925365
 30
0.0
 11
-13861.462449965471
 21
-6867.164070438008
 31
0.0
  0
LINE
  5
2AB
100
AcDbEntity
  8
Frei
  6
CONTINUOUS
 62
           7
100
AcDbLine
 10
-13909.662047974674
 20
-6890.429898421367
 30
0.0
 11
-13899.186512850092
 21
-6891.146252979994
 31
0.0
  0
LINE
  5
2AC
100
AcDbEntity
  8
Frei
  6
CONTINUOUS
 62
           7
100
AcDbLine
 10
-13893.443267767168
 20
-6858.461927441329
 30
0.0
 11
-13907.410647933277
 21
-6857.506788029827
 31
0.0
  0
LINE
  5
2AD
100
AcDbEntity
  8
Frei
  6
CONTINUOUS
 62
           7
100
AcDbLine
 10
-13892.513821998982
 20
-6859.527821696873
 30
0.0
 11
-13894.048867481753
 21
-6881.975396963831
 31
0.0
  0
LINE
  5
2AE
100
AcDbEntity
  8
Frei
  6
CONTINUOUS
 62
           7
100
AcDbLine
 10
-14053.25830543954
 20
-6879.607937319768
 30
0.0
 11
-14051.723259956769
 21
-6857.160362052809
 31
0.0
  0
LINE
  5
2AF
100
AcDbEntity
  8
Frei
  6
CONTINUOUS
 62
           7
100
AcDbLine
 10
-14052.559006941832
 20
-6869.381819698154
 30
0.0
 11
-14052.200829662519
 21
-6864.144052135864
 31
0.0
  0
LINE
  5
2B0
100
AcDbEntity
  8
Frei
  6
CONTINUOUS
 62
           7
100
AcDbLine
 10
-13893.213120496688
 20
-6869.753939318487
 30
0.0
 11
-13893.571297776001
 21
-6874.991706880777
 31
0.0
  0
ARC
  5
2B1
100
AcDbEntity
  8
Frei
  6
CONTINUOUS
 62
           7
100
AcDbCircle
 10
-14060.785188526472
 20
-6863.557022973921
 30
0.0
 40
8.604407030244
100
AcDbArc
 50
332.086014671726
 51
356.087999999999
  0
ARC
  5
2B2
100
AcDbEntity
  8
Frei
  6
CONTINUOUS
 62
           7
100
AcDbCircle
 10
-14054.267096276644
 20
-6858.740492428871
 30
0.0
 40
2.430106011614
100
AcDbArc
 50
310.022521857266
 51
356.087999999999
  0
ARC
  5
2B3
100
AcDbEntity
  8
Frei
  6
CONTINUOUS
 62
           7
100
AcDbCircle
 10
-14054.983450835271
 20
-6869.216027553452
 30
0.0
 40
2.430106011614
100
AcDbArc
 50
310.022521857266
 51
356.087999999999
  0
ARC
  5
2B4
100
AcDbEntity
  8
Frei
  6
CONTINUOUS
 62
           7
100
AcDbCircle
 10
-14054.267096276644
 20
-6858.740492428871
 30
0.0
 40
2.430106011614
100
AcDbArc
 50
356.087999999999
 51
42.153478142733
  0
ARC
  5
2B5
100
AcDbEntity
  8
Frei
  6
CONTINUOUS
 62
           7
100
AcDbCircle
 10
-14054.983450835271
 20
-6869.216027553452
 30
0.0
 40
2.430106011614
100
AcDbArc
 50
356.087999999999
 51
42.153478142733
  0
ARC
  5
2B6
100
AcDbEntity
  8
Frei
  6
CONTINUOUS
 62
           7
100
AcDbCircle
 10
-13891.505031161874
 20
-6880.39526658777
 30
0.0
 40
2.430106011614
100
AcDbArc
 50
130.022521857263
 51
176.088
  0
ARC
  5
2B7
100
AcDbEntity
  8
Frei
  6
CONTINUOUS
 62
           7
100
AcDbCircle
 10
-13890.788676603248
 20
-6869.919731463189
 30
0.0
 40
2.430106011614
100
AcDbArc
 50
130.022521857263
 51
176.088
  0
ARC
  5
2B8
100
AcDbEntity
  8
Frei
  6
CONTINUOUS
 62
           7
100
AcDbCircle
 10
-13891.505031161874
 20
-6880.39526658777
 30
0.0
 40
2.430106011614
100
AcDbArc
 50
176.088
 51
222.153478142737
  0
ARC
  5
2B9
100
AcDbEntity
  8
Frei
  6
CONTINUOUS
 62
           7
100
AcDbCircle
 10
-13890.788676603248
 20
-6869.919731463189
 30
0.0
 40
2.430106011614
100
AcDbArc
 50
176.088
 51
222.153478142737
  0
ARC
  5
2BA
100
AcDbEntity
  8
Frei
  6
CONTINUOUS
 62
           7
100
AcDbCircle
 10
-13884.986938912049
 20
-6875.57873604272
 30
0.0
 40
8.604407030244
100
AcDbArc
 50
152.086014671724
 51
176.088
  0
ARC
  5
2BB
100
AcDbEntity
  8
Frei
  6
CONTINUOUS
 62
           7
100
AcDbCircle
 10
-14029.436730026833
 20
-6873.481788688489
 30
0.0
 40
4.481959213903
100
AcDbArc
 50
184.466955885586
 51
347.709044114414
  0
ARC
  5
2BC
100
AcDbEntity
  8
Frei
  6
CONTINUOUS
 62
           7
100
AcDbCircle
 10
-14060.785188526472
 20
-6863.557022973921
 30
0.0
 40
8.604407030244
100
AcDbArc
 50
356.087999999999
 51
20.089985328274
  0
ARC
  5
2BD
100
AcDbEntity
  8
Frei
  6
CONTINUOUS
 62
           7
100
AcDbCircle
 10
-13884.986938912049
 20
-6875.57873604272
 30
0.0
 40
8.604407030244
100
AcDbArc
 50
176.088
 51
200.089985328276
  0
POLYLINE
  5
2BE
100
AcDbEntity
  8
Frei
  6
CONTINUOUS
 62
           7
100
AcDb2dPolyline
 66
           1
 10
0.0
 20
0.0
 30
0.0
  0
VERTEX
  5
2BF
100
AcDbEntity
  8
Frei
  6
CONTINUOUS
 62
           7
100
AcDbVertex
100
AcDb2dVertex
 10
-14033.597550162009
 20
-6873.498285370126
 30
0.0
 42
0.046286845788
  0
VERTEX
  5
2C0
100
AcDbEntity
  8
Frei
  6
CONTINUOUS
 62
           7
100
AcDbVertex
100
AcDb2dVertex
 10
-14033.580849333166
 20
-6874.178188970205
 30
0.0
  0
VERTEX
  5
2C1
100
AcDbEntity
  8
Frei
  6
CONTINUOUS
 62
           7
100
AcDbVertex
100
AcDb2dVertex
 10
-14033.525216175218
 20
-6874.515377863165
 30
0.0
  0
VERTEX
  5
2C2
100
AcDbEntity
  8
Frei
  6
CONTINUOUS
 62
           7
100
AcDbVertex
100
AcDb2dVertex
 10
-14033.438854101927
 20
-6874.846036823798
 30
0.0
 42
0.045273723548
  0
VERTEX
  5
2C3
100
AcDbEntity
  8
Frei
  6
CONTINUOUS
 62
           7
100
AcDbVertex
100
AcDb2dVertex
 10
-14033.175878921538
 20
-6875.481536711815
 30
0.0
  0
VERTEX
  5
2C4
100
AcDbEntity
  8
Frei
  6
CONTINUOUS
 62
           7
100
AcDbVertex
100
AcDb2dVertex
 10
-14033.000885888436
 20
-6875.78181908025
 30
0.0
  0
VERTEX
  5
2C5
100
AcDbEntity
  8
Frei
  6
CONTINUOUS
 62
           7
100
AcDbVertex
100
AcDb2dVertex
 10
-14032.799914159785
 20
-6876.065379291742
 30
0.0
 42
0.04348253534
  0
VERTEX
  5
2C6
100
AcDbEntity
  8
Frei
  6
CONTINUOUS
 62
           7
100
AcDbVertex
100
AcDb2dVertex
 10
-14032.322383315704
 20
-6876.579824802226
 30
0.0
  0
VERTEX
  5
2C7
100
AcDbEntity
  8
Frei
  6
CONTINUOUS
 62
           7
100
AcDbVertex
100
AcDb2dVertex
 10
-14032.049248740374
 20
-6876.806571585707
 30
0.0
  0
VERTEX
  5
2C8
100
AcDbEntity
  8
Frei
  6
CONTINUOUS
 62
           7
100
AcDbVertex
100
AcDb2dVertex
 10
-14031.757795922356
 20
-6877.009242076751
 30
0.0
 42
0.041825507476
  0
VERTEX
  5
2C9
100
AcDbEntity
  8
Frei
  6
CONTINUOUS
 62
           7
100
AcDbVertex
100
AcDb2dVertex
 10
-14031.123306681988
 20
-6877.340583488729
 30
0.0
  0
VERTEX
  5
2CA
100
AcDbEntity
  8
Frei
  6
CONTINUOUS
 62
           7
100
AcDbVertex
100
AcDb2dVertex
 10
-14030.785364770432
 20
-6877.466342447609
 30
0.0
  0
VERTEX
  5
2CB
100
AcDbEntity
  8
Frei
  6
CONTINUOUS
 62
           7
100
AcDbVertex
100
AcDb2dVertex
 10
-14030.4381942291
 20
-6877.563781397021
 30
0.0
 42
0.040993490696
  0
VERTEX
  5
2CC
100
AcDbEntity
  8
Frei
  6
CONTINUOUS
 62
           7
100
AcDbVertex
100
AcDb2dVertex
 10
-14029.723275358896
 20
-6877.672054046128
 30
0.0
  0
VERTEX
  5
2CD
100
AcDbEntity
  8
Frei
  6
CONTINUOUS
 62
           7
100
AcDbVertex
100
AcDb2dVertex
 10
-14029.361569470391
 20
-6877.681922814596
 30
0.0
  0
VERTEX
  5
2CE
100
AcDbEntity
  8
Frei
  6
CONTINUOUS
 62
           7
100
AcDbVertex
100
AcDb2dVertex
 10
-14029.000272519474
 20
-6877.662111626396
 30
0.0
 42
0.041278481646
  0
VERTEX
  5
2CF
100
AcDbEntity
  8
Frei
  6
CONTINUOUS
 62
           7
100
AcDbVertex
100
AcDb2dVertex
 10
-14028.291153786255
 20
-6877.534256233219
 30
0.0
  0
VERTEX
  5
2D0
100
AcDbEntity
  8
Frei
  6
CONTINUOUS
 62
           7
100
AcDbVertex
100
AcDb2dVertex
 10
-14027.949242002982
 20
-6877.427423016154
 30
0.0
  0
VERTEX
  5
2D1
100
AcDbEntity
  8
Frei
  6
CONTINUOUS
 62
           7
100
AcDbVertex
100
AcDb2dVertex
 10
-14027.617465373116
 20
-6877.292372688018
 30
0.0
 42
0.042584509173
  0
VERTEX
  5
2D2
100
AcDbEntity
  8
Frei
  6
CONTINUOUS
 62
           7
100
AcDbVertex
100
AcDb2dVertex
 10
-14026.99967696159
 20
-6876.943810499915
 30
0.0
  0
VERTEX
  5
2D3
100
AcDbEntity
  8
Frei
  6
CONTINUOUS
 62
           7
100
AcDbVertex
100
AcDb2dVertex
 10
-14026.718433734333
 20
-6876.733310357429
 30
0.0
  0
VERTEX
  5
2D4
100
AcDbEntity
  8
Frei
  6
CONTINUOUS
 62
           7
100
AcDbVertex
100
AcDb2dVertex
 10
-14026.456559739945
 20
-6876.499160554618
 30
0.0
 42
0.044417198743
  0
VERTEX
  5
2D5
100
AcDbEntity
  8
Frei
  6
CONTINUOUS
 62
           7
100
AcDbVertex
100
AcDb2dVertex
 10
-14026.004616050124
 20
-6875.971933315708
 30
0.0
  0
VERTEX
  5
2D6
100
AcDbEntity
  8
Frei
  6
CONTINUOUS
 62
           7
100
AcDbVertex
100
AcDb2dVertex
 10
-14025.817631401129
 20
-6875.682907902647
 30
0.0
  0
VERTEX
  5
2D7
100
AcDbEntity
  8
Frei
  6
CONTINUOUS
 62
           7
100
AcDbVertex
100
AcDb2dVertex
 10
-14025.657577972457
 20
-6875.378148316049
 30
0.0
 42
0.045929593742
  0
VERTEX
  5
2D8
100
AcDbEntity
  8
Frei
  6
CONTINUOUS
 62
           7
100
AcDbVertex
100
AcDb2dVertex
 10
-14025.425990083317
 20
-6874.735847412387
 30
0.0
  0
VERTEX
  5
2D9
100
AcDbEntity
  8
Frei
  6
CONTINUOUS
 62
           7
100
AcDbVertex
100
AcDb2dVertex
 10
-14025.355875493449
 20
-6874.402725878603
 30
0.0
  0
VERTEX
  5
2DA
100
AcDbEntity
  8
Frei
  6
CONTINUOUS
 62
           7
100
AcDbVertex
100
AcDb2dVertex
 10
-14025.31688906353
 20
-6874.064546592659
 30
0.0
 42
0.046286845788
  0
VERTEX
  5
2DB
100
AcDbEntity
  8
Frei
  6
CONTINUOUS
 62
           7
100
AcDbVertex
100
AcDb2dVertex
 10
-14025.333589892371
 20
-6873.384642992582
 30
0.0
  0
VERTEX
  5
2DC
100
AcDbEntity
  8
Frei
  6
CONTINUOUS
 62
           7
100
AcDbVertex
100
AcDb2dVertex
 10
-14025.389223050322
 20
-6873.047454099622
 30
0.0
  0
VERTEX
  5
2DD
100
AcDbEntity
  8
Frei
  6
CONTINUOUS
 62
           7
100
AcDbVertex
100
AcDb2dVertex
 10
-14025.475585123611
 20
-6872.716795138991
 30
0.0
 42
0.045273723548
  0
VERTEX
  5
2DE
100
AcDbEntity
  8
Frei
  6
CONTINUOUS
 62
           7
100
AcDbVertex
100
AcDb2dVertex
 10
-14025.738560303998
 20
-6872.081295250971
 30
0.0
  0
VERTEX
  5
2DF
100
AcDbEntity
  8
Frei
  6
CONTINUOUS
 62
           7
100
AcDbVertex
100
AcDb2dVertex
 10
-14025.913553337101
 20
-6871.781012882537
 30
0.0
  0
VERTEX
  5
2E0
100
AcDbEntity
  8
Frei
  6
CONTINUOUS
 62
           7
100
AcDbVertex
100
AcDb2dVertex
 10
-14026.114525065754
 20
-6871.497452671045
 30
0.0
 42
0.04348253534
  0
VERTEX
  5
2E1
100
AcDbEntity
  8
Frei
  6
CONTINUOUS
 62
           7
100
AcDbVertex
100
AcDb2dVertex
 10
-14026.592055909832
 20
-6870.983007160563
 30
0.0
  0
VERTEX
  5
2E2
100
AcDbEntity
  8
Frei
  6
CONTINUOUS
 62
           7
100
AcDbVertex
100
AcDb2dVertex
 10
-14026.865190485163
 20
-6870.75626037708
 30
0.0
  0
VERTEX
  5
2E3
100
AcDbEntity
  8
Frei
  6
CONTINUOUS
 62
           7
100
AcDbVertex
100
AcDb2dVertex
 10
-14027.15664330318
 20
-6870.553589886036
 30
0.0
 42
0.041825507476
  0
VERTEX
  5
2E4
100
AcDbEntity
  8
Frei
  6
CONTINUOUS
 62
           7
100
AcDbVertex
100
AcDb2dVertex
 10
-14027.791132543549
 20
-6870.22224847406
 30
0.0
  0
VERTEX
  5
2E5
100
AcDbEntity
  8
Frei
  6
CONTINUOUS
 62
           7
100
AcDbVertex
100
AcDb2dVertex
 10
-14028.129074455106
 20
-6870.096489515177
 30
0.0
  0
VERTEX
  5
2E6
100
AcDbEntity
  8
Frei
  6
CONTINUOUS
 62
           7
100
AcDbVertex
100
AcDb2dVertex
 10
-14028.476244996436
 20
-6869.999050565768
 30
0.0
 42
0.040993490695
  0
VERTEX
  5
2E7
100
AcDbEntity
  8
Frei
  6
CONTINUOUS
 62
           7
100
AcDbVertex
100
AcDb2dVertex
 10
-14029.191163866644
 20
-6869.89077791666
 30
0.0
  0
VERTEX
  5
2E8
100
AcDbEntity
  8
Frei
  6
CONTINUOUS
 62
           7
100
AcDbVertex
100
AcDb2dVertex
 10
-14029.552869755145
 20
-6869.880909148193
 30
0.0
  0
VERTEX
  5
2E9
100
AcDbEntity
  8
Frei
  6
CONTINUOUS
 62
           7
100
AcDbVertex
100
AcDb2dVertex
 10
-14029.914166706063
 20
-6869.900720336391
 30
0.0
 42
0.041278481646
  0
VERTEX
  5
2EA
100
AcDbEntity
  8
Frei
  6
CONTINUOUS
 62
           7
100
AcDbVertex
100
AcDb2dVertex
 10
-14030.623285439282
 20
-6870.028575729568
 30
0.0
  0
VERTEX
  5
2EB
100
AcDbEntity
  8
Frei
  6
CONTINUOUS
 62
           7
100
AcDbVertex
100
AcDb2dVertex
 10
-14030.965197222555
 20
-6870.135408946633
 30
0.0
  0
VERTEX
  5
2EC
100
AcDbEntity
  8
Frei
  6
CONTINUOUS
 62
           7
100
AcDbVertex
100
AcDb2dVertex
 10
-14031.296973852421
 20
-6870.270459274771
 30
0.0
 42
0.042584509172
  0
VERTEX
  5
2ED
100
AcDbEntity
  8
Frei
  6
CONTINUOUS
 62
           7
100
AcDbVertex
100
AcDb2dVertex
 10
-14031.914762263947
 20
-6870.619021462873
 30
0.0
  0
VERTEX
  5
2EE
100
AcDbEntity
  8
Frei
  6
CONTINUOUS
 62
           7
100
AcDbVertex
100
AcDb2dVertex
 10
-14032.196005491203
 20
-6870.829521605358
 30
0.0
  0
VERTEX
  5
2EF
100
AcDbEntity
  8
Frei
  6
CONTINUOUS
 62
           7
100
AcDbVertex
100
AcDb2dVertex
 10
-14032.457879485593
 20
-6871.06367140817
 30
0.0
 42
0.044417198743
  0
VERTEX
  5
2F0
100
AcDbEntity
  8
Frei
  6
CONTINUOUS
 62
           7
100
AcDbVertex
100
AcDb2dVertex
 10
-14032.909823175412
 20
-6871.59089864708
 30
0.0
  0
VERTEX
  5
2F1
100
AcDbEntity
  8
Frei
  6
CONTINUOUS
 62
           7
100
AcDbVertex
100
AcDb2dVertex
 10
-14033.096807824408
 20
-6871.87992406014
 30
0.0
  0
VERTEX
  5
2F2
100
AcDbEntity
  8
Frei
  6
CONTINUOUS
 62
           7
100
AcDbVertex
100
AcDb2dVertex
 10
-14033.256861253081
 20
-6872.184683646739
 30
0.0
 42
0.045929593742
  0
VERTEX
  5
2F3
100
AcDbEntity
  8
Frei
  6
CONTINUOUS
 62
           7
100
AcDbVertex
100
AcDb2dVertex
 10
-14033.48844914222
 20
-6872.8269845504
 30
0.0
  0
VERTEX
  5
2F4
100
AcDbEntity
  8
Frei
  6
CONTINUOUS
 62
           7
100
AcDbVertex
100
AcDb2dVertex
 10
-14033.558563732087
 20
-6873.160106084184
 30
0.0
  0
VERTEX
  5
2F5
100
AcDbEntity
  8
Frei
  6
CONTINUOUS
 62
           7
100
AcDbVertex
100
AcDb2dVertex
 10
-14033.597550162009
 20
-6873.498285370126
 30
0.0
  0
SEQEND
  5
2F6
100
AcDbEntity
  8
Frei
  6
CONTINUOUS
 62
           7
  0
POLYLINE
  5
2F7
100
AcDbEntity
  8
Frei
  6
CONTINUOUS
 62
           7
100
AcDb2dPolyline
 66
           1
 10
0.0
 20
0.0
 30
0.0
  0
VERTEX
  5
2F8
100
AcDbEntity
  8
Frei
  6
CONTINUOUS
 62
           7
100
AcDbVertex
100
AcDb2dVertex
 10
-14029.185472436775
 20
-6869.807549893911
 30
0.0
 42
0.046286845788
  0
VERTEX
  5
2F9
100
AcDbEntity
  8
Frei
  6
CONTINUOUS
 62
           7
100
AcDbVertex
100
AcDb2dVertex
 10
-14029.961314708798
 20
-6869.826607314688
 30
0.0
  0
VERTEX
  5
2FA
100
AcDbEntity
  8
Frei
  6
CONTINUOUS
 62
           7
100
AcDbVertex
100
AcDb2dVertex
 10
-14030.346083074173
 20
-6869.890090660942
 30
0.0
  0
VERTEX
  5
2FB
100
AcDbEntity
  8
Frei
  6
CONTINUOUS
 62
           7
100
AcDbVertex
100
AcDb2dVertex
 10
-14030.723400092722
 20
-6869.988638965659
 30
0.0
 42
0.045273723548
  0
VERTEX
  5
2FC
100
AcDbEntity
  8
Frei
  6
CONTINUOUS
 62
           7
100
AcDbVertex
100
AcDb2dVertex
 10
-14031.448573009788
 20
-6870.288721597102
 30
0.0
  0
VERTEX
  5
2FD
100
AcDbEntity
  8
Frei
  6
CONTINUOUS
 62
           7
100
AcDbVertex
100
AcDb2dVertex
 10
-14031.791227108028
 20
-6870.488407247203
 30
0.0
  0
VERTEX
  5
2FE
100
AcDbEntity
  8
Frei
  6
CONTINUOUS
 62
           7
100
AcDbVertex
100
AcDb2dVertex
 10
-14032.114799447865
 20
-6870.717737350107
 30
0.0
 42
0.04348253534
  0
VERTEX
  5
2FF
100
AcDbEntity
  8
Frei
  6
CONTINUOUS
 62
           7
100
AcDbVertex
100
AcDb2dVertex
 10
-14032.701836453758
 20
-6871.262650798117
 30
0.0
  0
VERTEX
  5
300
100
AcDbEntity
  8
Frei
  6
CONTINUOUS
 62
           7
100
AcDbVertex
100
AcDb2dVertex
 10
-14032.960578633752
 20
-6871.574326378992
 30
0.0
  0
VERTEX
  5
301
100
AcDbEntity
  8
Frei
  6
CONTINUOUS
 62
           7
100
AcDbVertex
100
AcDb2dVertex
 10
-14033.1918472051
 20
-6871.906905021748
 30
0.0
 42
0.041825507476
  0
VERTEX
  5
302
100
AcDbEntity
  8
Frei
  6
CONTINUOUS
 62
           7
100
AcDbVertex
100
AcDb2dVertex
 10
-14033.569942973169
 20
-6872.630924682426
 30
0.0
  0
VERTEX
  5
303
100
AcDbEntity
  8
Frei
  6
CONTINUOUS
 62
           7
100
AcDbVertex
100
AcDb2dVertex
 10
-14033.713447311689
 20
-6873.016552322055
 30
0.0
  0
VERTEX
  5
304
100
AcDbEntity
  8
Frei
  6
CONTINUOUS
 62
           7
100
AcDbVertex
100
AcDb2dVertex
 10
-14033.824635509374
 20
-6873.412710809133
 30
0.0
 42
0.040993490695
  0
VERTEX
  5
305
100
AcDbEntity
  8
Frei
  6
CONTINUOUS
 62
           7
100
AcDbVertex
100
AcDb2dVertex
 10
-14033.948186109892
 20
-6874.228509226014
 30
0.0
  0
VERTEX
  5
306
100
AcDbEntity
  8
Frei
  6
CONTINUOUS
 62
           7
100
AcDbVertex
100
AcDb2dVertex
 10
-14033.959447423624
 20
-6874.641254089122
 30
0.0
  0
VERTEX
  5
307
100
AcDbEntity
  8
Frei
  6
CONTINUOUS
 62
           7
100
AcDbVertex
100
AcDb2dVertex
 10
-14033.936840752234
 20
-6875.05353231098
 30
0.0
 42
0.041278481646
  0
VERTEX
  5
308
100
AcDbEntity
  8
Frei
  6
CONTINUOUS
 62
           7
100
AcDbVertex
100
AcDb2dVertex
 10
-14033.790944159362
 20
-6875.862712155082
 30
0.0
  0
VERTEX
  5
309
100
AcDbEntity
  8
Frei
  6
CONTINUOUS
 62
           7
100
AcDbVertex
100
AcDb2dVertex
 10
-14033.6690361038
 20
-6876.252869840282
 30
0.0
  0
VERTEX
  5
30A
100
AcDbEntity
  8
Frei
  6
CONTINUOUS
 62
           7
100
AcDbVertex
100
AcDb2dVertex
 10
-14033.514929325418
 20
-6876.63146223822
 30
0.0
 42
0.042584509173
  0
VERTEX
  5
30B
100
AcDbEntity
  8
Frei
  6
CONTINUOUS
 62
           7
100
AcDbVertex
100
AcDb2dVertex
 10
-14033.117182821461
 20
-6877.336424478121
 30
0.0
  0
VERTEX
  5
30C
100
AcDbEntity
  8
Frei
  6
CONTINUOUS
 62
           7
100
AcDbVertex
100
AcDb2dVertex
 10
-14032.876979785635
 20
-6877.65735289268
 30
0.0
  0
VERTEX
  5
30D
100
AcDbEntity
  8
Frei
  6
CONTINUOUS
 62
           7
100
AcDbVertex
100
AcDb2dVertex
 10
-14032.609789973745
 20
-6877.956178953858
 30
0.0
 42
0.044417198743
  0
VERTEX
  5
30E
100
AcDbEntity
  8
Frei
  6
CONTINUOUS
 62
           7
100
AcDbVertex
100
AcDb2dVertex
 10
-14032.008167657195
 20
-6878.471894739296
 30
0.0
  0
VERTEX
  5
30F
100
AcDbEntity
  8
Frei
  6
CONTINUOUS
 62
           7
100
AcDbVertex
100
AcDb2dVertex
 10
-14031.678358941495
 20
-6878.685264097678
 30
0.0
  0
VERTEX
  5
310
100
AcDbEntity
  8
Frei
  6
CONTINUOUS
 62
           7
100
AcDbVertex
100
AcDb2dVertex
 10
-14031.330595861462
 20
-6878.867902071255
 30
0.0
 42
0.045929593742
  0
VERTEX
  5
311
100
AcDbEntity
  8
Frei
  6
CONTINUOUS
 62
           7
100
AcDbVertex
100
AcDb2dVertex
 10
-14030.597662262695
 20
-6879.132168467349
 30
0.0
  0
VERTEX
  5
312
100
AcDbEntity
  8
Frei
  6
CONTINUOUS
 62
           7
100
AcDbVertex
100
AcDb2dVertex
 10
-14030.217535186443
 20
-6879.212176666597
 30
0.0
  0
VERTEX
  5
313
100
AcDbEntity
  8
Frei
  6
CONTINUOUS
 62
           7
100
AcDbVertex
100
AcDb2dVertex
 10
-14029.831636677411
 20
-6879.256664326853
 30
0.0
 42
0.046286845788
  0
VERTEX
  5
314
100
AcDbEntity
  8
Frei
  6
CONTINUOUS
 62
           7
100
AcDbVertex
100
AcDb2dVertex
 10
-14029.055794405385
 20
-6879.237606906079
 30
0.0
  0
VERTEX
  5
315
100
AcDbEntity
  8
Frei
  6
CONTINUOUS
 62
           7
100
AcDbVertex
100
AcDb2dVertex
 10
-14028.671026040009
 20
-6879.174123559824
 30
0.0
  0
VERTEX
  5
316
100
AcDbEntity
  8
Frei
  6
CONTINUOUS
 62
           7
100
AcDbVertex
100
AcDb2dVertex
 10
-14028.29370902146
 20
-6879.075575255107
 30
0.0
 42
0.045273723548
  0
VERTEX
  5
317
100
AcDbEntity
  8
Frei
  6
CONTINUOUS
 62
           7
100
AcDbVertex
100
AcDb2dVertex
 10
-14027.568536104394
 20
-6878.775492623665
 30
0.0
  0
VERTEX
  5
318
100
AcDbEntity
  8
Frei
  6
CONTINUOUS
 62
           7
100
AcDbVertex
100
AcDb2dVertex
 10
-14027.225882006154
 20
-6878.575806973562
 30
0.0
  0
VERTEX
  5
319
100
AcDbEntity
  8
Frei
  6
CONTINUOUS
 62
           7
100
AcDbVertex
100
AcDb2dVertex
 10
-14026.90230966632
 20
-6878.346476870658
 30
0.0
 42
0.04348253534
  0
VERTEX
  5
31A
100
AcDbEntity
  8
Frei
  6
CONTINUOUS
 62
           7
100
AcDbVertex
100
AcDb2dVertex
 10
-14026.315272660426
 20
-6877.80156342265
 30
0.0
  0
VERTEX
  5
31B
100
AcDbEntity
  8
Frei
  6
CONTINUOUS
 62
           7
100
AcDbVertex
100
AcDb2dVertex
 10
-14026.056530480431
 20
-6877.489887841775
 30
0.0
  0
VERTEX
  5
31C
100
AcDbEntity
  8
Frei
  6
CONTINUOUS
 62
           7
100
AcDbVertex
100
AcDb2dVertex
 10
-14025.825261909085
 20
-6877.157309199019
 30
0.0
 42
0.041825507476
  0
VERTEX
  5
31D
100
AcDbEntity
  8
Frei
  6
CONTINUOUS
 62
           7
100
AcDbVertex
100
AcDb2dVertex
 10
-14025.447166141015
 20
-6876.43328953834
 30
0.0
  0
VERTEX
  5
31E
100
AcDbEntity
  8
Frei
  6
CONTINUOUS
 62
           7
100
AcDbVertex
100
AcDb2dVertex
 10
-14025.303661802496
 20
-6876.04766189871
 30
0.0
  0
VERTEX
  5
31F
100
AcDbEntity
  8
Frei
  6
CONTINUOUS
 62
           7
100
AcDbVertex
100
AcDb2dVertex
 10
-14025.192473604808
 20
-6875.651503411633
 30
0.0
 42
0.040993490695
  0
VERTEX
  5
320
100
AcDbEntity
  8
Frei
  6
CONTINUOUS
 62
           7
100
AcDbVertex
100
AcDb2dVertex
 10
-14025.068923004292
 20
-6874.835704994754
 30
0.0
  0
VERTEX
  5
321
100
AcDbEntity
  8
Frei
  6
CONTINUOUS
 62
           7
100
AcDbVertex
100
AcDb2dVertex
 10
-14025.05766169056
 20
-6874.422960131644
 30
0.0
  0
VERTEX
  5
322
100
AcDbEntity
  8
Frei
  6
CONTINUOUS
 62
           7
100
AcDbVertex
100
AcDb2dVertex
 10
-14025.080268361948
 20
-6874.010681909786
 30
0.0
 42
0.041278481646
  0
VERTEX
  5
323
100
AcDbEntity
  8
Frei
  6
CONTINUOUS
 62
           7
100
AcDbVertex
100
AcDb2dVertex
 10
-14025.226164954822
 20
-6873.201502065684
 30
0.0
  0
VERTEX
  5
324
100
AcDbEntity
  8
Frei
  6
CONTINUOUS
 62
           7
100
AcDbVertex
100
AcDb2dVertex
 10
-14025.348073010382
 20
-6872.811344380483
 30
0.0
  0
VERTEX
  5
325
100
AcDbEntity
  8
Frei
  6
CONTINUOUS
 62
           7
100
AcDbVertex
100
AcDb2dVertex
 10
-14025.502179788768
 20
-6872.432751982547
 30
0.0
 42
0.042584509173
  0
VERTEX
  5
326
100
AcDbEntity
  8
Frei
  6
CONTINUOUS
 62
           7
100
AcDbVertex
100
AcDb2dVertex
 10
-14025.899926292723
 20
-6871.727789742645
 30
0.0
  0
VERTEX
  5
327
100
AcDbEntity
  8
Frei
  6
CONTINUOUS
 62
           7
100
AcDbVertex
100
AcDb2dVertex
 10
-14026.140129328549
 20
-6871.406861328085
 30
0.0
  0
VERTEX
  5
328
100
AcDbEntity
  8
Frei
  6
CONTINUOUS
 62
           7
100
AcDbVertex
100
AcDb2dVertex
 10
-14026.40731914044
 20
-6871.108035266909
 30
0.0
 42
0.044417198743
  0
VERTEX
  5
329
100
AcDbEntity
  8
Frei
  6
CONTINUOUS
 62
           7
100
AcDbVertex
100
AcDb2dVertex
 10
-14027.008941456987
 20
-6870.592319481471
 30
0.0
  0
VERTEX
  5
32A
100
AcDbEntity
  8
Frei
  6
CONTINUOUS
 62
           7
100
AcDbVertex
100
AcDb2dVertex
 10
-14027.338750172688
 20
-6870.378950123088
 30
0.0
  0
VERTEX
  5
32B
100
AcDbEntity
  8
Frei
  6
CONTINUOUS
 62
           7
100
AcDbVertex
100
AcDb2dVertex
 10
-14027.68651325272
 20
-6870.19631214951
 30
0.0
 42
0.045929593741
  0
VERTEX
  5
32C
100
AcDbEntity
  8
Frei
  6
CONTINUOUS
 62
           7
100
AcDbVertex
100
AcDb2dVertex
 10
-14028.419446851489
 20
-6869.932045753418
 30
0.0
  0
VERTEX
  5
32D
100
AcDbEntity
  8
Frei
  6
CONTINUOUS
 62
           7
100
AcDbVertex
100
AcDb2dVertex
 10
-14028.799573927739
 20
-6869.852037554168
 30
0.0
  0
VERTEX
  5
32E
100
AcDbEntity
  8
Frei
  6
CONTINUOUS
 62
           7
100
AcDbVertex
100
AcDb2dVertex
 10
-14029.185472436775
 20
-6869.807549893911
 30
0.0
  0
SEQEND
  5
32F
100
AcDbEntity
  8
Frei
  6
CONTINUOUS
 62
           7
  0
ARC
  5
330
100
AcDbEntity
  8
Frei
  6
CONTINUOUS
 62
           7
100
AcDbCircle
 10
-13895.507996074859
 20
-6888.449735588263
 30
0.0
 40
0.5
100
AcDbArc
 50
273.237821982568
 51
356.087999999999
  0
ARC
  5
331
100
AcDbEntity
  8
Frei
  6
CONTINUOUS
 62
           7
100
AcDbCircle
 10
-13895.158851489339
 20
-6883.344056668344
 30
0.0
 40
0.5
100
AcDbArc
 50
356.087999999999
 51
78.938178017423
  0
ARC
  5
332
100
AcDbEntity
  8
Frei
  6
CONTINUOUS
 62
           7
100
AcDbCircle
 10
-14049.765296357729
 20
-6850.720135550217
 30
0.0
 40
0.5
100
AcDbArc
 50
93.237821982565
 51
176.088
  0
ARC
  5
333
100
AcDbEntity
  8
Frei
  6
CONTINUOUS
 62
           7
100
AcDbCircle
 10
-14050.114440943249
 20
-6855.825814470136
 30
0.0
 40
0.5
100
AcDbArc
 50
176.088
 51
258.938178017419
  0
ARC
  5
334
100
AcDbEntity
  8
Frei
  6
CONTINUOUS
 62
           7
100
AcDbCircle
 10
-14079.982479576795
 20
-6852.66600623643
 30
0.0
 40
2.0
100
AcDbArc
 50
88.088
 51
176.088
  0
ARC
  5
335
100
AcDbEntity
  8
Frei
  6
CONTINUOUS
 62
           7
100
AcDbCircle
 10
-14095.813004595946
 20
-6908.271460824524
 30
0.0
 40
1.5
100
AcDbArc
 50
176.088
 51
266.088
  0
ARC
  5
336
100
AcDbEntity
  8
Frei
  6
CONTINUOUS
 62
           7
100
AcDbCircle
 10
-14094.789640940766
 20
-6893.306410646552
 30
0.0
 40
1.5
100
AcDbArc
 50
86.088
 51
176.088
  0
ARC
  5
337
100
AcDbEntity
  8
Frei
  6
CONTINUOUS
 62
           7
100
AcDbCircle
 10
-14083.70451596621
 20
-6907.094811724939
 30
0.0
 40
1.5
100
AcDbArc
 50
176.088
 51
266.088
  0
ARC
  5
338
100
AcDbEntity
  8
Frei
  6
CONTINUOUS
 62
           7
100
AcDbCircle
 10
-14058.762765669589
 20
-6908.800417816907
 30
0.0
 40
1.5
100
AcDbArc
 50
266.088
 51
356.087999999999
  0
ARC
  5
339
100
AcDbEntity
  8
Frei
  6
CONTINUOUS
 62
           7
100
AcDbCircle
 10
-13893.149543700018
 20
-6920.125642267572
 30
0.0
 40
1.5
100
AcDbArc
 50
176.088
 51
266.088
  0
ARC
  5
33A
100
AcDbEntity
  8
Frei
  6
CONTINUOUS
 62
           7
100
AcDbCircle
 10
-13868.207793403395
 20
-6921.83124835954
 30
0.0
 40
1.5
100
AcDbArc
 50
266.088
 51
356.087999999999
  0
ARC
  5
33B
100
AcDbEntity
  8
Frei
  6
CONTINUOUS
 62
           7
100
AcDbCircle
 10
-13855.348838093194
 20
-6909.680229129443
 30
0.0
 40
1.5
100
AcDbArc
 50
356.087999999999
 51
86.088
  0
ARC
  5
33C
100
AcDbEntity
  8
Frei
  6
CONTINUOUS
 62
           7
100
AcDbCircle
 10
-13856.372201748374
 20
-6924.645279307415
 30
0.0
 40
1.5
100
AcDbArc
 50
266.088
 51
356.087999999999
  0
ARC
  5
33D
100
AcDbEntity
  8
Frei
  6
CONTINUOUS
 62
           7
100
AcDbCircle
 10
-13864.485757013979
 20
-6867.402442871031
 30
0.0
 40
2.0
100
AcDbArc
 50
356.087999999999
 51
84.088
  0
ARC
  5
33E
100
AcDbEntity
  8
Frei
  6
CONTINUOUS
 62
           7
100
AcDbCircle
 10
-13893.511492010848
 20
-6859.459597453193
 30
0.0
 40
1.0
100
AcDbArc
 50
356.087999999999
 51
86.088
  0
ARC
  5
33F
100
AcDbEntity
  8
Frei
  6
CONTINUOUS
 62
           7
100
AcDbCircle
 10
-13895.626443564888
 20
-6890.387367821004
 30
0.0
 40
1.0
100
AcDbArc
 50
266.087999999999
 51
356.087999999999
  0
ARC
  5
340
100
AcDbEntity
  8
Frei
  6
CONTINUOUS
 62
           7
100
AcDbCircle
 10
-14052.260635427676
 20
-6879.676161563448
 30
0.0
 40
1.0
100
AcDbArc
 50
176.088
 51
266.088
  0
ARC
  5
341
100
AcDbEntity
  8
Frei
  6
CONTINUOUS
 62
           7
100
AcDbCircle
 10
-14050.145683873636
 20
-6848.748391195637
 30
0.0
 40
1.0
100
AcDbArc
 50
86.088
 51
176.088
  0
LINE
  5
342
100
AcDbEntity
  8
Frei
  6
CONTINUOUS
 62
           7
100
AcDbLine
 10
-14305.555078277815
 20
-6832.658916356119
 30
0.0
 11
-14305.555078277817
 21
-6902.658916356119
 31
0.0
  0
LINE
  5
343
100
AcDbEntity
  8
Frei
  6
CONTINUOUS
 62
           7
100
AcDbLine
 10
-13787.666193277817
 20
-6902.65891635613
 30
0.0
 11
-13787.666193277815
 21
-6832.65891635613
 31
0.0
  0
LINE
  5
344
100
AcDbEntity
  8
Frei
  6
CONTINUOUS
 62
          15
100
AcDbLine
 10
-14114.484878009163
 20
-6832.658916356123
 30
0.0
 11
-14305.555078277815
 21
-6832.658916356119
 31
0.0
  0
LINE
  5
345
100
AcDbEntity
  8
Frei
  6
GESTRICHELT
 62
          15
100
AcDbLine
 10
-14077.293725796104
 20
-6832.658916356124
 30
0.0
 11
-14114.484878009163
 21
-6832.658916356123
 31
0.0
  0
LINE
  5
346
100
AcDbEntity
  8
Frei
  6
CONTINUOUS
 62
          15
100
AcDbLine
 10
-13787.666131277816
 20
-6832.65891635613
 30
0.0
 11
-14077.293725796106
 21
-6832.658916356124
 31
0.0
  0
LINE
  5
347
100
AcDbEntity
  8
Frei
  6
CONTINUOUS
 62
          15
100
AcDbLine
 10
-14106.956056172437
 20
-6902.658916356124
 30
0.0
 11
-14305.555078277817
 21
-6902.658916356119
 31
0.0
  0
LINE
  5
348
100
AcDbEntity
  8
Frei
  6
GESTRICHELT
 62
          15
100
AcDbLine
 10
-14056.839284689513
 20
-6902.658916356125
 30
0.0
 11
-14106.956056172437
 21
-6902.658916356124
 31
0.0
  0
LINE
  5
349
100
AcDbEntity
  8
Frei
  6
CONTINUOUS
 62
          15
100
AcDbLine
 10
-13893.458609655174
 20
-6902.658916356128
 30
0.0
 11
-14056.839284689513
 21
-6902.658916356125
 31
0.0
  0
LINE
  5
34A
100
AcDbEntity
  8
Frei
  6
GESTRICHELT
 62
          15
100
AcDbLine
 10
-13865.393217624734
 20
-6902.658916356129
 30
0.0
 11
-13893.458609655174
 21
-6902.658916356128
 31
0.0
  0
LINE
  5
34B
100
AcDbEntity
  8
Frei
  6
CONTINUOUS
 62
          15
100
AcDbLine
 10
-13837.829747603089
 20
-6902.658916356129
 30
0.0
 11
-13865.393217624734
 21
-6902.658916356129
 31
0.0
  0
LINE
  5
34C
100
AcDbEntity
  8
Frei
  6
GESTRICHELT
 62
          15
100
AcDbLine
 10
-13831.026165973466
 20
-6902.658916356129
 30
0.0
 11
-13837.829747603089
 21
-6902.658916356129
 31
0.0
  0
LINE
  5
34D
100
AcDbEntity
  8
Frei
  6
CONTINUOUS
 62
          15
100
AcDbLine
 10
-13787.666131277818
 20
-6902.65891635613
 30
0.0
 11
-13831.026165973466
 21
-6902.658916356129
 31
0.0
  0
TEXT
  5
34E
100
AcDbEntity
  8
FREI
  6
CONTINUOUS
 62
          15
100
AcDbText
 10
-14379.762926286621
 20
-6966.136893691106
 30
0.0
 40
3.527777671814
  1
125-701
 41
0.899999979725
  7
GOTHICG
100
AcDbText
  0
ENDSEC
  0
SECTION
  2
OBJECTS
  0
DICTIONARY
  5
19
100
AcDbDictionary
  3
ACAD_GROUP
350
1A
  3
ACAD_MLINESTYLE
350
1B
  0
DICTIONARY
  5
1A
102
{ACAD_REACTORS
330
19
102
}
100
AcDbDictionary
  0
DICTIONARY
  5
1B
102
{ACAD_REACTORS
330
19
102
}
100
AcDbDictionary
  3
STANDARD
350
1C
  0
MLINESTYLE
  5
1C
102
{ACAD_REACTORS
330
1B
102
}
100
AcDbMlineStyle
  2
STANDARD
 70
           0
  3

 62
           0
 51
90.0
 52
90.0
 71
           2
 49
0.5
 62
         256
  6
BYLAYER
 49
-0.5
 62
         256
  6
BYLAYER
  0
ENDSEC
  0
EOF
