  0
SECTION
  2
HEADER
  9
$ACADVER
  1
AC1012
  9
$DWGCODEPAGE
  3
dos850
  9
$INSBASE
 10
0.0
 20
0.0
 30
0.0
  9
$EXTMIN
 10
-14431.602350712714
 20
-7665.746503325855
 30
0.0
  9
$EXTMAX
 10
-13800.37907917966
 20
-7366.194696382157
 30
0.0
  9
$LIMMIN
 10
-14431.602350712714
 20
-7665.746503325855
  9
$LIMMAX
 10
-13800.37907917966
 20
-7366.194696382157
  9
$ORTHOMODE
 70
           0
  9
$REGENMODE
 70
           1
  9
$FILLMODE
 70
           1
  9
$QTEXTMODE
 70
           0
  9
$MIRRTEXT
 70
           1
  9
$DRAGMODE
 70
           2
  9
$LTSCALE
 40
5.0
  9
$OSMODE
 70
           0
  9
$ATTMODE
 70
           1
  9
$TEXTSIZE
 40
0.2
  9
$TRACEWID
 40
0.05
  9
$TEXTSTYLE
  7
TXT
  9
$CLAYER
  8
0
  9
$CELTYPE
  6
CONTINUOUS
  9
$CECOLOR
 62
         256
  9
$CELTSCALE
 40
1.0
  9
$DELOBJ
 70
           1
  9
$DISPSILH
 70
           0
  9
$DIMSCALE
 40
1.0
  9
$DIMASZ
 40
3.5
  9
$DIMEXO
 40
0.0625
  9
$DIMDLI
 40
0.38
  9
$DIMRND
 40
0.0
  9
$DIMDLE
 40
0.0
  9
$DIMEXE
 40
0.18
  9
$DIMTP
 40
0.0
  9
$DIMTM
 40
0.0
  9
$DIMTXT
 40
3.5
  9
$DIMCEN
 40
0.09
  9
$DIMTSZ
 40
0.0
  9
$DIMTOL
 70
           0
  9
$DIMLIM
 70
           0
  9
$DIMTIH
 70
           1
  9
$DIMTOH
 70
           1
  9
$DIMSE1
 70
           0
  9
$DIMSE2
 70
           0
  9
$DIMTAD
 70
           0
  9
$DIMZIN
 70
           0
  9
$DIMBLK
  1

  9
$DIMASO
 70
           1
  9
$DIMSHO
 70
           1
  9
$DIMPOST
  1

  9
$DIMAPOST
  1

  9
$DIMALT
 70
           0
  9
$DIMALTD
 70
           2
  9
$DIMALTF
 40
25.4
  9
$DIMLFAC
 40
1.0
  9
$DIMTOFL
 70
           0
  9
$DIMTVP
 40
0.0
  9
$DIMTIX
 70
           0
  9
$DIMSOXD
 70
           0
  9
$DIMSAH
 70
           0
  9
$DIMBLK1
  1

  9
$DIMBLK2
  1

  9
$DIMSTYLE
  2
STANDARD
  9
$DIMCLRD
 70
           0
  9
$DIMCLRE
 70
           0
  9
$DIMCLRT
 70
           0
  9
$DIMTFAC
 40
1.0
  9
$DIMGAP
 40
0.09
  9
$DIMJUST
 70
           0
  9
$DIMSD1
 70
           0
  9
$DIMSD2
 70
           0
  9
$DIMTOLJ
 70
           1
  9
$DIMTZIN
 70
           0
  9
$DIMALTZ
 70
           0
  9
$DIMALTTZ
 70
           0
  9
$DIMFIT
 70
           3
  9
$DIMUPT
 70
           0
  9
$DIMUNIT
 70
           2
  9
$DIMDEC
 70
           4
  9
$DIMTDEC
 70
           4
  9
$DIMALTU
 70
           2
  9
$DIMALTTD
 70
           2
  9
$DIMTXSTY
  7
TXT
  9
$DIMAUNIT
 70
           0
  9
$LUNITS
 70
           2
  9
$LUPREC
 70
           3
  9
$SKETCHINC
 40
0.1
  9
$FILLETRAD
 40
0.0
  9
$AUNITS
 70
           0
  9
$AUPREC
 70
           3
  9
$MENU
  1
acad
  9
$ELEVATION
 40
0.0
  9
$PELEVATION
 40
0.0
  9
$THICKNESS
 40
0.0
  9
$LIMCHECK
 70
           0
  9
$BLIPMODE
 70
           1
  9
$CHAMFERA
 40
0.0
  9
$CHAMFERB
 40
0.0
  9
$CHAMFERC
 40
0.0
  9
$CHAMFERD
 40
0.0
  9
$SKPOLY
 70
           0
  9
$TDCREATE
 40
0.000000000
  9
$TDUPDATE
 40
0.000000000
  9
$TDINDWG
 40
0.0000000000
  9
$TDUSRTIMER
 40
0.0000000000
  9
$USRTIMER
 70
           1
  9
$ANGBASE
 50
0.0
  9
$ANGDIR
 70
           0
  9
$PDMODE
 70
           2
  9
$PDSIZE
 40
0.5
  9
$PLINEWID
 40
0.0
  9
$COORDS
 70
           0
  9
$SPLFRAME
 70
           0
  9
$SPLINETYPE
 70
           6
  9
$SPLINESEGS
 70
           8
  9
$ATTDIA
 70
           0
  9
$ATTREQ
 70
           1
  9
$HANDLING
 70
           1
  9
$HANDSEED
  5
3AB
  9
$SURFTAB1
 70
           6
  9
$SURFTAB2
 70
           6
  9
$SURFTYPE
 70
           6
  9
$SURFU
 70
           6
  9
$SURFV
 70
           6
  9
$UCSNAME
  2

  9
$UCSORG
 10
0.0
 20
0.0
 30
0.0
  9
$UCSXDIR
 10
1.0
 20
0.0
 30
0.0
  9
$UCSYDIR
 10
0.0
 20
1.0
 30
0.0
  9
$PUCSNAME
  2

  9
$PUCSORG
 10
0.0
 20
0.0
 30
0.0
  9
$PUCSXDIR
 10
1.0
 20
0.0
 30
0.0
  9
$PUCSYDIR
 10
0.0
 20
1.0
 30
0.0
  9
$USERI1
 70
           0
  9
$USERI2
 70
           0
  9
$USERI3
 70
           0
  9
$USERI4
 70
           0
  9
$USERI5
 70
           0
  9
$USERR1
 40
0.0
  9
$USERR2
 40
0.0
  9
$USERR3
 40
0.0
  9
$USERR4
 40
0.0
  9
$USERR5
 40
0.0
  9
$WORLDVIEW
 70
           1
  9
$SHADEDGE
 70
           3
  9
$SHADEDIF
 70
          70
  9
$TILEMODE
 70
           1
  9
$MAXACTVP
 70
          16
  9
$PINSBASE
 10
0.0
 20
0.0
 30
0.0
  9
$PLIMCHECK
 70
           0
  9
$PEXTMIN
 10
1.000000000000E+20
 20
1.000000000000E+20
 30
1.000000000000E+20
  9
$PEXTMAX
 10
-1.000000000000E+20
 20
-1.000000000000E+20
 30
-1.000000000000E+20
  9
$PLIMMIN
 10
0.0
 20
0.0
  9
$PLIMMAX
 10
12.0
 20
9.0
  9
$UNITMODE
 70
           0
  9
$VISRETAIN
 70
           0
  9
$PLINEGEN
 70
           1
  9
$PSLTSCALE
 70
           0
  9
$TREEDEPTH
 70
        3020
  9
$PICKSTYLE
 70
           1
  9
$CMLSTYLE
  2
STANDARD
  9
$CMLJUST
 70
           0
  9
$CMLSCALE
 40
1.0
  9
$SAVEIMAGES
 70
           0
  0
ENDSEC
  0
SECTION
  2
CLASSES
  0
CLASS
  1
LWPOLYLINE
  2
AcDbPolyline
  3
"AutoCAD"
 90
        0
280
           0
281
           1
  0
CLASS
  1
IMAGE
  2
AcDbRasterImage
  3
ISM
 90
      127
280
           0
281
           1
  0
CLASS
  1
OLE2FRAME
  2
AcDbOle2Frame
  3
""
 90
        0
280
           0
281
           1
  0
CLASS
  1
HATCH
  2
AcDbHatch
  3
"ACAD_SEDONA"
 90
        0
280
           0
281
           1
  0
CLASS
  1
DICTIONARYVAR
  2
AcDbDictionaryVar
  3
"AutoCAD"
 90
        0
280
           0
281
           0
  0
CLASS
  1
RASTERVARIABLES
  2
AcDbRasterVariables
  3
ISM
 90
        0
280
           0
281
           0
  0
CLASS
  1
IMAGEDEF
  2
AcDbRasterImageDef
  3
ISM
 90
        0
280
           0
281
           0
  0
CLASS
  1
IMAGEDEF_REACTOR
  2
AcDbRasterImageDefReactor
  3
ISM
 90
        1
280
           0
281
           0
  0
CLASS
  1
IDBUFFER
  2
AcDbIdBuffer
  3
"Acad"
 90
        0
280
           0
281
           0
  0
CLASS
  1
SPATIAL_FILTER
  2
AcDbSpatialFilter
  3
"Acad"
 90
        0
280
           0
281
           0
  0
CLASS
  1
XRECORD
  2
AcDbXrecord
  3
"<Built In>"
 90
        0
280
           0
281
           0
  0
ENDSEC
  0
SECTION
  2
TABLES
  0
TABLE
  2
VPORT
  5
7
100
AcDbSymbolTable
 70
           1
  0
VPORT
  5
15
100
AcDbSymbolTableRecord
100
AcDbViewportTableRecord
  2
*ACTIVE
 70
           0
 10
0.0
 20
0.0
 11
1.0
 21
1.0
 12
6.591288
 22
4.579184
 13
0.0
 23
0.0
 14
1.0
 24
1.0
 15
0.0
 25
0.0
 16
0.0
 26
0.0
 36
1.0
 17
0.0
 27
0.0
 37
0.0
 40
9.158369
 41
0.688564
 42
50.0
 43
0.0
 44
0.0
 50
0.0
 51
0.0
 71
           0
 72
         100
 73
           1
 74
           1
 75
           0
 76
           0
 77
           0
 78
           0
  0
ENDTAB
  0
TABLE
  2
LTYPE
  5
4
100
AcDbSymbolTable
 70
           5
  0
LTYPE
  5
11
100
AcDbSymbolTableRecord
100
AcDbLinetypeTableRecord
  2
BYBLOCK
 70
           0
  3

 72
          65
 73
           0
 40
0.0
  0
LTYPE
  5
12
100
AcDbSymbolTableRecord
100
AcDbLinetypeTableRecord
  2
BYLAYER
 70
           0
  3

 72
          65
 73
           0
 40
0.0
  0
LTYPE
  5
13
100
AcDbSymbolTableRecord
100
AcDbLinetypeTableRecord
  2
CONTINUOUS
 70
           0
  3
Solid line
 72
          65
 73
           0
 40
0.0
  0
LTYPE
  5
1D
100
AcDbSymbolTableRecord
100
AcDbLinetypeTableRecord
  2
GESTRICHELT
 70
           0
  3

 72
          65
 73
           2
 40
0.75
 49
0.5
 74
           0
 49
-0.25
 74
           0
  0
LTYPE
  5
1E
100
AcDbSymbolTableRecord
100
AcDbLinetypeTableRecord
  2
STRICHPUNKT
 70
           0
  3

 72
          65
 73
           4
 40
1.0
 49
0.5
 74
           0
 49
-0.25
 74
           0
 49
0.0
 74
           0
 49
-0.25
 74
           0
  0
ENDTAB
  0
TABLE
  2
LAYER
  5
2
100
AcDbSymbolTable
 70
           3
  0
LAYER
  5
14
100
AcDbSymbolTableRecord
100
AcDbLayerTableRecord
  2
0
 70
           0
 62
           7
  6
CONTINUOUS
  0
LAYER
  5
20
100
AcDbSymbolTableRecord
100
AcDbLayerTableRecord
  2
FREI
 70
           0
 62
           7
  6
CONTINUOUS
  0
LAYER
  5
21
100
AcDbSymbolTableRecord
100
AcDbLayerTableRecord
  2
Frei
 70
           0
 62
           7
  6
CONTINUOUS
  0
ENDTAB
  0
TABLE
  2
STYLE
  5
3
100
AcDbSymbolTable
 70
           2
  0
STYLE
  5
17
100
AcDbSymbolTableRecord
100
AcDbTextStyleTableRecord
  2
TXT
 70
           0
 40
3.5
 41
1.0
 50
0.0
 71
           0
 42
3.5
  3
TXT
  4

  0
STYLE
  5
1F
100
AcDbSymbolTableRecord
100
AcDbTextStyleTableRecord
  2
GOTHICG
 70
           0
 40
3.5
 41
1.0
 50
0.0
 71
           0
 42
3.5
  3
GOTHICG
  4

  0
ENDTAB
  0
TABLE
  2
VIEW
  5
5
100
AcDbSymbolTable
 70
           0
  0
ENDTAB
  0
TABLE
  2
UCS
  5
6
100
AcDbSymbolTable
 70
           0
  0
ENDTAB
  0
TABLE
  2
APPID
  5
8
100
AcDbSymbolTable
 70
           2
  0
APPID
  5
16
100
AcDbSymbolTableRecord
100
AcDbRegAppTableRecord
  2
ACAD
 70
           0
  0
APPID
  5
22
100
AcDbSymbolTableRecord
100
AcDbRegAppTableRecord
  2
MegaCADPntStyle
 70
           0
  0
ENDTAB
  0
TABLE
  2
DIMSTYLE
  5
9
100
AcDbSymbolTable
 70
           1
  0
DIMSTYLE
105
18
100
AcDbSymbolTableRecord
100
AcDbDimStyleTableRecord
  2
STANDARD
 70
           0
  3

  4

  5

  6

  7

 40
1.0
 41
0.18
 42
0.0625
 43
0.38
 44
0.18
 45
0.0
 46
0.0
 47
0.0
 48
0.0
140
0.18
141
0.09
142
0.0
143
25.4
144
1.0
145
0.0
146
1.0
147
0.09
 71
           0
 72
           0
 73
           1
 74
           1
 75
           0
 76
           0
 77
           0
 78
           0
170
           0
171
           2
172
           0
173
           0
174
           0
175
           0
176
           0
177
           0
178
           0
270
           2
271
           4
272
           4
273
           2
274
           2
340
17
275
           0
280
           0
281
           0
282
           0
283
           1
284
           0
285
           0
286
           0
287
           0
288
           0
  0
ENDTAB
  0
TABLE
  2
BLOCK_RECORD
  5
1
100
AcDbSymbolTable
 70
           3
  0
BLOCK_RECORD
  5
A
100
AcDbSymbolTableRecord
100
AcDbBlockTableRecord
  2
*MODEL_SPACE
  0
BLOCK_RECORD
  5
B
100
AcDbSymbolTableRecord
100
AcDbBlockTableRecord
  2
*PAPER_SPACE
  0
BLOCK_RECORD
  5
23
100
AcDbSymbolTableRecord
100
AcDbBlockTableRecord
  2
ELIPPSE
  0
BLOCK_RECORD
  5
24
100
AcDbSymbolTableRecord
100
AcDbBlockTableRecord
  2
MAK1
  0
BLOCK_RECORD
  5
25
100
AcDbSymbolTableRecord
100
AcDbBlockTableRecord
  2
MAK2
  0
ENDTAB
  0
ENDSEC
  0
SECTION
  2
BLOCKS
  0
BLOCK
  5
D
100
AcDbEntity
  8
0
100
AcDbBlockBegin
  2
*MODEL_SPACE
 70
           0
 10
0.0
 20
0.0
 30
0.0
  3
*MODEL_SPACE
  1

  0
ENDBLK
  5
E
100
AcDbEntity
  8
0
100
AcDbBlockEnd
  0
BLOCK
  5
F
100
AcDbEntity
 67
           1
  8
0
100
AcDbBlockBegin
  2
*PAPER_SPACE
 70
           0
 10
0.0
 20
0.0
 30
0.0
  3
*PAPER_SPACE
  1

  0
ENDBLK
  5
10
100
AcDbEntity
 67
           1
  8
0
100
AcDbBlockEnd
  0
BLOCK
  5
34F
100
AcDbEntity
  8
0
100
AcDbBlockBegin
  2
ELIPPSE
 70
          64
 10
0.0
 20
0.0
 30
0.0
  3
ELIPPSE
  1

  0
CIRCLE
  5
350
100
AcDbEntity
  8
0
  6
BYBLOCK
 62
           0
100
AcDbCircle
 10
0.0
 20
0.0
 30
0.0
 40
1.0
  0
ENDBLK
  5
351
100
AcDbEntity
  8
0
  6
BYBLOCK
 62
           0
100
AcDbBlockEnd
  0
BLOCK
  5
352
100
AcDbEntity
  8
0
100
AcDbBlockBegin
  2
MAK1
 70
          64
 10
0.0
 20
0.0
 30
0.0
  3
MAK1
  1

  0
LINE
  5
353
100
AcDbEntity
  8
Frei
  6
CONTINUOUS
 62
           2
100
AcDbLine
 10
191.903508353413
 20
615.106916893559
 30
0.0
 11
192.293358480831
 21
615.496767020979
 31
0.0
  0
LINE
  5
354
100
AcDbEntity
  8
Frei
  6
CONTINUOUS
 62
           2
100
AcDbLine
 10
191.903508353411
 20
614.04625672178
 30
0.0
 11
193.354018652608
 21
615.496767020979
 31
0.0
  0
LINE
  5
355
100
AcDbEntity
  8
Frei
  6
CONTINUOUS
 62
           2
100
AcDbLine
 10
191.903508353413
 20
612.985596550001
 30
0.0
 11
193.903508353413
 21
614.985596550001
 31
0.0
  0
LINE
  5
356
100
AcDbEntity
  8
Frei
  6
CONTINUOUS
 62
           2
100
AcDbLine
 10
191.903508353411
 20
611.92493637822
 30
0.0
 11
193.903508353411
 21
613.92493637822
 31
0.0
  0
LINE
  5
357
100
AcDbEntity
  8
Frei
  6
CONTINUOUS
 62
           2
100
AcDbLine
 10
191.903508353413
 20
610.864276206443
 30
0.0
 11
193.903508353413
 21
612.864276206441
 31
0.0
  0
LINE
  5
358
100
AcDbEntity
  8
Frei
  6
CONTINUOUS
 62
           2
100
AcDbLine
 10
191.903508353411
 20
609.80361603466
 30
0.0
 11
193.903508353411
 21
611.80361603466
 31
0.0
  0
LINE
  5
359
100
AcDbEntity
  8
Frei
  6
CONTINUOUS
 62
           2
100
AcDbLine
 10
191.903508353411
 20
608.742955862881
 30
0.0
 11
193.903508353413
 21
610.742955862881
 31
0.0
  0
LINE
  5
35A
100
AcDbEntity
  8
Frei
  6
CONTINUOUS
 62
           2
100
AcDbLine
 10
191.903508353411
 20
607.682295691102
 30
0.0
 11
193.903508353411
 21
609.682295691102
 31
0.0
  0
LINE
  5
35B
100
AcDbEntity
  8
Frei
  6
CONTINUOUS
 62
           2
100
AcDbLine
 10
191.903508353413
 20
606.621635519323
 30
0.0
 11
193.903508353413
 21
608.621635519321
 31
0.0
  0
LINE
  5
35C
100
AcDbEntity
  8
Frei
  6
CONTINUOUS
 62
           2
100
AcDbLine
 10
191.903508353413
 20
605.560975347542
 30
0.0
 11
193.903508353411
 21
607.560975347544
 31
0.0
  0
LINE
  5
35D
100
AcDbEntity
  8
Frei
  6
CONTINUOUS
 62
           2
100
AcDbLine
 10
191.903508353411
 20
604.500315175761
 30
0.0
 11
193.903508353411
 21
606.500315175761
 31
0.0
  0
LINE
  5
35E
100
AcDbEntity
  8
Frei
  6
CONTINUOUS
 62
           2
100
AcDbLine
 10
191.903508353411
 20
603.439655003982
 30
0.0
 11
193.903508353411
 21
605.439655003982
 31
0.0
  0
LINE
  5
35F
100
AcDbEntity
  8
Frei
  6
CONTINUOUS
 62
           2
100
AcDbLine
 10
191.903508353413
 20
602.378994832203
 30
0.0
 11
193.903508353413
 21
604.378994832203
 31
0.0
  0
LINE
  5
360
100
AcDbEntity
  8
Frei
  6
CONTINUOUS
 62
           2
100
AcDbLine
 10
191.903508353413
 20
601.318334660424
 30
0.0
 11
193.903508353413
 21
603.318334660422
 31
0.0
  0
LINE
  5
361
100
AcDbEntity
  8
Frei
  6
CONTINUOUS
 62
           2
100
AcDbLine
 10
191.903508353411
 20
600.257674488643
 30
0.0
 11
193.903508353411
 21
602.257674488643
 31
0.0
  0
LINE
  5
362
100
AcDbEntity
  8
Frei
  6
CONTINUOUS
 62
           2
100
AcDbLine
 10
191.903508353411
 20
599.197014316862
 30
0.0
 11
193.903508353413
 21
601.197014316862
 31
0.0
  0
LINE
  5
363
100
AcDbEntity
  8
Frei
  6
CONTINUOUS
 62
           2
100
AcDbLine
 10
191.903508353413
 20
598.136354145083
 30
0.0
 11
193.903508353413
 21
600.136354145083
 31
0.0
  0
LINE
  5
364
100
AcDbEntity
  8
Frei
  6
CONTINUOUS
 62
           2
100
AcDbLine
 10
191.903508353413
 20
597.075693973304
 30
0.0
 11
193.903508353415
 21
599.075693973304
 31
0.0
  0
LINE
  5
365
100
AcDbEntity
  8
Frei
  6
CONTINUOUS
 62
           2
100
AcDbLine
 10
191.903508353411
 20
596.015033801523
 30
0.0
 11
193.903508353411
 21
598.015033801525
 31
0.0
  0
LINE
  5
366
100
AcDbEntity
  8
Frei
  6
CONTINUOUS
 62
           2
100
AcDbLine
 10
192.445901744644
 20
595.496767020977
 30
0.0
 11
193.903508353413
 21
596.954373629744
 31
0.0
  0
LINE
  5
367
100
AcDbEntity
  8
Frei
  6
CONTINUOUS
 62
           2
100
AcDbLine
 10
193.506561916425
 20
595.496767020979
 30
0.0
 11
193.903508353413
 21
595.893713457963
 31
0.0
  0
LINE
  5
368
100
AcDbEntity
  8
Frei
  6
CONTINUOUS
 62
           2
100
AcDbLine
 10
192.573740611429
 20
595.496767020979
 30
0.0
 11
191.903508353413
 21
596.166999278998
 31
0.0
  0
LINE
  5
369
100
AcDbEntity
  8
Frei
  6
CONTINUOUS
 62
           2
100
AcDbLine
 10
193.634400783207
 20
595.496767020979
 30
0.0
 11
191.903508353411
 21
597.227659450777
 31
0.0
  0
LINE
  5
36A
100
AcDbEntity
  8
Frei
  6
CONTINUOUS
 62
           2
100
AcDbLine
 10
193.903508353411
 20
596.288319622558
 30
0.0
 11
191.903508353411
 21
598.288319622556
 31
0.0
  0
LINE
  5
36B
100
AcDbEntity
  8
Frei
  6
CONTINUOUS
 62
           2
100
AcDbLine
 10
193.903508353413
 20
597.348979794337
 30
0.0
 11
191.903508353413
 21
599.348979794337
 31
0.0
  0
LINE
  5
36C
100
AcDbEntity
  8
Frei
  6
CONTINUOUS
 62
           2
100
AcDbLine
 10
193.903508353411
 20
598.409639966116
 30
0.0
 11
191.903508353413
 21
600.409639966116
 31
0.0
  0
LINE
  5
36D
100
AcDbEntity
  8
Frei
  6
CONTINUOUS
 62
           2
100
AcDbLine
 10
193.903508353413
 20
599.470300137895
 30
0.0
 11
191.903508353411
 21
601.470300137895
 31
0.0
  0
LINE
  5
36E
100
AcDbEntity
  8
Frei
  6
CONTINUOUS
 62
           2
100
AcDbLine
 10
193.903508353411
 20
600.530960309674
 30
0.0
 11
191.903508353413
 21
602.530960309676
 31
0.0
  0
LINE
  5
36F
100
AcDbEntity
  8
Frei
  6
CONTINUOUS
 62
           2
100
AcDbLine
 10
193.903508353413
 20
601.591620481455
 30
0.0
 11
191.903508353413
 21
603.591620481455
 31
0.0
  0
LINE
  5
370
100
AcDbEntity
  8
Frei
  6
CONTINUOUS
 62
           2
100
AcDbLine
 10
193.903508353411
 20
602.652280653236
 30
0.0
 11
191.903508353413
 21
604.652280653236
 31
0.0
  0
LINE
  5
371
100
AcDbEntity
  8
Frei
  6
CONTINUOUS
 62
           2
100
AcDbLine
 10
193.903508353413
 20
603.712940825015
 30
0.0
 11
191.903508353411
 21
605.712940825015
 31
0.0
  0
LINE
  5
372
100
AcDbEntity
  8
Frei
  6
CONTINUOUS
 62
           2
100
AcDbLine
 10
193.903508353411
 20
604.773600996794
 30
0.0
 11
191.903508353413
 21
606.773600996794
 31
0.0
  0
LINE
  5
373
100
AcDbEntity
  8
Frei
  6
CONTINUOUS
 62
           2
100
AcDbLine
 10
193.903508353413
 20
605.834261168575
 30
0.0
 11
191.903508353413
 21
607.834261168575
 31
0.0
  0
LINE
  5
374
100
AcDbEntity
  8
Frei
  6
CONTINUOUS
 62
           2
100
AcDbLine
 10
193.903508353413
 20
606.894921340354
 30
0.0
 11
191.903508353411
 21
608.894921340354
 31
0.0
  0
LINE
  5
375
100
AcDbEntity
  8
Frei
  6
CONTINUOUS
 62
           2
100
AcDbLine
 10
193.903508353413
 20
607.955581512135
 30
0.0
 11
191.903508353411
 21
609.955581512133
 31
0.0
  0
LINE
  5
376
100
AcDbEntity
  8
Frei
  6
CONTINUOUS
 62
           2
100
AcDbLine
 10
193.903508353411
 20
609.016241683912
 30
0.0
 11
191.903508353411
 21
611.016241683912
 31
0.0
  0
LINE
  5
377
100
AcDbEntity
  8
Frei
  6
CONTINUOUS
 62
           2
100
AcDbLine
 10
193.903508353413
 20
610.076901855695
 30
0.0
 11
191.903508353413
 21
612.076901855695
 31
0.0
  0
LINE
  5
378
100
AcDbEntity
  8
Frei
  6
CONTINUOUS
 62
           2
100
AcDbLine
 10
193.903508353413
 20
611.137562027472
 30
0.0
 11
191.903508353411
 21
613.137562027474
 31
0.0
  0
LINE
  5
379
100
AcDbEntity
  8
Frei
  6
CONTINUOUS
 62
           2
100
AcDbLine
 10
193.903508353413
 20
612.198222199253
 30
0.0
 11
191.903508353413
 21
614.198222199253
 31
0.0
  0
LINE
  5
37A
100
AcDbEntity
  8
Frei
  6
CONTINUOUS
 62
           2
100
AcDbLine
 10
193.903508353411
 20
613.258882371032
 30
0.0
 11
191.903508353411
 21
615.258882371032
 31
0.0
  0
LINE
  5
37B
100
AcDbEntity
  8
Frei
  6
CONTINUOUS
 62
           2
100
AcDbLine
 10
193.903508353415
 20
614.319542542811
 30
0.0
 11
192.726283875247
 21
615.496767020979
 31
0.0
  0
LINE
  5
37C
100
AcDbEntity
  8
Frei
  6
CONTINUOUS
 62
           2
100
AcDbLine
 10
193.903508353413
 20
615.380202714592
 30
0.0
 11
193.786944047028
 21
615.496767020979
 31
0.0
  0
ENDBLK
  5
37D
100
AcDbEntity
  8
0
  6
BYBLOCK
 62
           0
100
AcDbBlockEnd
  0
BLOCK
  5
37E
100
AcDbEntity
  8
0
100
AcDbBlockBegin
  2
MAK2
 70
          64
 10
0.0
 20
0.0
 30
0.0
  3
MAK2
  1

  0
LINE
  5
37F
100
AcDbEntity
  8
Frei
  6
CONTINUOUS
 62
           2
100
AcDbLine
 10
-32.096491646589
 20
614.906213139102
 30
0.0
 11
-31.505937764712
 21
615.496767020979
 31
0.0
  0
LINE
  5
380
100
AcDbEntity
  8
Frei
  6
CONTINUOUS
 62
           2
100
AcDbLine
 10
-32.096491646587
 20
613.845552967323
 30
0.0
 11
-30.445277592931
 21
615.496767020977
 31
0.0
  0
LINE
  5
381
100
AcDbEntity
  8
Frei
  6
CONTINUOUS
 62
           2
100
AcDbLine
 10
-32.096491646589
 20
612.784892795544
 30
0.0
 11
-30.096491646589
 21
614.784892795544
 31
0.0
  0
LINE
  5
382
100
AcDbEntity
  8
Frei
  6
CONTINUOUS
 62
           2
100
AcDbLine
 10
-32.096491646589
 20
611.724232623765
 30
0.0
 11
-30.096491646591
 21
613.724232623761
 31
0.0
  0
LINE
  5
383
100
AcDbEntity
  8
Frei
  6
CONTINUOUS
 62
           2
100
AcDbLine
 10
-32.096491646589
 20
610.663572451982
 30
0.0
 11
-30.096491646591
 21
612.663572451982
 31
0.0
  0
LINE
  5
384
100
AcDbEntity
  8
Frei
  6
CONTINUOUS
 62
           2
100
AcDbLine
 10
-32.096491646587
 20
609.602912280203
 30
0.0
 11
-30.096491646589
 21
611.602912280203
 31
0.0
  0
LINE
  5
385
100
AcDbEntity
  8
Frei
  6
CONTINUOUS
 62
           2
100
AcDbLine
 10
-32.096491646589
 20
608.542252108424
 30
0.0
 11
-30.096491646591
 21
610.542252108424
 31
0.0
  0
LINE
  5
386
100
AcDbEntity
  8
Frei
  6
CONTINUOUS
 62
           2
100
AcDbLine
 10
-32.096491646589
 20
607.481591936645
 30
0.0
 11
-30.096491646591
 21
609.481591936643
 31
0.0
  0
LINE
  5
387
100
AcDbEntity
  8
Frei
  6
CONTINUOUS
 62
           2
100
AcDbLine
 10
-32.096491646589
 20
606.420931764866
 30
0.0
 11
-30.096491646591
 21
608.420931764866
 31
0.0
  0
LINE
  5
388
100
AcDbEntity
  8
Frei
  6
CONTINUOUS
 62
           2
100
AcDbLine
 10
-32.096491646587
 20
605.360271593085
 30
0.0
 11
-30.096491646589
 21
607.360271593085
 31
0.0
  0
LINE
  5
389
100
AcDbEntity
  8
Frei
  6
CONTINUOUS
 62
           2
100
AcDbLine
 10
-32.096491646589
 20
604.299611421304
 30
0.0
 11
-30.096491646591
 21
606.299611421304
 31
0.0
  0
LINE
  5
38A
100
AcDbEntity
  8
Frei
  6
CONTINUOUS
 62
           2
100
AcDbLine
 10
-32.096491646589
 20
603.238951249525
 30
0.0
 11
-30.096491646591
 21
605.238951249525
 31
0.0
  0
LINE
  5
38B
100
AcDbEntity
  8
Frei
  6
CONTINUOUS
 62
           2
100
AcDbLine
 10
-32.096491646589
 20
602.178291077746
 30
0.0
 11
-30.096491646591
 21
604.178291077746
 31
0.0
  0
LINE
  5
38C
100
AcDbEntity
  8
Frei
  6
CONTINUOUS
 62
           2
100
AcDbLine
 10
-32.096491646589
 20
601.117630905965
 30
0.0
 11
-30.096491646591
 21
603.117630905965
 31
0.0
  0
LINE
  5
38D
100
AcDbEntity
  8
Frei
  6
CONTINUOUS
 62
           2
100
AcDbLine
 10
-32.096491646589
 20
600.056970734186
 30
0.0
 11
-30.096491646591
 21
602.056970734186
 31
0.0
  0
LINE
  5
38E
100
AcDbEntity
  8
Frei
  6
CONTINUOUS
 62
           2
100
AcDbLine
 10
-32.096491646589
 20
598.996310562407
 30
0.0
 11
-30.096491646591
 21
600.996310562405
 31
0.0
  0
LINE
  5
38F
100
AcDbEntity
  8
Frei
  6
CONTINUOUS
 62
           2
100
AcDbLine
 10
-32.096491646589
 20
597.935650390627
 30
0.0
 11
-30.096491646591
 21
599.935650390627
 31
0.0
  0
LINE
  5
390
100
AcDbEntity
  8
Frei
  6
CONTINUOUS
 62
           2
100
AcDbLine
 10
-32.096491646589
 20
596.874990218845
 30
0.0
 11
-30.096491646591
 21
598.874990218847
 31
0.0
  0
LINE
  5
391
100
AcDbEntity
  8
Frei
  6
CONTINUOUS
 62
           2
100
AcDbLine
 10
-32.096491646589
 20
595.814330047066
 30
0.0
 11
-30.096491646589
 21
597.814330047066
 31
0.0
  0
LINE
  5
392
100
AcDbEntity
  8
Frei
  6
CONTINUOUS
 62
           2
100
AcDbLine
 10
-31.353394500897
 20
595.496767020979
 30
0.0
 11
-30.096491646591
 21
596.753669875287
 31
0.0
  0
LINE
  5
393
100
AcDbEntity
  8
Frei
  6
CONTINUOUS
 62
           2
100
AcDbLine
 10
-30.292734329116
 20
595.496767020979
 30
0.0
 11
-30.096491646589
 21
595.693009703506
 31
0.0
  0
LINE
  5
394
100
AcDbEntity
  8
Frei
  6
CONTINUOUS
 62
           2
100
AcDbLine
 10
-31.225555634113
 20
595.496767020979
 30
0.0
 11
-32.096491646589
 21
596.367703033455
 31
0.0
  0
LINE
  5
395
100
AcDbEntity
  8
Frei
  6
CONTINUOUS
 62
           2
100
AcDbLine
 10
-30.164895462331
 20
595.496767020979
 30
0.0
 11
-32.096491646587
 21
597.428363205236
 31
0.0
  0
LINE
  5
396
100
AcDbEntity
  8
Frei
  6
CONTINUOUS
 62
           2
100
AcDbLine
 10
-30.096491646589
 20
596.489023377013
 30
0.0
 11
-32.096491646589
 21
598.489023377015
 31
0.0
  0
LINE
  5
397
100
AcDbEntity
  8
Frei
  6
CONTINUOUS
 62
           2
100
AcDbLine
 10
-30.096491646591
 20
597.549683548796
 30
0.0
 11
-32.096491646589
 21
599.549683548796
 31
0.0
  0
LINE
  5
398
100
AcDbEntity
  8
Frei
  6
CONTINUOUS
 62
           2
100
AcDbLine
 10
-30.096491646591
 20
598.610343720575
 30
0.0
 11
-32.096491646589
 21
600.610343720575
 31
0.0
  0
LINE
  5
399
100
AcDbEntity
  8
Frei
  6
CONTINUOUS
 62
           2
100
AcDbLine
 10
-30.096491646591
 20
599.671003892354
 30
0.0
 11
-32.096491646589
 21
601.671003892354
 31
0.0
  0
LINE
  5
39A
100
AcDbEntity
  8
Frei
  6
CONTINUOUS
 62
           2
100
AcDbLine
 10
-30.096491646589
 20
600.731664064133
 30
0.0
 11
-32.096491646589
 21
602.731664064133
 31
0.0
  0
LINE
  5
39B
100
AcDbEntity
  8
Frei
  6
CONTINUOUS
 62
           2
100
AcDbLine
 10
-30.096491646591
 20
601.792324235912
 30
0.0
 11
-32.096491646589
 21
603.792324235914
 31
0.0
  0
LINE
  5
39C
100
AcDbEntity
  8
Frei
  6
CONTINUOUS
 62
           2
100
AcDbLine
 10
-30.096491646591
 20
602.852984407695
 30
0.0
 11
-32.096491646589
 21
604.852984407695
 31
0.0
  0
LINE
  5
39D
100
AcDbEntity
  8
Frei
  6
CONTINUOUS
 62
           2
100
AcDbLine
 10
-30.096491646589
 20
603.913644579472
 30
0.0
 11
-32.096491646589
 21
605.913644579472
 31
0.0
  0
LINE
  5
39E
100
AcDbEntity
  8
Frei
  6
CONTINUOUS
 62
           2
100
AcDbLine
 10
-30.096491646589
 20
604.974304751253
 30
0.0
 11
-32.096491646589
 21
606.974304751253
 31
0.0
  0
LINE
  5
39F
100
AcDbEntity
  8
Frei
  6
CONTINUOUS
 62
           2
100
AcDbLine
 10
-30.096491646591
 20
606.034964923032
 30
0.0
 11
-32.096491646589
 21
608.034964923032
 31
0.0
  0
LINE
  5
3A0
100
AcDbEntity
  8
Frei
  6
CONTINUOUS
 62
           2
100
AcDbLine
 10
-30.096491646591
 20
607.095625094813
 30
0.0
 11
-32.096491646589
 21
609.095625094813
 31
0.0
  0
LINE
  5
3A1
100
AcDbEntity
  8
Frei
  6
CONTINUOUS
 62
           2
100
AcDbLine
 10
-30.096491646589
 20
608.156285266594
 30
0.0
 11
-32.096491646589
 21
610.156285266592
 31
0.0
  0
LINE
  5
3A2
100
AcDbEntity
  8
Frei
  6
CONTINUOUS
 62
           2
100
AcDbLine
 10
-30.096491646589
 20
609.216945438371
 30
0.0
 11
-32.096491646587
 21
611.216945438371
 31
0.0
  0
LINE
  5
3A3
100
AcDbEntity
  8
Frei
  6
CONTINUOUS
 62
           2
100
AcDbLine
 10
-30.096491646591
 20
610.277605610152
 30
0.0
 11
-32.096491646589
 21
612.277605610152
 31
0.0
  0
LINE
  5
3A4
100
AcDbEntity
  8
Frei
  6
CONTINUOUS
 62
           2
100
AcDbLine
 10
-30.096491646593
 20
611.338265781933
 30
0.0
 11
-32.096491646589
 21
613.338265781933
 31
0.0
  0
LINE
  5
3A5
100
AcDbEntity
  8
Frei
  6
CONTINUOUS
 62
           2
100
AcDbLine
 10
-30.096491646589
 20
612.39892595371
 30
0.0
 11
-32.096491646589
 21
614.398925953712
 31
0.0
  0
LINE
  5
3A6
100
AcDbEntity
  8
Frei
  6
CONTINUOUS
 62
           2
100
AcDbLine
 10
-30.096491646591
 20
613.459586125491
 30
0.0
 11
-32.096491646587
 21
615.459586125491
 31
0.0
  0
LINE
  5
3A7
100
AcDbEntity
  8
Frei
  6
CONTINUOUS
 62
           2
100
AcDbLine
 10
-30.096491646591
 20
614.52024629727
 30
0.0
 11
-31.073012370296
 21
615.496767020979
 31
0.0
  0
ENDBLK
  5
3A8
100
AcDbEntity
  8
0
  6
BYBLOCK
 62
           0
100
AcDbBlockEnd
  0
ENDSEC
  0
SECTION
  2
ENTITIES
  0
INSERT
  5
26
100
AcDbEntity
  8
FREI
  6
CONTINUOUS
 62
           7
100
AcDbBlockReference
  2
MAK1
 10
-14107.623574739873
 20
-8107.61692996453
 30
0.0
 50
356.087999999999
  0
INSERT
  5
27
100
AcDbEntity
  8
FREI
  6
CONTINUOUS
 62
           7
100
AcDbBlockReference
  2
MAK2
 10
-14107.623574739873
 20
-8107.61692996453
 30
0.0
 50
356.087999999999
  0
LINE
  5
28
100
AcDbEntity
  8
FREI
  6
CONTINUOUS
 62
          15
100
AcDbLine
 10
-14236.34481122336
 20
-7366.194696382157
 30
0.0
 11
-14368.459584372473
 21
-7420.918427210364
 31
0.0
  0
LINE
  5
29
100
AcDbEntity
  8
FREI
  6
CONTINUOUS
 62
          15
100
AcDbLine
 10
-14283.268026179661
 20
-7626.589042399147
 30
0.0
 11
-14267.048474795723
 21
-7665.746503325855
 31
0.0
  0
LINE
  5
2A
100
AcDbEntity
  8
FREI
  6
CONTINUOUS
 62
          15
100
AcDbLine
 10
-14368.459584372473
 20
-7420.918427210364
 30
0.0
 11
-14360.659068500567
 21
-7439.750538421823
 31
0.0
  0
LINE
  5
2B
100
AcDbEntity
  8
FREI
  6
CONTINUOUS
 62
          15
100
AcDbLine
 10
-14192.460174830034
 20
-7472.141580742733
 30
0.0
 11
-14236.34481122336
 21
-7366.194696382157
 31
0.0
  0
LINE
  5
2C
100
AcDbEntity
  8
FREI
  6
GESTRICHELT
 62
          15
100
AcDbLine
 10
-14163.465225463917
 20
-7542.141580742734
 30
0.0
 11
-14192.460174830034
 21
-7472.141580742733
 31
0.0
  0
LINE
  5
2D
100
AcDbEntity
  8
FREI
  6
CONTINUOUS
 62
          15
100
AcDbLine
 10
-14134.933701646611
 20
-7611.022772497646
 30
0.0
 11
-14163.465225463917
 21
-7542.141580742734
 31
0.0
  0
LINE
  5
2E
100
AcDbEntity
  8
FREI
  6
CONTINUOUS
 62
          15
100
AcDbLine
 10
-14134.933701646611
 20
-7611.022772497646
 30
0.0
 11
-14267.048474795723
 21
-7665.746503325855
 31
0.0
  0
LINE
  5
2F
100
AcDbEntity
  8
FREI
  6
STRICHPUNKT
 62
          15
100
AcDbLine
 10
-14200.991088221166
 20
-7638.38463791175
 30
0.0
 11
-14302.402197797916
 21
-7393.556561796259
 31
0.0
  0
LINE
  5
30
100
AcDbEntity
  8
FREI
  6
STRICHPUNKT
 62
          15
100
AcDbLine
 10
-14283.268026179661
 20
-7439.750538421823
 30
0.0
 11
-14365.544964138155
 21
-7638.384637911752
 31
0.0
  0
LINE
  5
31
100
AcDbEntity
  8
FREI
  6
CONTINUOUS
 62
          15
100
AcDbLine
 10
-14360.659068500567
 20
-7439.750538421823
 30
0.0
 11
-14431.602350712714
 21
-7611.022772497646
 31
0.0
  0
LINE
  5
32
100
AcDbEntity
  8
FREI
  6
CONTINUOUS
 62
          15
100
AcDbLine
 10
-14283.268026179661
 20
-7626.589042399147
 30
0.0
 11
-14299.487577563599
 21
-7665.746503325855
 31
0.0
  0
LINE
  5
33
100
AcDbEntity
  8
FREI
  6
CONTINUOUS
 62
          15
100
AcDbLine
 10
-14205.876983858756
 20
-7439.750538421825
 30
0.0
 11
-14360.659068500567
 21
-7439.750538421823
 31
0.0
  0
LINE
  5
34
100
AcDbEntity
  8
FREI
  6
CONTINUOUS
 62
          15
100
AcDbLine
 10
-14283.268026179661
 20
-7472.141580742731
 30
0.0
 11
-14283.268026179661
 21
-7439.750538421823
 31
0.0
  0
LINE
  5
35
100
AcDbEntity
  8
FREI
  6
GESTRICHELT
 62
          15
100
AcDbLine
 10
-14283.268026179661
 20
-7510.141580742732
 30
0.0
 11
-14283.268026179661
 21
-7472.141580742731
 31
0.0
  0
LINE
  5
36
100
AcDbEntity
  8
FREI
  6
GESTRICHELT
 62
          15
100
AcDbLine
 10
-14283.268026179661
 20
-7542.141580742731
 30
0.0
 11
-14283.268026179661
 21
-7524.141580742732
 31
0.0
  0
LINE
  5
37
100
AcDbEntity
  8
FREI
  6
CONTINUOUS
 62
          15
100
AcDbLine
 10
-14283.268026179661
 20
-7626.589042399147
 30
0.0
 11
-14283.268026179661
 21
-7542.141580742731
 31
0.0
  0
LINE
  5
38
100
AcDbEntity
  8
FREI
  6
CONTINUOUS
 62
          15
100
AcDbLine
 10
-14431.602350712714
 20
-7611.022772497646
 30
0.0
 11
-14299.487577563599
 21
-7665.746503325855
 31
0.0
  0
CIRCLE
  5
39
100
AcDbEntity
  8
FREI
  6
CONTINUOUS
 62
          15
100
AcDbCircle
 10
-14283.268026179661
 20
-7517.141580742732
 30
0.0
 40
7.0
  0
CIRCLE
  5
3A
100
AcDbEntity
  8
Frei
  6
CONTINUOUS
 62
           7
100
AcDbCircle
 10
-13820.379079179662
 20
-7517.141580742733
 30
0.0
 40
6.25
  0
CIRCLE
  5
3B
100
AcDbEntity
  8
FREI
  6
CONTINUOUS
 62
          15
100
AcDbCircle
 10
-14217.672579371361
 20
-7489.971057044811
 30
0.0
 40
6.25
  0
ARC
  5
3C
100
AcDbEntity
  8
FREI
  6
CONTINUOUS
 62
          15
100
AcDbCircle
 10
-14283.268026179661
 20
-7517.141580742732
 30
0.0
 40
17.25
100
AcDbArc
 50
111.69299050693
 51
293.307009493072
  0
LINE
  5
3D
100
AcDbEntity
  8
FREI
  6
CONTINUOUS
 62
          15
100
AcDbLine
 10
-14223.679117012452
 20
-7474.871917812187
 30
0.0
 11
-14289.644196906356
 21
-7501.11326371118
 31
0.0
  0
LINE
  5
3E
100
AcDbEntity
  8
FREI
  6
CONTINUOUS
 62
          15
100
AcDbLine
 10
-14272.119667941692
 20
-7531.121428966063
 30
0.0
 11
-14276.44292807449
 21
-7532.983945965604
 31
0.0
  0
ARC
  5
3F
100
AcDbEntity
  8
FREI
  6
CONTINUOUS
 62
          15
100
AcDbCircle
 10
-14217.672579371361
 20
-7489.971057044811
 30
0.0
 40
16.25
100
AcDbArc
 50
43.677190698584
 51
111.692990506929
  0
ARC
  5
40
100
AcDbEntity
  8
FREI
  6
GESTRICHELT
 62
          15
100
AcDbCircle
 10
-14217.672579371361
 20
-7489.971057044811
 30
0.0
 40
16.25
100
AcDbArc
 50
308.476134970704
 51
43.677190698584
  0
ARC
  5
41
100
AcDbEntity
  8
FREI
  6
CONTINUOUS
 62
          15
100
AcDbCircle
 10
-14217.672579371361
 20
-7489.971057044811
 30
0.0
 40
16.25
100
AcDbArc
 50
223.699865029297
 51
308.476134970704
  0
ARC
  5
42
100
AcDbEntity
  8
FREI
  6
GESTRICHELT
 62
          15
100
AcDbCircle
 10
-14217.672579371361
 20
-7489.971057044811
 30
0.0
 40
16.25
100
AcDbArc
 50
216.333732352792
 51
223.699865029297
  0
ARC
  5
43
100
AcDbEntity
  8
FREI
  6
CONTINUOUS
 62
          15
100
AcDbCircle
 10
-14217.672579371361
 20
-7489.971057044811
 30
0.0
 40
16.25
100
AcDbArc
 50
210.049825852107
 51
216.333732352792
  0
LINE
  5
44
100
AcDbEntity
  8
FREI
  6
CONTINUOUS
 62
          15
100
AcDbLine
 10
-14239.745551883847
 20
-7497.226257177831
 30
0.0
 11
-14268.717887739414
 21
-7528.709048314861
 31
0.0
  0
ARC
  5
45
100
AcDbEntity
  8
FREI
  6
CONTINUOUS
 62
          15
100
AcDbCircle
 10
-14236.066372476864
 20
-7500.612056771904
 30
0.0
 40
5.0
100
AcDbArc
 50
30.049825852111
 51
137.377894256055
  0
ARC
  5
46
100
AcDbEntity
  8
FREI
  6
CONTINUOUS
 62
          15
100
AcDbCircle
 10
-14276.076246553383
 20
-7521.937449126718
 30
0.0
 40
10.0
100
AcDbArc
 50
293.30700949307
 51
317.377894256059
  0
LINE
  5
47
100
AcDbEntity
  8
Frei
  6
GESTRICHELT
 62
           7
100
AcDbLine
 10
-13837.938046841886
 20
-7515.940475099336
 30
0.0
 11
-13836.744122577507
 21
-7498.4812498917
 31
0.0
  0
LINE
  5
48
100
AcDbEntity
  8
Frei
  6
GESTRICHELT
 62
           7
100
AcDbLine
 10
-13836.744122577507
 20
-7498.4812498917
 30
0.0
 11
-13840.734802624966
 21
-7498.208352916987
 31
0.0
  0
LINE
  5
49
100
AcDbEntity
  8
Frei
  6
CONTINUOUS
 62
           7
100
AcDbLine
 10
-13840.734802624966
 20
-7498.208352916987
 30
0.0
 11
-13840.086672310019
 21
-7488.730487804271
 31
0.0
  0
LINE
  5
4A
100
AcDbEntity
  8
Frei
  6
CONTINUOUS
 62
           7
100
AcDbLine
 10
-13840.086672310019
 20
-7488.730487804271
 30
0.0
 11
-13869.617704661221
 21
-7486.711050191379
 31
0.0
  0
LINE
  5
4B
100
AcDbEntity
  8
Frei
  6
CONTINUOUS
 62
           7
100
AcDbLine
 10
-13869.617704661221
 20
-7486.711050191379
 30
0.0
 11
-13869.65181678306
 21
-7487.209885197313
 31
0.0
  0
LINE
  5
4C
100
AcDbEntity
  8
Frei
  6
CONTINUOUS
 62
           7
100
AcDbLine
 10
-13869.65181678306
 20
-7487.209885197313
 30
0.0
 11
-14097.493686384636
 21
-7471.629603887775
 31
0.0
  0
LINE
  5
4D
100
AcDbEntity
  8
Frei
  6
CONTINUOUS
 62
           7
100
AcDbLine
 10
-14097.493686384636
 20
-7471.629603887775
 30
0.0
 11
-14097.459574262797
 21
-7471.130768881843
 31
0.0
  0
LINE
  5
4E
100
AcDbEntity
  8
Frei
  6
CONTINUOUS
 62
           7
100
AcDbLine
 10
-14097.459574262797
 20
-7471.130768881843
 30
0.0
 11
-14126.990606613997
 21
-7469.111331268954
 31
0.0
  0
LINE
  5
4F
100
AcDbEntity
  8
Frei
  6
CONTINUOUS
 62
           7
100
AcDbLine
 10
-14126.990606613997
 20
-7469.111331268954
 30
0.0
 11
-14127.638736928944
 21
-7478.58919638167
 31
0.0
  0
LINE
  5
50
100
AcDbEntity
  8
Frei
  6
CONTINUOUS
 62
           7
100
AcDbLine
 10
-14127.638736928944
 20
-7478.58919638167
 30
0.0
 11
-14138.114272053524
 21
-7477.872841823044
 31
0.0
  0
LINE
  5
51
100
AcDbEntity
  8
Frei
  6
CONTINUOUS
 62
           7
100
AcDbLine
 10
-14138.114272053524
 20
-7477.872841823044
 30
0.0
 11
-14138.148384175363
 21
-7478.371676828976
 31
0.0
  0
LINE
  5
52
100
AcDbEntity
  8
Frei
  6
CONTINUOUS
 62
           7
100
AcDbLine
 10
-14138.148384175363
 20
-7478.371676828976
 30
0.0
 11
-14149.122754305878
 21
-7477.621210148511
 31
0.0
  0
LINE
  5
53
100
AcDbEntity
  8
Frei
  6
CONTINUOUS
 62
           7
100
AcDbLine
 10
-14149.122754305878
 20
-7477.621210148511
 30
0.0
 11
-14151.442378590955
 21
-7511.541990551918
 31
0.0
  0
LINE
  5
54
100
AcDbEntity
  8
Frei
  6
CONTINUOUS
 62
           7
100
AcDbLine
 10
-14151.442378590955
 20
-7511.541990551918
 30
0.0
 11
-14140.468008460441
 21
-7512.292457232383
 31
0.0
  0
LINE
  5
55
100
AcDbEntity
  8
Frei
  6
CONTINUOUS
 62
           7
100
AcDbLine
 10
-14140.468008460441
 20
-7512.292457232383
 30
0.0
 11
-14140.50212058228
 21
-7512.791292238315
 31
0.0
  0
LINE
  5
56
100
AcDbEntity
  8
Frei
  6
CONTINUOUS
 62
           7
100
AcDbLine
 10
-14140.50212058228
 20
-7512.791292238315
 30
0.0
 11
-14130.026585457699
 21
-7513.507646796941
 31
0.0
  0
LINE
  5
57
100
AcDbEntity
  8
Frei
  6
CONTINUOUS
 62
           7
100
AcDbLine
 10
-14130.026585457699
 20
-7513.507646796941
 30
0.0
 11
-14130.674715772648
 21
-7522.985511909657
 31
0.0
  0
LINE
  5
58
100
AcDbEntity
  8
Frei
  6
CONTINUOUS
 62
           7
100
AcDbLine
 10
-14130.674715772648
 20
-7522.985511909657
 30
0.0
 11
-14101.143683421447
 21
-7525.004949522547
 31
0.0
  0
LINE
  5
59
100
AcDbEntity
  8
Frei
  6
CONTINUOUS
 62
           7
100
AcDbLine
 10
-14101.143683421447
 20
-7525.004949522547
 30
0.0
 11
-14101.109571299607
 21
-7524.506114516615
 31
0.0
  0
LINE
  5
5A
100
AcDbEntity
  8
Frei
  6
CONTINUOUS
 62
           7
100
AcDbLine
 10
-13877.943758430087
 20
-7539.766637743793
 30
0.0
 11
-13873.267701698032
 21
-7540.086395826151
 31
0.0
  0
LINE
  5
5B
100
AcDbEntity
  8
Frei
  6
GESTRICHELT
 62
           7
100
AcDbLine
 10
-13905.878521771863
 20
-7537.856402930756
 30
0.0
 11
-13877.943758430087
 21
-7539.766637743793
 31
0.0
  0
LINE
  5
5C
100
AcDbEntity
  8
Frei
  6
CONTINUOUS
 62
           7
100
AcDbLine
 10
-14068.498751225774
 20
-7526.736107412011
 30
0.0
 11
-13905.878521771863
 21
-7537.856402930756
 31
0.0
  0
LINE
  5
5D
100
AcDbEntity
  8
Frei
  6
GESTRICHELT
 62
           7
100
AcDbLine
 10
-14096.433514567549
 20
-7524.825872598975
 30
0.0
 11
-14068.498751225774
 21
-7526.736107412011
 31
0.0
  0
LINE
  5
5E
100
AcDbEntity
  8
Frei
  6
CONTINUOUS
 62
           7
100
AcDbLine
 10
-14101.109571299607
 20
-7524.506114516615
 30
0.0
 11
-14096.433514567549
 21
-7524.825872598975
 31
0.0
  0
LINE
  5
5F
100
AcDbEntity
  8
Frei
  6
CONTINUOUS
 62
           7
100
AcDbLine
 10
-13873.267701698032
 20
-7540.086395826151
 30
0.0
 11
-13873.301813819871
 21
-7540.585230832083
 31
0.0
  0
LINE
  5
60
100
AcDbEntity
  8
Frei
  6
CONTINUOUS
 62
           7
100
AcDbLine
 10
-13873.301813819871
 20
-7540.585230832083
 30
0.0
 11
-13843.770781468669
 21
-7542.604668444974
 31
0.0
  0
LINE
  5
61
100
AcDbEntity
  8
Frei
  6
CONTINUOUS
 62
           7
100
AcDbLine
 10
-13843.770781468669
 20
-7542.604668444974
 30
0.0
 11
-13843.122651153721
 21
-7533.126803332258
 31
0.0
  0
LINE
  5
62
100
AcDbEntity
  8
Frei
  6
GESTRICHELT
 62
           7
100
AcDbLine
 10
-13843.122651153721
 20
-7533.126803332258
 30
0.0
 11
-13839.131971106262
 21
-7533.399700306971
 31
0.0
  0
LINE
  5
63
100
AcDbEntity
  8
Frei
  6
GESTRICHELT
 62
           7
100
AcDbLine
 10
-13839.131971106262
 20
-7533.399700306971
 30
0.0
 11
-13837.938046841886
 21
-7515.940475099336
 31
0.0
  0
LINE
  5
64
100
AcDbEntity
  8
Frei
  6
CONTINUOUS
 62
           7
100
AcDbLine
 10
-13840.734802624966
 20
-7498.208352916987
 30
0.0
 11
-13843.122651153721
 21
-7533.126803332258
 31
0.0
  0
LINE
  5
65
100
AcDbEntity
  8
Frei
  6
CONTINUOUS
 62
           7
100
AcDbLine
 10
-13871.938229715612
 20
-7520.645002899597
 30
0.0
 11
-13873.267701698032
 21
-7540.086395826151
 31
0.0
  0
LINE
  5
66
100
AcDbEntity
  8
Frei
  6
GESTRICHELT
 62
           7
100
AcDbLine
 10
-13871.417948471626
 20
-7513.036725154456
 30
0.0
 11
-13871.938229715612
 21
-7520.645002899597
 31
0.0
  0
LINE
  5
67
100
AcDbEntity
  8
Frei
  6
CONTINUOUS
 62
           7
100
AcDbLine
 10
-13869.65181678306
 20
-7487.209885197313
 30
0.0
 11
-13871.417948471626
 21
-7513.036725154456
 31
0.0
  0
LINE
  5
68
100
AcDbEntity
  8
Frei
  6
CONTINUOUS
 62
           7
100
AcDbLine
 10
-14099.780074770584
 20
-7505.064362635407
 30
0.0
 11
-14101.109571299607
 21
-7524.506114516615
 31
0.0
  0
LINE
  5
69
100
AcDbEntity
  8
Frei
  6
CONTINUOUS
 62
           7
100
AcDbLine
 10
-14099.259793526599
 20
-7497.456084890266
 30
0.0
 11
-14099.780074770584
 21
-7505.064362635407
 31
0.0
  0
LINE
  5
6A
100
AcDbEntity
  8
Frei
  6
CONTINUOUS
 62
           7
100
AcDbLine
 10
-14097.493686384636
 20
-7471.629603887775
 30
0.0
 11
-14099.259793526599
 21
-7497.456084890266
 31
0.0
  0
LINE
  5
6B
100
AcDbEntity
  8
Frei
  6
CONTINUOUS
 62
           7
100
AcDbLine
 10
-14127.638736928944
 20
-7478.58919638167
 30
0.0
 11
-14130.026585457699
 21
-7513.507646796941
 31
0.0
  0
LINE
  5
6C
100
AcDbEntity
  8
Frei
  6
CONTINUOUS
 62
           7
100
AcDbLine
 10
-14138.114272053524
 20
-7477.872841823044
 30
0.0
 11
-14140.50212058228
 21
-7512.791292238315
 31
0.0
  0
LINE
  5
6D
100
AcDbEntity
  8
Frei
  6
GESTRICHELT
 62
           7
100
AcDbLine
 10
-14163.39668423183
 20
-7487.670797494269
 30
0.0
 11
-14181.532483006857
 21
-7486.430606709519
 31
0.0
  0
LINE
  5
6E
100
AcDbEntity
  8
Frei
  6
CONTINUOUS
 62
           7
100
AcDbLine
 10
-14158.353416087197
 20
-7488.015674207756
 30
0.0
 11
-14163.39668423183
 21
-7487.670797494269
 31
0.0
  0
LINE
  5
6F
100
AcDbEntity
  8
Frei
  6
GESTRICHELT
 62
           7
100
AcDbLine
 10
-14164.215375155973
 20
-7499.642837636648
 30
0.0
 11
-14182.351173931
 21
-7498.402646851897
 31
0.0
  0
LINE
  5
70
100
AcDbEntity
  8
Frei
  6
CONTINUOUS
 62
           7
100
AcDbLine
 10
-14159.17210701134
 20
-7499.987714350134
 30
0.0
 11
-14164.215375155973
 21
-7499.642837636648
 31
0.0
  0
LINE
  5
71
100
AcDbEntity
  8
Frei
  6
GESTRICHELT
 62
           7
100
AcDbLine
 10
-14182.349810039763
 20
-7487.143295747863
 30
0.0
 11
-14181.532483006857
 21
-7486.430606709519
 31
0.0
  0
LINE
  5
72
100
AcDbEntity
  8
Frei
  6
GESTRICHELT
 62
           7
100
AcDbLine
 10
-14183.063873628287
 20
-7497.585329113446
 30
0.0
 11
-14182.351173931
 21
-7498.402646851897
 31
0.0
  0
LINE
  5
73
100
AcDbEntity
  8
Frei
  6
GESTRICHELT
 62
           7
100
AcDbLine
 10
-14182.349810039763
 20
-7487.143295747863
 30
0.0
 11
-14183.063873628287
 21
-7497.585329113446
 31
0.0
  0
LINE
  5
74
100
AcDbEntity
  8
Frei
  6
CONTINUOUS
 62
           7
100
AcDbLine
 10
-14163.448997899639
 20
-7488.435800882666
 30
0.0
 11
-14158.405729755006
 21
-7488.780677596153
 31
0.0
  0
LINE
  5
75
100
AcDbEntity
  8
Frei
  6
GESTRICHELT
 62
           7
100
AcDbLine
 10
-14182.349810039763
 20
-7487.143295747863
 30
0.0
 11
-14163.448997899639
 21
-7488.435800882666
 31
0.0
  0
LINE
  5
76
100
AcDbEntity
  8
Frei
  6
CONTINUOUS
 62
           7
100
AcDbLine
 10
-14164.163061488163
 20
-7498.877834248249
 30
0.0
 11
-14159.119793343531
 21
-7499.222710961736
 31
0.0
  0
LINE
  5
77
100
AcDbEntity
  8
Frei
  6
GESTRICHELT
 62
           7
100
AcDbLine
 10
-14183.063873628287
 20
-7497.585329113446
 30
0.0
 11
-14164.163061488163
 21
-7498.877834248249
 31
0.0
  0
LINE
  5
78
100
AcDbEntity
  8
Frei
  6
GESTRICHELT
 62
           7
100
AcDbLine
 10
-14181.532483006857
 20
-7486.430606709519
 30
0.0
 11
-14182.351173931
 21
-7498.402646851897
 31
0.0
  0
LINE
  5
79
100
AcDbEntity
  8
Frei
  6
CONTINUOUS
 62
           7
100
AcDbLine
 10
-14149.736772498987
 20
-7486.600240255295
 30
0.0
 11
-14158.216967599839
 21
-7486.020334184026
 31
0.0
  0
LINE
  5
7A
100
AcDbEntity
  8
Frei
  6
CONTINUOUS
 62
           7
100
AcDbLine
 10
-14158.216967599839
 20
-7486.020334184026
 30
0.0
 11
-14159.308555498697
 21
-7501.983054373864
 31
0.0
  0
LINE
  5
7B
100
AcDbEntity
  8
Frei
  6
CONTINUOUS
 62
           7
100
AcDbLine
 10
-14159.308555498697
 20
-7501.983054373864
 30
0.0
 11
-14150.828360397845
 21
-7502.562960445133
 31
0.0
  0
LINE
  5
7C
100
AcDbEntity
  8
Frei
  6
CONTINUOUS
 62
           7
100
AcDbLine
 10
-14158.444584826266
 20
-7489.34887062131
 30
0.0
 11
-14153.123681421886
 21
-7489.712733026849
 31
0.0
  0
LINE
  5
7D
100
AcDbEntity
  8
Frei
  6
CONTINUOUS
 62
           7
100
AcDbLine
 10
-14159.080938272271
 20
-7498.654517936579
 30
0.0
 11
-14153.760034867892
 21
-7499.018380342117
 31
0.0
  0
LINE
  5
7E
100
AcDbEntity
  8
Frei
  6
CONTINUOUS
 62
           7
100
AcDbLine
 10
-14153.123681421886
 20
-7489.712733026849
 30
0.0
 11
-14153.760034867892
 21
-7499.018380342117
 31
0.0
  0
LINE
  5
7F
100
AcDbEntity
  8
Frei
  6
CONTINUOUS
 62
           7
100
AcDbLine
 10
-14158.444584826266
 20
-7489.34887062131
 30
0.0
 11
-14153.760034867892
 21
-7499.018380342117
 31
0.0
  0
LINE
  5
80
100
AcDbEntity
  8
Frei
  6
CONTINUOUS
 62
           7
100
AcDbLine
 10
-14153.123681421886
 20
-7489.712733026849
 30
0.0
 11
-14159.080938272271
 21
-7498.654517936579
 31
0.0
  0
CIRCLE
  5
81
100
AcDbEntity
  8
Frei
  6
CONTINUOUS
 62
           7
100
AcDbCircle
 10
-14115.274626489285
 20
-7502.989581071997
 30
0.0
 40
5.7225
  0
ARC
  5
82
100
AcDbEntity
  8
Frei
  6
CONTINUOUS
 62
           7
100
AcDbCircle
 10
-14115.274626489285
 20
-7502.989581071997
 30
0.0
 40
6.5785
100
AcDbArc
 50
106.088
 51
16.088
  0
CIRCLE
  5
83
100
AcDbEntity
  8
Frei
  6
CONTINUOUS
 62
           7
100
AcDbCircle
 10
-13855.48676159338
 20
-7508.726418641931
 30
0.0
 40
5.7225
  0
ARC
  5
84
100
AcDbEntity
  8
Frei
  6
CONTINUOUS
 62
           7
100
AcDbCircle
 10
-13855.48676159338
 20
-7508.726418641931
 30
0.0
 40
6.57849
100
AcDbArc
 50
106.087999999994
 51
16.088000000002
  0
LINE
  5
85
100
AcDbEntity
  8
Frei
  6
CONTINUOUS
 62
           7
100
AcDbLine
 10
-14106.578209080513
 20
-7486.478516989015
 30
0.0
 11
-14114.056100230915
 21
-7492.9991866038
 31
0.0
  0
LINE
  5
86
100
AcDbEntity
  8
Frei
  6
CONTINUOUS
 62
           7
100
AcDbLine
 10
-14107.399653250437
 20
-7485.536479645964
 30
0.0
 11
-14114.877538260658
 21
-7492.057059470451
 31
0.0
  0
CIRCLE
  5
87
100
AcDbEntity
  8
Frei
  6
CONTINUOUS
 62
           7
100
AcDbCircle
 10
-14110.727875035071
 20
-7489.267808183133
 30
0.0
 40
5.0
  0
LINE
  5
88
100
AcDbEntity
  8
Frei
  6
CONTINUOUS
 62
           7
100
AcDbLine
 10
-13855.883550521005
 20
-7519.658960710751
 30
0.0
 11
-13863.361834599231
 21
-7526.179513245539
 31
0.0
  0
LINE
  5
89
100
AcDbEntity
  8
Frei
  6
CONTINUOUS
 62
           7
100
AcDbLine
 10
-13856.705188084748
 20
-7518.716819932552
 30
0.0
 11
-13864.183478303155
 21
-7525.237462257641
 31
0.0
  0
CIRCLE
  5
8A
100
AcDbEntity
  8
Frei
  6
CONTINUOUS
 62
           7
100
AcDbCircle
 10
-13860.033513047598
 20
-7522.448191530795
 30
0.0
 40
5.0
  0
LINE
  5
8B
100
AcDbEntity
  8
Frei
  6
CONTINUOUS
 62
           7
100
AcDbLine
 10
-14163.44658132497
 20
-7482.685778267174
 30
0.0
 11
-14166.046629096292
 21
-7482.507977701238
 31
0.0
  0
LINE
  5
8C
100
AcDbEntity
  8
Frei
  6
CONTINUOUS
 62
           7
100
AcDbLine
 10
-14168.646656914214
 20
-7482.330178499788
 30
0.0
 11
-14166.046629096292
 21
-7482.507977701238
 31
0.0
  0
LINE
  5
8D
100
AcDbEntity
  8
Frei
  6
CONTINUOUS
 62
           7
100
AcDbLine
 10
-14170.143496820525
 20
-7504.219058560104
 30
0.0
 11
-14167.543469002603
 21
-7504.396857761554
 31
0.0
  0
LINE
  5
8E
100
AcDbEntity
  8
Frei
  6
CONTINUOUS
 62
           7
100
AcDbLine
 10
-14164.943421231281
 20
-7504.57465832749
 30
0.0
 11
-14167.543469002603
 21
-7504.396857761554
 31
0.0
  0
LINE
  5
8F
100
AcDbEntity
  8
Frei
  6
CONTINUOUS
 62
           7
100
AcDbLine
 10
-14163.82079198379
 20
-7488.158008258954
 30
0.0
 11
-14166.420839755112
 21
-7487.980207693017
 31
0.0
  0
LINE
  5
90
100
AcDbEntity
  8
Frei
  6
CONTINUOUS
 62
           7
100
AcDbLine
 10
-14169.020867573034
 20
-7487.802408491567
 30
0.0
 11
-14166.420839755112
 21
-7487.980207693017
 31
0.0
  0
LINE
  5
91
100
AcDbEntity
  8
Frei
  6
CONTINUOUS
 62
           7
100
AcDbLine
 10
-14169.769286161703
 20
-7498.746828568324
 30
0.0
 11
-14167.169258343782
 21
-7498.924627769775
 31
0.0
  0
LINE
  5
92
100
AcDbEntity
  8
Frei
  6
CONTINUOUS
 62
           7
100
AcDbLine
 10
-14164.569210572459
 20
-7499.102428335711
 30
0.0
 11
-14167.169258343782
 21
-7498.924627769775
 31
0.0
  0
ARC
  5
93
100
AcDbEntity
  8
Frei
  6
CONTINUOUS
 62
           7
100
AcDbCircle
 10
-14202.493278345992
 20
-7491.011245133783
 30
0.0
 40
38.7776
100
AcDbArc
 50
356.947436999999
 51
4.21961
  0
ARC
  5
94
100
AcDbEntity
  8
Frei
  6
CONTINUOUS
 62
           7
100
AcDbCircle
 10
-14131.096819752904
 20
-7495.893590329011
 30
0.0
 40
38.7776
100
AcDbArc
 50
167.956
 51
175.229
  0
ARC
  5
95
100
AcDbEntity
  8
Frei
  6
CONTINUOUS
 62
           7
100
AcDbCircle
 10
-14131.096819752904
 20
-7495.893590329011
 30
0.0
 40
38.7776
100
AcDbArc
 50
176.946999999999
 51
184.219999999999
  0
ARC
  5
96
100
AcDbEntity
  8
Frei
  6
CONTINUOUS
 62
           7
100
AcDbCircle
 10
-14202.493278345992
 20
-7491.011245133783
 30
0.0
 40
38.7776
100
AcDbArc
 50
347.956389999999
 51
355.228562999999
  0
LINE
  5
97
100
AcDbEntity
  8
Frei
  6
CONTINUOUS
 62
           7
100
AcDbLine
 10
-14163.77069744961
 20
-7493.076233326714
 30
0.0
 11
-14163.806029693902
 21
-7493.656817565458
 31
0.0
  0
LINE
  5
98
100
AcDbEntity
  8
Frei
  6
CONTINUOUS
 62
           7
100
AcDbLine
 10
-14169.739996571399
 20
-7492.668031302967
 30
0.0
 11
-14169.784068404995
 21
-7493.248017897335
 31
0.0
  0
LINE
  5
99
100
AcDbEntity
  8
Frei
  6
CONTINUOUS
 62
           7
100
AcDbLine
 10
-14169.819360742482
 20
-7493.828604865048
 30
0.0
 11
-14169.784068404995
 21
-7493.248017897335
 31
0.0
  0
LINE
  5
9A
100
AcDbEntity
  8
Frei
  6
CONTINUOUS
 62
           7
100
AcDbLine
 10
-14163.850061620693
 20
-7494.236806888797
 30
0.0
 11
-14163.806029693902
 21
-7493.656817565458
 31
0.0
  0
ARC
  5
9B
100
AcDbEntity
  8
Frei
  6
CONTINUOUS
 62
           7
100
AcDbCircle
 10
-14173.355602828762
 20
-7484.757088898678
 30
0.0
 40
10.1345
100
AcDbArc
 50
340.369499999999
 51
356.087999999999
  0
ARC
  5
9C
100
AcDbEntity
  8
Frei
  6
CONTINUOUS
 62
           7
100
AcDbCircle
 10
-14159.111858092669
 20
-7485.731127107922
 30
0.0
 40
10.1232
100
AcDbArc
 50
176.088
 51
191.806999999999
  0
ARC
  5
9D
100
AcDbEntity
  8
Frei
  6
CONTINUOUS
 62
           7
100
AcDbCircle
 10
-14160.234485293433
 20
-7502.147747246358
 30
0.0
 40
10.1345
100
AcDbArc
 50
160.369
 51
176.088
  0
ARC
  5
9E
100
AcDbEntity
  8
Frei
  6
CONTINUOUS
 62
           7
100
AcDbCircle
 10
-14174.478230029526
 20
-7501.173709037113
 30
0.0
 40
10.1232
100
AcDbArc
 50
356.087999999999
 51
11.8065
  0
ARC
  5
9F
100
AcDbEntity
  8
Frei
  6
CONTINUOUS
 62
           7
100
AcDbCircle
 10
-14173.355602828762
 20
-7484.757088898678
 30
0.0
 40
10.1232
100
AcDbArc
 50
356.087999999999
 51
11.8065
  0
ARC
  5
A0
100
AcDbEntity
  8
Frei
  6
CONTINUOUS
 62
           7
100
AcDbCircle
 10
-14159.111858092669
 20
-7485.731127107922
 30
0.0
 40
10.1345
100
AcDbArc
 50
160.369
 51
176.088
  0
ARC
  5
A1
100
AcDbEntity
  8
Frei
  6
CONTINUOUS
 62
           7
100
AcDbCircle
 10
-14160.234485293433
 20
-7502.147747246358
 30
0.0
 40
10.1232
100
AcDbArc
 50
176.088
 51
191.806999999999
  0
ARC
  5
A2
100
AcDbEntity
  8
Frei
  6
CONTINUOUS
 62
           7
100
AcDbCircle
 10
-14174.478230029526
 20
-7501.173709037113
 30
0.0
 40
10.1345
100
AcDbArc
 50
340.369499999999
 51
356.087999999999
  0
LINE
  5
A3
100
AcDbEntity
  8
Frei
  6
CONTINUOUS
 62
           7
100
AcDbLine
 10
-14163.244716093519
 20
-7485.44850749624
 30
0.0
 11
-14163.806029693902
 21
-7493.656817565458
 31
0.0
  0
LINE
  5
A4
100
AcDbEntity
  8
Frei
  6
CONTINUOUS
 62
           7
100
AcDbLine
 10
-14169.222754804612
 20
-7485.039707828117
 30
0.0
 11
-14169.784068404995
 21
-7493.248017897335
 31
0.0
  0
LINE
  5
A5
100
AcDbEntity
  8
Frei
  6
CONTINUOUS
 62
           7
100
AcDbLine
 10
-14170.345382005376
 20
-7501.456327966553
 30
0.0
 11
-14169.784068404995
 21
-7493.248017897335
 31
0.0
  0
LINE
  5
A6
100
AcDbEntity
  8
Frei
  6
CONTINUOUS
 62
           7
100
AcDbLine
 10
-14164.367343294283
 20
-7501.865127634675
 30
0.0
 11
-14163.806029693902
 21
-7493.656817565458
 31
0.0
  0
LINE
  5
A7
100
AcDbEntity
  8
Frei
  6
CONTINUOUS
 62
           7
100
AcDbLine
 10
-13834.721988486346
 20
-7527.745618022043
 30
0.0
 11
-13835.562915244844
 21
-7527.702841933047
 31
0.0
  0
LINE
  5
A8
100
AcDbEntity
  8
Frei
  6
CONTINUOUS
 62
           7
100
AcDbLine
 10
-13833.883210788648
 20
-7527.001230425693
 30
0.0
 11
-13834.373683170585
 21
-7534.173601429331
 31
0.0
  0
LINE
  5
A9
100
AcDbEntity
  8
Frei
  6
CONTINUOUS
 62
           7
100
AcDbLine
 10
-13832.415299874427
 20
-7505.535390421606
 30
0.0
 11
-13832.425324812401
 21
-7505.681989041783
 31
0.0
  0
LINE
  5
AA
100
AcDbEntity
  8
Frei
  6
CONTINUOUS
 62
           7
100
AcDbLine
 10
-13833.983857032312
 20
-7504.611651167343
 30
0.0
 11
-13833.144935407652
 21
-7504.683749118934
 31
0.0
  0
LINE
  5
AB
100
AcDbEntity
  8
Frei
  6
CONTINUOUS
 62
           7
100
AcDbLine
 10
-13832.224861493816
 20
-7506.26834597907
 30
0.0
 11
-13833.59476756356
 21
-7526.301022505195
 31
0.0
  0
LINE
  5
AC
100
AcDbEntity
  8
Frei
  6
CONTINUOUS
 62
           7
100
AcDbLine
 10
-13820.866779438147
 20
-7526.729184638281
 30
0.0
 11
-13833.034408152975
 21
-7526.110244209162
 31
0.0
  0
LINE
  5
AD
100
AcDbEntity
  8
Frei
  6
CONTINUOUS
 62
           7
100
AcDbLine
 10
-13819.557073464466
 20
-7507.576837849998
 30
0.0
 11
-13831.695689279171
 21
-7506.533630344455
 31
0.0
  0
LINE
  5
AE
100
AcDbEntity
  8
Frei
  6
CONTINUOUS
 62
           7
100
AcDbLine
 10
-13833.873185850674
 20
-7526.854631805514
 30
0.0
 11
-13833.883210788648
 21
-7527.001230425693
 31
0.0
  0
LINE
  5
AF
100
AcDbEntity
  8
Frei
  6
CONTINUOUS
 62
           7
100
AcDbLine
 10
-13834.95162758548
 20
-7495.720962788348
 30
0.0
 11
-13834.07203344592
 21
-7495.812046193583
 31
0.0
  0
LINE
  5
B0
100
AcDbEntity
  8
Frei
  6
CONTINUOUS
 62
           7
100
AcDbLine
 10
-13831.92482749249
 20
-7498.363019417968
 30
0.0
 11
-13832.415299874427
 21
-7505.535390421606
 31
0.0
  0
LINE
  5
B1
100
AcDbEntity
  8
Frei
  6
CONTINUOUS
 62
           7
100
AcDbLine
 10
-13836.848166003916
 20
-7536.408527044543
 30
0.0
 11
-13837.731971153526
 21
-7536.379022899408
 31
0.0
  0
LINE
  5
B2
100
AcDbEntity
  8
Frei
  6
CONTINUOUS
 62
           7
100
AcDbLine
 10
-13836.147390420774
 20
-7490.573465883033
 30
0.0
 11
-13840.184116752242
 21
-7490.155456299146
 31
0.0
  0
LINE
  5
B3
100
AcDbEntity
  8
Frei
  6
CONTINUOUS
 62
           7
100
AcDbLine
 10
-13839.617334176079
 20
-7541.315821398603
 30
0.0
 11
-13843.673386119652
 21
-7541.180417859407
 31
0.0
  0
LINE
  5
B4
100
AcDbEntity
  8
Frei
  6
CONTINUOUS
 62
           7
100
AcDbLine
 10
-13837.240470640241
 20
-7529.191617125753
 30
0.0
 11
-13837.731971153526
 21
-7536.379022899408
 31
0.0
  0
LINE
  5
B5
100
AcDbEntity
  8
Frei
  6
CONTINUOUS
 62
           7
100
AcDbLine
 10
-13834.95162758548
 20
-7495.720962788348
 30
0.0
 11
-13835.443128098765
 21
-7502.908368561999
 31
0.0
  0
LINE
  5
B6
100
AcDbEntity
  8
Frei
  6
CONTINUOUS
 62
           7
100
AcDbLine
 10
-13834.715919785151
 20
-7492.274114699292
 30
0.0
 11
-13834.95162758548
 21
-7495.720962788348
 31
0.0
  0
LINE
  5
B7
100
AcDbEntity
  8
Frei
  6
CONTINUOUS
 62
           7
100
AcDbLine
 10
-13837.731971153526
 20
-7536.379022899408
 30
0.0
 11
-13837.967678953855
 21
-7539.825870988463
 31
0.0
  0
ARC
  5
B8
100
AcDbEntity
  8
Frei
  6
CONTINUOUS
 62
           7
100
AcDbCircle
 10
-13820.379079179667
 20
-7517.141580742737
 30
0.0
 40
9.6
100
AcDbArc
 50
267.087999999997
 51
85.088000000002
  0
ARC
  5
B9
100
AcDbEntity
  8
Frei
  6
CONTINUOUS
 62
           7
100
AcDbCircle
 10
-13820.379079179667
 20
-7517.141580742737
 30
0.0
 40
4.799999999999
100
AcDbArc
 50
176.087999999989
 51
356.08800000001
  0
ARC
  5
BA
100
AcDbEntity
  8
Frei
  6
CONTINUOUS
 62
           7
100
AcDbCircle
 10
-13820.379079179662
 20
-7517.141580742733
 30
0.0
 40
4.799999999996
100
AcDbArc
 50
356.087999999956
 51
66.291117282785
  0
ARC
  5
BB
100
AcDbEntity
  8
Frei
  6
CONTINUOUS
 62
           7
100
AcDbCircle
 10
-13820.379079179667
 20
-7517.141580742737
 30
0.0
 40
4.8
100
AcDbArc
 50
66.291117282759
 51
176.088
  0
ARC
  5
BC
100
AcDbEntity
  8
Frei
  6
CONTINUOUS
 62
           7
100
AcDbCircle
 10
-13833.075049841183
 20
-7526.909211200449
 30
0.0
 40
0.799999999992
100
AcDbArc
 50
87.087999999855
 51
130.515004001098
  0
ARC
  5
BD
100
AcDbEntity
  8
Frei
  6
CONTINUOUS
 62
           7
100
AcDbCircle
 10
-13833.075049841194
 20
-7526.909211200449
 30
0.0
 40
0.799999999986
100
AcDbArc
 50
130.515004000449
 51
176.088000000456
  0
ARC
  5
BE
100
AcDbEntity
  8
Frei
  6
CONTINUOUS
 62
           7
100
AcDbCircle
 10
-13834.681346798139
 20
-7526.946651030748
 30
0.0
 40
0.8
100
AcDbArc
 50
267.087999999976
 51
356.087999999999
  0
ARC
  5
BF
100
AcDbEntity
  8
Frei
  6
CONTINUOUS
 62
           7
100
AcDbCircle
 10
-13835.644198621258
 20
-7529.300775915639
 30
0.0
 40
1.599999999999
100
AcDbArc
 50
87.087999999911
 51
176.088
  0
ARC
  5
C0
100
AcDbEntity
  8
Frei
  6
CONTINUOUS
 62
           7
100
AcDbCircle
 10
-13831.627188802917
 20
-7505.736568436731
 30
0.0
 40
0.79999999999
100
AcDbArc
 50
176.087999999609
 51
221.660995999455
  0
ARC
  5
C1
100
AcDbEntity
  8
Frei
  6
CONTINUOUS
 62
           7
100
AcDbCircle
 10
-13831.62718880291
 20
-7505.736568436736
 30
0.0
 40
0.799999999992
100
AcDbArc
 50
221.660995998901
 51
265.088000000144
  0
ARC
  5
C2
100
AcDbEntity
  8
Frei
  6
CONTINUOUS
 62
           7
100
AcDbCircle
 10
-13833.846856079781
 20
-7503.017527351885
 30
0.0
 40
1.600000000001
100
AcDbArc
 50
176.088000000032
 51
265.088000000024
  0
ARC
  5
C3
100
AcDbEntity
  8
Frei
  6
CONTINUOUS
 62
           7
100
AcDbCircle
 10
-13833.213435883919
 20
-7505.480811026664
 30
0.0
 40
0.800000000001
100
AcDbArc
 50
356.088000000064
 51
85.087999999895
  0
ARC
  5
C4
100
AcDbEntity
  8
Frei
  6
CONTINUOUS
 62
           7
100
AcDbCircle
 10
-13839.563950972839
 20
-7539.716712198579
 30
0.0
 40
1.599999999998
100
AcDbArc
 50
268.087999999915
 51
356.088000000064
  0
ARC
  5
C5
100
AcDbEntity
  8
Frei
  6
CONTINUOUS
 62
           7
100
AcDbCircle
 10
-13836.768091199059
 20
-7534.009863244502
 30
0.0
 40
2.400000000001
100
AcDbArc
 50
268.087999999977
 51
356.087999999999
  0
ARC
  5
C6
100
AcDbEntity
  8
Frei
  6
CONTINUOUS
 62
           7
100
AcDbCircle
 10
-13834.319235520965
 20
-7498.199281233139
 30
0.0
 40
2.399999999999
100
AcDbArc
 50
356.087999999999
 51
84.087999999979
  0
ARC
  5
C7
100
AcDbEntity
  8
Frei
  6
CONTINUOUS
 62
           7
100
AcDbCircle
 10
-13836.312191804134
 20
-7492.164955909404
 30
0.0
 40
1.599999999998
100
AcDbArc
 50
356.087999999934
 51
84.088000000085
  0
LINE
  5
C8
100
AcDbEntity
  8
Frei
  6
CONTINUOUS
 62
           7
100
AcDbLine
 10
-14170.193413867066
 20
-7499.234037968523
 30
0.0
 11
-14170.152479320859
 21
-7498.635435961403
 31
0.0
  0
LINE
  5
C9
100
AcDbEntity
  8
Frei
  6
CONTINUOUS
 62
           7
100
AcDbLine
 10
-14170.152479320859
 20
-7498.635435961403
 30
0.0
 11
-14169.415657489129
 21
-7487.860599833264
 31
0.0
  0
LINE
  5
CA
100
AcDbEntity
  8
Frei
  6
CONTINUOUS
 62
           7
100
AcDbLine
 10
-14169.415657489129
 20
-7487.860599833264
 30
0.0
 11
-14169.374722942923
 21
-7487.261997826145
 31
0.0
  0
LINE
  5
CB
100
AcDbEntity
  8
Frei
  6
CONTINUOUS
 62
           7
100
AcDbLine
 10
-14169.374722942923
 20
-7487.261997826145
 30
0.0
 11
-14169.149582938782
 21
-7483.969686786992
 31
0.0
  0
LINE
  5
CC
100
AcDbEntity
  8
Frei
  6
CONTINUOUS
 62
           7
100
AcDbLine
 10
-14194.546839613897
 20
-7503.582676191423
 30
0.0
 11
-14193.245706361166
 21
-7503.67165233688
 31
0.0
  0
LINE
  5
CD
100
AcDbEntity
  8
Frei
  6
CONTINUOUS
 62
           7
100
AcDbLine
 10
-14191.608324512878
 20
-7479.727572052123
 30
0.0
 11
-14192.909457765609
 21
-7479.638595906667
 31
0.0
  0
LINE
  5
CE
100
AcDbEntity
  8
Frei
  6
CONTINUOUS
 62
           7
100
AcDbLine
 10
-14193.245706361166
 20
-7503.67165233688
 30
0.0
 11
-14189.458722553385
 21
-7503.930619834186
 31
0.0
  0
LINE
  5
CF
100
AcDbEntity
  8
Frei
  6
CONTINUOUS
 62
           7
100
AcDbLine
 10
-14187.821340705097
 20
-7479.986539549429
 30
0.0
 11
-14191.608324512878
 21
-7479.727572052123
 31
0.0
  0
LINE
  5
D0
100
AcDbEntity
  8
Frei
  6
CONTINUOUS
 62
           7
100
AcDbLine
 10
-14228.362557928862
 20
-7477.214186115916
 30
0.0
 11
-14192.909457765609
 21
-7479.638595906667
 31
0.0
  0
LINE
  5
D1
100
AcDbEntity
  8
Frei
  6
CONTINUOUS
 62
           7
100
AcDbLine
 10
-14229.99993977715
 20
-7501.158266400673
 30
0.0
 11
-14194.546839613897
 21
-7503.582676191423
 31
0.0
  0
LINE
  5
D2
100
AcDbEntity
  8
Frei
  6
CONTINUOUS
 62
           7
100
AcDbLine
 10
-14187.046241333041
 20
-7481.843747390096
 30
0.0
 11
-14188.438015904085
 21
-7502.196215632139
 31
0.0
  0
LINE
  5
D3
100
AcDbEntity
  8
Frei
  6
CONTINUOUS
 62
           7
100
AcDbLine
 10
-14169.986084130151
 20
-7483.010381957003
 30
0.0
 11
-14172.7001252263
 21
-7482.824786119805
 31
0.0
  0
LINE
  5
D4
100
AcDbEntity
  8
Frei
  6
CONTINUOUS
 62
           7
100
AcDbLine
 10
-14170.418553871206
 20
-7502.526349007678
 30
0.0
 11
-14170.193413867066
 21
-7499.234037968523
 31
0.0
  0
LINE
  5
D5
100
AcDbEntity
  8
Frei
  6
CONTINUOUS
 62
           7
100
AcDbLine
 10
-14187.540112893405
 20
-7502.257617451451
 30
0.0
 11
-14185.703862444294
 21
-7502.383186824696
 31
0.0
  0
LINE
  5
D6
100
AcDbEntity
  8
Frei
  6
CONTINUOUS
 62
           7
100
AcDbLine
 10
-14184.230218780835
 20
-7480.833514568416
 30
0.0
 11
-14184.31208787325
 21
-7482.030718582653
 31
0.0
  0
LINE
  5
D7
100
AcDbEntity
  8
Frei
  6
CONTINUOUS
 62
           7
100
AcDbLine
 10
-14184.31208787325
 20
-7482.030718582653
 30
0.0
 11
-14186.14833832236
 21
-7481.905149209408
 31
0.0
  0
LINE
  5
D8
100
AcDbEntity
  8
Frei
  6
CONTINUOUS
 62
           7
100
AcDbLine
 10
-14184.31208787325
 20
-7482.030718582653
 30
0.0
 11
-14185.703862444294
 21
-7502.383186824696
 31
0.0
  0
LINE
  5
D9
100
AcDbEntity
  8
Frei
  6
CONTINUOUS
 62
           7
100
AcDbLine
 10
-14185.703862444294
 20
-7502.383186824696
 30
0.0
 11
-14185.785731536709
 21
-7503.580390838934
 31
0.0
  0
LINE
  5
DA
100
AcDbEntity
  8
Frei
  6
CONTINUOUS
 62
           7
100
AcDbLine
 10
-14174.173768889759
 20
-7504.374458376087
 30
0.0
 11
-14174.091899797344
 21
-7503.177254361848
 31
0.0
  0
LINE
  5
DB
100
AcDbEntity
  8
Frei
  6
CONTINUOUS
 62
           7
100
AcDbLine
 10
-14174.091899797344
 20
-7503.177254361848
 30
0.0
 11
-14171.377858701195
 21
-7503.362850199046
 31
0.0
  0
LINE
  5
DC
100
AcDbEntity
  8
Frei
  6
CONTINUOUS
 62
           7
100
AcDbLine
 10
-14174.091899797344
 20
-7503.177254361848
 30
0.0
 11
-14172.7001252263
 21
-7482.824786119805
 31
0.0
  0
LINE
  5
DD
100
AcDbEntity
  8
Frei
  6
CONTINUOUS
 62
           7
100
AcDbLine
 10
-14172.7001252263
 20
-7482.824786119805
 30
0.0
 11
-14172.618256133885
 21
-7481.627582105568
 31
0.0
  0
LINE
  5
DE
100
AcDbEntity
  8
Frei
  6
CONTINUOUS
 62
           7
100
AcDbLine
 10
-14184.230218780835
 20
-7480.833514568416
 30
0.0
 11
-14172.618256133885
 21
-7481.627582105568
 31
0.0
  0
LINE
  5
DF
100
AcDbEntity
  8
Frei
  6
CONTINUOUS
 62
           7
100
AcDbLine
 10
-14185.785731536709
 20
-7503.580390838934
 30
0.0
 11
-14174.173768889759
 21
-7504.374458376087
 31
0.0
  0
ARC
  5
E0
100
AcDbEntity
  8
Frei
  6
CONTINUOUS
 62
           7
100
AcDbCircle
 10
-14209.457521158394
 20
-7490.535005301954
 30
0.0
 40
20.866107311614
100
AcDbArc
 50
320.981694434247
 51
31.194305565753
  0
ARC
  5
E1
100
AcDbEntity
  8
Frei
  6
CONTINUOUS
 62
           7
100
AcDbCircle
 10
-14199.590102855156
 20
-7491.209774657345
 30
0.0
 40
29.660254037844
100
AcDbArc
 50
152.22307458395
 51
199.95292541605
  0
ARC
  5
E2
100
AcDbEntity
  8
Frei
  6
CONTINUOUS
 62
           7
100
AcDbCircle
 10
-14210.173082205893
 20
-7490.48607267825
 30
0.0
 40
22.516660498395
100
AcDbArc
 50
143.883772496028
 51
208.292227503973
  0
CIRCLE
  5
E3
100
AcDbEntity
  8
Frei
  6
CONTINUOUS
 62
           7
100
AcDbCircle
 10
-14217.67222897451
 20
-7489.973254200757
 30
0.0
 40
5.1
  0
ARC
  5
E4
100
AcDbEntity
  8
Frei
  6
CONTINUOUS
 62
           7
100
AcDbCircle
 10
-14187.882742524407
 20
-7480.884442560106
 30
0.0
 40
0.9
100
AcDbArc
 50
356.087999999999
 51
86.088
  0
ARC
  5
E5
100
AcDbEntity
  8
Frei
  6
CONTINUOUS
 62
           7
100
AcDbCircle
 10
-14186.086936503048
 20
-7481.007246198727
 30
0.0
 40
0.9
100
AcDbArc
 50
176.088
 51
266.087999999999
  0
ARC
  5
E6
100
AcDbEntity
  8
Frei
  6
CONTINUOUS
 62
           7
100
AcDbCircle
 10
-14170.047485949461
 20
-7483.908284967682
 30
0.0
 40
0.9
100
AcDbArc
 50
356.087999999999
 51
86.088
  0
ARC
  5
E7
100
AcDbEntity
  8
Frei
  6
CONTINUOUS
 62
           7
100
AcDbCircle
 10
-14171.316456881885
 20
-7502.464947188368
 30
0.0
 40
0.9
100
AcDbArc
 50
266.087999999999
 51
356.087999999999
  0
ARC
  5
E8
100
AcDbEntity
  8
Frei
  6
CONTINUOUS
 62
           7
100
AcDbCircle
 10
-14187.601514712716
 20
-7503.155520462129
 30
0.0
 40
0.9
100
AcDbArc
 50
86.088
 51
176.088
  0
ARC
  5
E9
100
AcDbEntity
  8
Frei
  6
CONTINUOUS
 62
           7
100
AcDbCircle
 10
-14189.397320734075
 20
-7503.032716823507
 30
0.0
 40
0.9
100
AcDbArc
 50
266.087999999999
 51
356.087999999999
  0
LINE
  5
EA
100
AcDbEntity
  8
Frei
  6
CONTINUOUS
 62
           7
100
AcDbLine
 10
-13911.899460751936
 20
-7530.628917366605
 30
0.0
 11
-13908.40761571041
 21
-7530.867702219481
 31
0.0
  0
LINE
  5
EB
100
AcDbEntity
  8
Frei
  6
CONTINUOUS
 62
           7
100
AcDbLine
 10
-13911.763012264579
 20
-7528.633577342875
 30
0.0
 11
-13911.899460751936
 21
-7530.628917366605
 31
0.0
  0
LINE
  5
EC
100
AcDbEntity
  8
Frei
  6
CONTINUOUS
 62
           7
100
AcDbLine
 10
-13906.761815383597
 20
-7521.458061350442
 30
0.0
 11
-13907.341721454866
 21
-7529.938256451294
 31
0.0
  0
LINE
  5
ED
100
AcDbEntity
  8
Frei
  6
CONTINUOUS
 62
           7
100
AcDbLine
 10
-13911.25133043699
 20
-7521.151052253888
 30
0.0
 11
-13906.761815383597
 21
-7521.458061350442
 31
0.0
  0
LINE
  5
EE
100
AcDbEntity
  8
Frei
  6
CONTINUOUS
 62
           7
100
AcDbLine
 10
-13911.285442558828
 20
-7521.64988725982
 30
0.0
 11
-13911.25133043699
 21
-7521.151052253888
 31
0.0
  0
LINE
  5
EF
100
AcDbEntity
  8
Frei
  6
CONTINUOUS
 62
           7
100
AcDbLine
 10
-13907.77586536267
 20
-7522.336010690104
 30
0.0
 11
-13911.285442558828
 21
-7521.64988725982
 31
0.0
  0
LINE
  5
F0
100
AcDbEntity
  8
Frei
  6
CONTINUOUS
 62
           7
100
AcDbLine
 10
-13907.513424556171
 20
-7524.914837630822
 30
0.0
 11
-13907.372964385251
 21
-7522.860833176794
 31
0.0
  0
LINE
  5
F1
100
AcDbEntity
  8
Frei
  6
CONTINUOUS
 62
           7
100
AcDbLine
 10
-13911.763012264579
 20
-7528.633577342875
 30
0.0
 11
-13911.285442558828
 21
-7521.64988725982
 31
0.0
  0
LINE
  5
F2
100
AcDbEntity
  8
Frei
  6
CONTINUOUS
 62
           7
100
AcDbLine
 10
-13908.192703685889
 20
-7528.431601823804
 30
0.0
 11
-13911.763012264579
 21
-7528.633577342875
 31
0.0
  0
LINE
  5
F3
100
AcDbEntity
  8
Frei
  6
CONTINUOUS
 62
           7
100
AcDbLine
 10
-13907.581648799851
 20
-7525.912507642686
 30
0.0
 11
-13907.722108970771
 21
-7527.966512096713
 31
0.0
  0
LINE
  5
F4
100
AcDbEntity
  8
Frei
  6
CONTINUOUS
 62
           2
100
AcDbLine
 10
-13909.130157794269
 20
-7525.305447344419
 30
0.0
 11
-13906.359773505954
 21
-7525.494896130613
 31
0.0
  0
LINE
  5
F5
100
AcDbEntity
  8
Frei
  6
CONTINUOUS
 62
           7
100
AcDbLine
 10
-13909.096045672428
 20
-7524.806612338489
 30
0.0
 11
-13907.513424556171
 21
-7524.914837630822
 31
0.0
  0
LINE
  5
F6
100
AcDbEntity
  8
Frei
  6
CONTINUOUS
 62
           7
100
AcDbLine
 10
-13909.130157794269
 20
-7525.305447344419
 30
0.0
 11
-13909.096045672428
 21
-7524.806612338489
 31
0.0
  0
LINE
  5
F7
100
AcDbEntity
  8
Frei
  6
CONTINUOUS
 62
           7
100
AcDbLine
 10
-13909.164269916108
 20
-7525.804282350353
 30
0.0
 11
-13909.130157794269
 21
-7525.305447344419
 31
0.0
  0
LINE
  5
F8
100
AcDbEntity
  8
Frei
  6
CONTINUOUS
 62
           7
100
AcDbLine
 10
-13907.581648799851
 20
-7525.912507642686
 30
0.0
 11
-13909.164269916108
 21
-7525.804282350353
 31
0.0
  0
LINE
  5
F9
100
AcDbEntity
  8
Frei
  6
CONTINUOUS
 62
           7
100
AcDbLine
 10
-14051.074427407089
 20
-7521.111635373425
 30
0.0
 11
-14048.823027365692
 21
-7488.188524981884
 31
0.0
  0
LINE
  5
FA
100
AcDbEntity
  8
Frei
  6
CONTINUOUS
 62
           7
100
AcDbLine
 10
-14065.041807573198
 20
-7520.156495961923
 30
0.0
 11
-14051.074427407089
 21
-7521.111635373425
 31
0.0
  0
LINE
  5
FB
100
AcDbEntity
  8
Frei
  6
CONTINUOUS
 62
           7
100
AcDbLine
 10
-14058.79972748434
 20
-7487.506282545097
 30
0.0
 11
-14049.321862371624
 21
-7488.154412860045
 31
0.0
  0
LINE
  5
FC
100
AcDbEntity
  8
Frei
  6
CONTINUOUS
 62
           7
100
AcDbLine
 10
-14058.936175971698
 20
-7489.501622568827
 30
0.0
 11
-14058.79972748434
 21
-7487.506282545097
 31
0.0
  0
LINE
  5
FD
100
AcDbEntity
  8
Frei
  6
CONTINUOUS
 62
           7
100
AcDbLine
 10
-14059.41374567745
 20
-7496.485312651881
 30
0.0
 11
-14059.447857799289
 21
-7496.984147657813
 31
0.0
  0
LINE
  5
FE
100
AcDbEntity
  8
Frei
  6
CONTINUOUS
 62
           7
100
AcDbLine
 10
-14064.436207858613
 20
-7496.64302643942
 30
0.0
 11
-14063.856301787344
 21
-7488.162831338568
 31
0.0
  0
LINE
  5
FF
100
AcDbEntity
  8
Frei
  6
CONTINUOUS
 62
           7
100
AcDbLine
 10
-14059.447857799289
 20
-7496.984147657813
 30
0.0
 11
-14064.436207858613
 21
-7496.64302643942
 31
0.0
  0
LINE
  5
100
100
AcDbEntity
  8
Frei
  6
CONTINUOUS
 62
           7
100
AcDbLine
 10
-14062.7904075318
 20
-7487.233385570382
 30
0.0
 11
-14058.79972748434
 21
-7487.506282545097
 31
0.0
  0
LINE
  5
101
100
AcDbEntity
  8
Frei
  6
CONTINUOUS
 62
           7
100
AcDbLine
 10
-14062.923322873607
 20
-7495.799189221598
 30
0.0
 11
-14059.41374567745
 21
-7496.485312651881
 31
0.0
  0
LINE
  5
102
100
AcDbEntity
  8
Frei
  6
CONTINUOUS
 62
           7
100
AcDbLine
 10
-14063.185763680105
 20
-7493.220362280879
 30
0.0
 11
-14063.326223851025
 21
-7495.274366734908
 31
0.0
  0
LINE
  5
103
100
AcDbEntity
  8
Frei
  6
CONTINUOUS
 62
           7
100
AcDbLine
 10
-14058.936175971698
 20
-7489.501622568827
 30
0.0
 11
-14059.41374567745
 21
-7496.485312651881
 31
0.0
  0
LINE
  5
104
100
AcDbEntity
  8
Frei
  6
CONTINUOUS
 62
           7
100
AcDbLine
 10
-14062.506484550388
 20
-7489.703598087897
 30
0.0
 11
-14058.936175971698
 21
-7489.501622568827
 31
0.0
  0
LINE
  5
105
100
AcDbEntity
  8
Frei
  6
CONTINUOUS
 62
           7
100
AcDbLine
 10
-14063.117539436427
 20
-7492.222692269015
 30
0.0
 11
-14062.977079265505
 21
-7490.168687814989
 31
0.0
  0
LINE
  5
106
100
AcDbEntity
  8
Frei
  6
CONTINUOUS
 62
           2
100
AcDbLine
 10
-14061.56903044201
 20
-7492.829752567281
 30
0.0
 11
-14064.339414730324
 21
-7492.640303781087
 31
0.0
  0
LINE
  5
107
100
AcDbEntity
  8
Frei
  6
CONTINUOUS
 62
           7
100
AcDbLine
 10
-14061.603142563848
 20
-7493.328587573213
 30
0.0
 11
-14063.185763680105
 21
-7493.220362280879
 31
0.0
  0
LINE
  5
108
100
AcDbEntity
  8
Frei
  6
CONTINUOUS
 62
           7
100
AcDbLine
 10
-14061.56903044201
 20
-7492.829752567281
 30
0.0
 11
-14061.603142563848
 21
-7493.328587573213
 31
0.0
  0
LINE
  5
109
100
AcDbEntity
  8
Frei
  6
CONTINUOUS
 62
           7
100
AcDbLine
 10
-14061.534918320171
 20
-7492.330917561349
 30
0.0
 11
-14061.56903044201
 21
-7492.829752567281
 31
0.0
  0
LINE
  5
10A
100
AcDbEntity
  8
Frei
  6
CONTINUOUS
 62
           7
100
AcDbLine
 10
-14063.117539436427
 20
-7492.222692269015
 30
0.0
 11
-14061.534918320171
 21
-7492.330917561349
 31
0.0
  0
LINE
  5
10B
100
AcDbEntity
  8
Frei
  6
CONTINUOUS
 62
           7
100
AcDbLine
 10
-14025.360147102743
 20
-7526.177776748225
 30
0.0
 11
-14025.394259224582
 21
-7526.676611754157
 31
0.0
  0
LINE
  5
10C
100
AcDbEntity
  8
Frei
  6
CONTINUOUS
 62
           7
100
AcDbLine
 10
-14025.394259224582
 20
-7526.676611754157
 30
0.0
 11
-13948.573668310984
 21
-7531.92987851742
 31
0.0
  0
LINE
  5
10D
100
AcDbEntity
  8
Frei
  6
CONTINUOUS
 62
           7
100
AcDbLine
 10
-13948.573668310984
 20
-7531.92987851742
 30
0.0
 11
-13945.367128858084
 21
-7485.039387959771
 31
0.0
  0
LINE
  5
10E
100
AcDbEntity
  8
Frei
  6
CONTINUOUS
 62
           7
100
AcDbLine
 10
-13945.367128858084
 20
-7485.039387959771
 30
0.0
 11
-14022.187719771682
 21
-7479.78612119651
 31
0.0
  0
LINE
  5
10F
100
AcDbEntity
  8
Frei
  6
CONTINUOUS
 62
           7
100
AcDbLine
 10
-14049.321862371624
 20
-7488.154412860045
 30
0.0
 11
-14048.823027365692
 21
-7488.188524981884
 31
0.0
  0
LINE
  5
110
100
AcDbEntity
  8
Frei
  6
CONTINUOUS
 62
           7
100
AcDbLine
 10
-14023.185389783546
 20
-7479.71789695283
 30
0.0
 11
-14048.625975086101
 21
-7477.978178739024
 31
0.0
  0
LINE
  5
111
100
AcDbEntity
  8
Frei
  6
CONTINUOUS
 62
           7
100
AcDbLine
 10
-14051.333679533069
 20
-7524.902781418512
 30
0.0
 11
-14051.074427407089
 21
-7521.111635373425
 31
0.0
  0
LINE
  5
112
100
AcDbEntity
  8
Frei
  6
CONTINUOUS
 62
           7
100
AcDbLine
 10
-14049.321862371624
 20
-7488.154412860045
 30
0.0
 11
-14048.625975086101
 21
-7477.978178739024
 31
0.0
  0
LINE
  5
113
100
AcDbEntity
  8
Frei
  6
CONTINUOUS
 62
           7
100
AcDbLine
 10
-14025.360147102743
 20
-7526.177776748225
 30
0.0
 11
-14026.357817114607
 21
-7526.109552504546
 31
0.0
  0
LINE
  5
114
100
AcDbEntity
  8
Frei
  6
CONTINUOUS
 62
           7
100
AcDbLine
 10
-14022.221831893523
 20
-7480.28495620244
 30
0.0
 11
-14025.360147102743
 21
-7526.177776748225
 31
0.0
  0
LINE
  5
115
100
AcDbEntity
  8
Frei
  6
CONTINUOUS
 62
           7
100
AcDbLine
 10
-14022.221831893523
 20
-7480.28495620244
 30
0.0
 11
-14023.219501905387
 21
-7480.216731958763
 31
0.0
  0
LINE
  5
116
100
AcDbEntity
  8
Frei
  6
CONTINUOUS
 62
           7
100
AcDbLine
 10
-14022.187719771682
 20
-7479.78612119651
 30
0.0
 11
-14022.221831893523
 21
-7480.28495620244
 31
0.0
  0
LINE
  5
117
100
AcDbEntity
  8
Frei
  6
CONTINUOUS
 62
           7
100
AcDbLine
 10
-14026.357817114607
 20
-7526.109552504546
 30
0.0
 11
-14023.185389783546
 21
-7479.71789695283
 31
0.0
  0
LINE
  5
118
100
AcDbEntity
  8
Frei
  6
CONTINUOUS
 62
           7
100
AcDbLine
 10
-14026.391929236446
 20
-7526.60838751048
 30
0.0
 11
-14026.357817114607
 21
-7526.109552504546
 31
0.0
  0
LINE
  5
119
100
AcDbEntity
  8
Frei
  6
CONTINUOUS
 62
           7
100
AcDbLine
 10
-14051.333679533069
 20
-7524.902781418512
 30
0.0
 11
-14026.391929236446
 21
-7526.60838751048
 31
0.0
  0
LINE
  5
11A
100
AcDbEntity
  8
Frei
  6
CONTINUOUS
 62
           7
100
AcDbLine
 10
-13947.575998299119
 20
-7531.998102761098
 30
0.0
 11
-13922.634248002498
 21
-7533.703708853065
 31
0.0
  0
LINE
  5
11B
100
AcDbEntity
  8
Frei
  6
CONTINUOUS
 62
           7
100
AcDbLine
 10
-13947.54188617728
 20
-7531.499267755165
 30
0.0
 11
-13947.575998299119
 21
-7531.998102761098
 31
0.0
  0
LINE
  5
11C
100
AcDbEntity
  8
Frei
  6
CONTINUOUS
 62
           7
100
AcDbLine
 10
-13944.369458846219
 20
-7485.10761220345
 30
0.0
 11
-13947.54188617728
 21
-7531.499267755165
 31
0.0
  0
LINE
  5
11D
100
AcDbEntity
  8
Frei
  6
CONTINUOUS
 62
           7
100
AcDbLine
 10
-13944.403570968059
 20
-7485.60644720938
 30
0.0
 11
-13945.401240979925
 21
-7485.538222965703
 31
0.0
  0
LINE
  5
11E
100
AcDbEntity
  8
Frei
  6
CONTINUOUS
 62
           7
100
AcDbLine
 10
-13947.54188617728
 20
-7531.499267755165
 30
0.0
 11
-13948.539556189146
 21
-7531.431043511486
 31
0.0
  0
LINE
  5
11F
100
AcDbEntity
  8
Frei
  6
CONTINUOUS
 62
           7
100
AcDbLine
 10
-13918.928873543664
 20
-7486.847330417257
 30
0.0
 11
-13919.624760829187
 21
-7497.023564538276
 31
0.0
  0
LINE
  5
120
100
AcDbEntity
  8
Frei
  6
CONTINUOUS
 62
           7
100
AcDbLine
 10
-13918.928873543664
 20
-7486.847330417257
 30
0.0
 11
-13944.369458846219
 21
-7485.10761220345
 31
0.0
  0
LINE
  5
121
100
AcDbEntity
  8
Frei
  6
CONTINUOUS
 62
           7
100
AcDbLine
 10
-13920.123595835121
 20
-7496.989452416437
 30
0.0
 11
-13919.624760829187
 21
-7497.023564538276
 31
0.0
  0
LINE
  5
122
100
AcDbEntity
  8
Frei
  6
CONTINUOUS
 62
           7
100
AcDbLine
 10
-13920.123595835121
 20
-7496.989452416437
 30
0.0
 11
-13922.634248002498
 21
-7533.703708853065
 31
0.0
  0
LINE
  5
123
100
AcDbEntity
  8
Frei
  6
CONTINUOUS
 62
           7
100
AcDbLine
 10
-14095.65814050132
 20
-7491.500952727945
 30
0.0
 11
-14097.653480525049
 21
-7491.364504240588
 31
0.0
  0
LINE
  5
124
100
AcDbEntity
  8
Frei
  6
CONTINUOUS
 62
           7
100
AcDbLine
 10
-14095.956731119351
 20
-7510.524907197058
 30
0.0
 11
-14094.728694733134
 21
-7492.566846983489
 31
0.0
  0
LINE
  5
125
100
AcDbEntity
  8
Frei
  6
CONTINUOUS
 62
           7
100
AcDbLine
 10
-14099.017965398623
 20
-7511.317904477884
 30
0.0
 11
-14097.022625374895
 21
-7511.454352965242
 31
0.0
  0
LINE
  5
126
100
AcDbEntity
  8
Frei
  6
CONTINUOUS
 62
           7
100
AcDbLine
 10
-14099.606289948417
 20
-7505.263660163017
 30
0.0
 11
-14099.947411166811
 21
-7510.252010222343
 31
0.0
  0
LINE
  5
127
100
AcDbEntity
  8
Frei
  6
CONTINUOUS
 62
           7
100
AcDbLine
 10
-14097.653480525049
 20
-7491.364504240588
 30
0.0
 11
-14098.719374780594
 21
-7492.293950008774
 31
0.0
  0
LINE
  5
128
100
AcDbEntity
  8
Frei
  6
CONTINUOUS
 62
           7
100
AcDbLine
 10
-14095.65814050132
 20
-7491.500952727945
 30
0.0
 11
-14094.728694733134
 21
-7492.566846983489
 31
0.0
  0
LINE
  5
129
100
AcDbEntity
  8
Frei
  6
CONTINUOUS
 62
           7
100
AcDbLine
 10
-14095.956731119351
 20
-7510.524907197058
 30
0.0
 11
-14097.022625374895
 21
-7511.454352965242
 31
0.0
  0
LINE
  5
12A
100
AcDbEntity
  8
Frei
  6
CONTINUOUS
 62
           7
100
AcDbLine
 10
-14099.017965398623
 20
-7511.317904477884
 30
0.0
 11
-14099.947411166811
 21
-7510.252010222343
 31
0.0
  0
LINE
  5
12B
100
AcDbEntity
  8
Frei
  6
CONTINUOUS
 62
           7
100
AcDbLine
 10
-14099.017965398623
 20
-7511.317904477884
 30
0.0
 11
-14097.653480525049
 21
-7491.364504240588
 31
0.0
  0
LINE
  5
12C
100
AcDbEntity
  8
Frei
  6
CONTINUOUS
 62
           7
100
AcDbLine
 10
-14097.022625374895
 20
-7511.454352965242
 30
0.0
 11
-14095.65814050132
 21
-7491.500952727945
 31
0.0
  0
LINE
  5
12D
100
AcDbEntity
  8
Frei
  6
CONTINUOUS
 62
           7
100
AcDbLine
 10
-14096.468412946941
 20
-7518.007432286044
 30
0.0
 11
-14095.956731119351
 21
-7510.524907197058
 31
0.0
  0
LINE
  5
12E
100
AcDbEntity
  8
Frei
  6
CONTINUOUS
 62
           7
100
AcDbLine
 10
-14066.887852287913
 20
-7510.50807024001
 30
0.0
 11
-14067.53598260286
 21
-7519.985935352726
 31
0.0
  0
LINE
  5
12F
100
AcDbEntity
  8
Frei
  6
CONTINUOUS
 62
           7
100
AcDbLine
 10
-14100.126390254531
 20
-7498.211745836285
 30
0.0
 11
-14099.060495998987
 21
-7497.282300068098
 31
0.0
  0
LINE
  5
130
100
AcDbEntity
  8
Frei
  6
CONTINUOUS
 62
           7
100
AcDbLine
 10
-14098.719374780594
 20
-7492.293950008774
 30
0.0
 11
-14099.060495998987
 21
-7497.282300068098
 31
0.0
  0
LINE
  5
131
100
AcDbEntity
  8
Frei
  6
CONTINUOUS
 62
           7
100
AcDbLine
 10
-14100.16050237637
 20
-7498.710580842217
 30
0.0
 11
-14100.126390254531
 21
-7498.211745836285
 31
0.0
  0
LINE
  5
132
100
AcDbEntity
  8
Frei
  6
CONTINUOUS
 62
           7
100
AcDbLine
 10
-14099.606289948417
 20
-7505.263660163017
 30
0.0
 11
-14100.535735716603
 21
-7504.197765907473
 31
0.0
  0
LINE
  5
133
100
AcDbEntity
  8
Frei
  6
CONTINUOUS
 62
           7
100
AcDbLine
 10
-14099.538065704739
 20
-7504.265990151152
 30
0.0
 11
-14099.606289948417
 21
-7505.263660163017
 31
0.0
  0
LINE
  5
134
100
AcDbEntity
  8
Frei
  6
CONTINUOUS
 62
           2
100
AcDbLine
 10
-14099.128720242667
 20
-7498.279970079962
 30
0.0
 11
-14100.126390254531
 21
-7498.211745836285
 31
0.0
  0
LINE
  5
135
100
AcDbEntity
  8
Frei
  6
CONTINUOUS
 62
           7
100
AcDbLine
 10
-14099.060495998987
 20
-7497.282300068098
 30
0.0
 11
-14099.128720242667
 21
-7498.279970079962
 31
0.0
  0
LINE
  5
136
100
AcDbEntity
  8
Frei
  6
CONTINUOUS
 62
           2
100
AcDbLine
 10
-14099.538065704739
 20
-7504.265990151152
 30
0.0
 11
-14100.535735716603
 21
-7504.197765907473
 31
0.0
  0
LINE
  5
137
100
AcDbEntity
  8
Frei
  6
CONTINUOUS
 62
           7
100
AcDbLine
 10
-14099.128720242667
 20
-7498.279970079962
 30
0.0
 11
-14099.538065704739
 21
-7504.265990151152
 31
0.0
  0
LINE
  5
138
100
AcDbEntity
  8
Frei
  6
CONTINUOUS
 62
           1
100
AcDbLine
 10
-14097.677949261628
 20
-7498.880346703305
 30
0.0
 11
-14100.16050237637
 21
-7498.710580842217
 31
0.0
  0
LINE
  5
139
100
AcDbEntity
  8
Frei
  6
CONTINUOUS
 62
           7
100
AcDbLine
 10
-14100.194614498208
 20
-7499.209415848149
 30
0.0
 11
-14100.16050237637
 21
-7498.710580842217
 31
0.0
  0
LINE
  5
13A
100
AcDbEntity
  8
Frei
  6
CONTINUOUS
 62
           1
100
AcDbLine
 10
-14098.019070480021
 20
-7503.868696762629
 30
0.0
 11
-14100.501623594762
 21
-7503.698930901541
 31
0.0
  0
LINE
  5
13B
100
AcDbEntity
  8
Frei
  6
CONTINUOUS
 62
           7
100
AcDbLine
 10
-14100.535735716603
 20
-7504.197765907473
 30
0.0
 11
-14100.501623594762
 21
-7503.698930901541
 31
0.0
  0
LINE
  5
13C
100
AcDbEntity
  8
Frei
  6
CONTINUOUS
 62
           1
100
AcDbLine
 10
-14097.712061383467
 20
-7499.379181709237
 30
0.0
 11
-14100.194614498208
 21
-7499.209415848149
 31
0.0
  0
LINE
  5
13D
100
AcDbEntity
  8
Frei
  6
CONTINUOUS
 62
           7
100
AcDbLine
 10
-14100.467511472923
 20
-7503.200095895609
 30
0.0
 11
-14100.194614498208
 21
-7499.209415848149
 31
0.0
  0
LINE
  5
13E
100
AcDbEntity
  8
Frei
  6
CONTINUOUS
 62
           1
100
AcDbLine
 10
-14097.984958358182
 20
-7503.369861756697
 30
0.0
 11
-14100.467511472923
 21
-7503.200095895609
 31
0.0
  0
LINE
  5
13F
100
AcDbEntity
  8
Frei
  6
CONTINUOUS
 62
           7
100
AcDbLine
 10
-14100.501623594762
 20
-7503.698930901541
 30
0.0
 11
-14100.467511472923
 21
-7503.200095895609
 31
0.0
  0
LINE
  5
140
100
AcDbEntity
  8
Frei
  6
CONTINUOUS
 62
           7
100
AcDbLine
 10
-14092.628698474591
 20
-7490.149784123007
 30
0.0
 11
-14065.557479536177
 21
-7491.053505008644
 31
0.0
  0
LINE
  5
141
100
AcDbEntity
  8
Frei
  6
CONTINUOUS
 62
           7
100
AcDbLine
 10
-14094.690767502369
 20
-7492.012222135683
 30
0.0
 11
-14094.728694733134
 21
-7492.566846983489
 31
0.0
  0
LINE
  5
142
100
AcDbEntity
  8
Frei
  6
CONTINUOUS
 62
           7
100
AcDbLine
 10
-14067.53598260286
 20
-7519.985935352726
 30
0.0
 11
-14096.468412946941
 21
-7518.007432286044
 31
0.0
  0
LINE
  5
143
100
AcDbEntity
  8
Frei
  6
CONTINUOUS
 62
           7
100
AcDbLine
 10
-14096.53663719062
 20
-7519.005102297908
 30
0.0
 11
-14096.468412946941
 21
-7518.007432286044
 31
0.0
  0
LINE
  5
144
100
AcDbEntity
  8
Frei
  6
CONTINUOUS
 62
           7
100
AcDbLine
 10
-14096.037802184688
 20
-7519.039214419749
 30
0.0
 11
-14096.53663719062
 21
-7519.005102297908
 31
0.0
  0
LINE
  5
145
100
AcDbEntity
  8
Frei
  6
CONTINUOUS
 62
           7
100
AcDbLine
 10
-14067.53598260286
 20
-7519.985935352726
 30
0.0
 11
-14067.604206846539
 21
-7520.98360536459
 31
0.0
  0
LINE
  5
146
100
AcDbEntity
  8
Frei
  6
CONTINUOUS
 62
           7
100
AcDbLine
 10
-14107.400252477091
 20
-7531.292570015365
 30
0.0
 11
-14096.924717352511
 21
-7532.008924573991
 31
0.0
  0
LINE
  5
147
100
AcDbEntity
  8
Frei
  6
CONTINUOUS
 62
           7
100
AcDbLine
 10
-14109.988345393749
 20
-7547.152953839684
 30
0.0
 11
-14110.022457515588
 21
-7547.651788845617
 31
0.0
  0
LINE
  5
148
100
AcDbEntity
  8
Frei
  6
CONTINUOUS
 62
           7
100
AcDbLine
 10
-14108.628288863309
 20
-7549.250630228933
 30
0.0
 11
-14098.152753738728
 21
-7549.966984787559
 31
0.0
  0
LINE
  5
149
100
AcDbEntity
  8
Frei
  6
CONTINUOUS
 62
           7
100
AcDbLine
 10
-14097.913968885852
 20
-7546.475139746031
 30
0.0
 11
-14096.037802184688
 21
-7519.039214419749
 31
0.0
  0
LINE
  5
14A
100
AcDbEntity
  8
Frei
  6
CONTINUOUS
 62
           7
100
AcDbLine
 10
-14068.103041852472
 20
-7520.949493242752
 30
0.0
 11
-14096.037802184688
 21
-7519.039214419749
 31
0.0
  0
LINE
  5
14B
100
AcDbEntity
  8
Frei
  6
CONTINUOUS
 62
           7
100
AcDbLine
 10
-14096.519800233573
 20
-7548.073981129348
 30
0.0
 11
-14090.569594904435
 21
-7548.480877451264
 31
0.0
  0
LINE
  5
14C
100
AcDbEntity
  8
Frei
  6
CONTINUOUS
 62
           7
100
AcDbLine
 10
-14069.979208553636
 20
-7548.385418569036
 30
0.0
 11
-14068.103041852472
 21
-7520.949493242752
 31
0.0
  0
LINE
  5
14D
100
AcDbEntity
  8
Frei
  6
CONTINUOUS
 62
           7
100
AcDbLine
 10
-14067.604206846539
 20
-7520.98360536459
 30
0.0
 11
-14068.103041852472
 21
-7520.949493242752
 31
0.0
  0
LINE
  5
14E
100
AcDbEntity
  8
Frei
  6
CONTINUOUS
 62
           7
100
AcDbLine
 10
-14090.569594904435
 20
-7548.480877451264
 30
0.0
 11
-14098.152753738728
 21
-7549.966984787559
 31
0.0
  0
LINE
  5
14F
100
AcDbEntity
  8
Frei
  6
CONTINUOUS
 62
           7
100
AcDbLine
 10
-14071.578049936952
 20
-7549.779587221316
 30
0.0
 11
-14090.569594904435
 21
-7548.480877451264
 31
0.0
  0
LINE
  5
150
100
AcDbEntity
  8
Frei
  6
CONTINUOUS
 62
           7
100
AcDbLine
 10
-14114.021556041571
 20
-7532.844452455183
 30
0.0
 11
-14109.033205982247
 21
-7533.185573673576
 31
0.0
  0
LINE
  5
151
100
AcDbEntity
  8
Frei
  6
CONTINUOUS
 62
           7
100
AcDbLine
 10
-14108.999093860408
 20
-7532.686738667644
 30
0.0
 11
-14109.033205982247
 21
-7533.185573673576
 31
0.0
  0
LINE
  5
152
100
AcDbEntity
  8
Frei
  6
CONTINUOUS
 62
           7
100
AcDbLine
 10
-14114.976695453073
 20
-7546.811832621292
 30
0.0
 11
-14109.988345393749
 21
-7547.152953839684
 31
0.0
  0
LINE
  5
153
100
AcDbEntity
  8
Frei
  6
CONTINUOUS
 62
           7
100
AcDbLine
 10
-14109.920121150069
 20
-7546.15528382782
 30
0.0
 11
-14109.988345393749
 21
-7547.152953839684
 31
0.0
  0
LINE
  5
154
100
AcDbEntity
  8
Frei
  6
CONTINUOUS
 62
           2
100
AcDbLine
 10
-14109.101430225925
 20
-7534.18324368544
 30
0.0
 11
-14114.089780285249
 21
-7533.842122467047
 31
0.0
  0
LINE
  5
155
100
AcDbEntity
  8
Frei
  6
CONTINUOUS
 62
           7
100
AcDbLine
 10
-14109.033205982247
 20
-7533.185573673576
 30
0.0
 11
-14109.101430225925
 21
-7534.18324368544
 31
0.0
  0
LINE
  5
156
100
AcDbEntity
  8
Frei
  6
CONTINUOUS
 62
           2
100
AcDbLine
 10
-14109.920121150069
 20
-7546.15528382782
 30
0.0
 11
-14114.908471209394
 21
-7545.814162609426
 31
0.0
  0
LINE
  5
157
100
AcDbEntity
  8
Frei
  6
CONTINUOUS
 62
           7
100
AcDbLine
 10
-14109.101430225925
 20
-7534.18324368544
 30
0.0
 11
-14109.920121150069
 21
-7546.15528382782
 31
0.0
  0
LINE
  5
158
100
AcDbEntity
  8
Frei
  6
CONTINUOUS
 62
           7
100
AcDbLine
 10
-14065.932712876411
 20
-7496.540690073902
 30
0.0
 11
-14065.178485665148
 21
-7496.592266828176
 31
0.0
  0
LINE
  5
159
100
AcDbEntity
  8
Frei
  6
CONTINUOUS
 62
           7
100
AcDbLine
 10
-14065.557479536177
 20
-7491.053505008644
 30
0.0
 11
-14065.932712876411
 21
-7496.540690073902
 31
0.0
  0
LINE
  5
15A
100
AcDbEntity
  8
Frei
  6
CONTINUOUS
 62
           7
100
AcDbLine
 10
-14066.171497729287
 20
-7500.032535115428
 30
0.0
 11
-14065.417270518024
 21
-7500.084111869704
 31
0.0
  0
LINE
  5
15B
100
AcDbEntity
  8
Frei
  6
CONTINUOUS
 62
           7
100
AcDbLine
 10
-14065.932712876411
 20
-7496.540690073902
 30
0.0
 11
-14066.171497729287
 21
-7500.032535115428
 31
0.0
  0
LINE
  5
15C
100
AcDbEntity
  8
Frei
  6
CONTINUOUS
 62
           7
100
AcDbLine
 10
-14066.649067435037
 20
-7507.016225198482
 30
0.0
 11
-14065.894840223775
 21
-7507.067801952759
 31
0.0
  0
LINE
  5
15D
100
AcDbEntity
  8
Frei
  6
CONTINUOUS
 62
           7
100
AcDbLine
 10
-14066.171497729287
 20
-7500.032535115428
 30
0.0
 11
-14066.649067435037
 21
-7507.016225198482
 31
0.0
  0
LINE
  5
15E
100
AcDbEntity
  8
Frei
  6
CONTINUOUS
 62
           7
100
AcDbLine
 10
-14066.887852287913
 20
-7510.50807024001
 30
0.0
 11
-14066.133625076651
 21
-7510.559646994285
 31
0.0
  0
LINE
  5
15F
100
AcDbEntity
  8
Frei
  6
CONTINUOUS
 62
           7
100
AcDbLine
 10
-14066.649067435037
 20
-7507.016225198482
 30
0.0
 11
-14066.887852287913
 21
-7510.50807024001
 31
0.0
  0
LINE
  5
160
100
AcDbEntity
  8
Frei
  6
CONTINUOUS
 62
           7
100
AcDbLine
 10
-14064.913777564363
 20
-7503.626716522475
 30
0.0
 11
-14064.55560028505
 21
-7498.388948960183
 31
0.0
  0
LINE
  5
161
100
AcDbEntity
  8
Frei
  6
CONTINUOUS
 62
           7
100
AcDbLine
 10
-14113.958230078206
 20
-7531.918411927421
 30
0.0
 11
-14113.868897180071
 21
-7530.612061739636
 31
0.0
  0
LINE
  5
162
100
AcDbEntity
  8
Frei
  6
CONTINUOUS
 62
           7
100
AcDbLine
 10
-14119.363482741324
 20
-7548.75467849123
 30
0.0
 11
-14115.129354314573
 21
-7549.044223336839
 31
0.0
  0
LINE
  5
163
100
AcDbEntity
  8
Frei
  6
CONTINUOUS
 62
           7
100
AcDbLine
 10
-14118.94658013753
 20
-7531.577290709027
 30
0.0
 11
-14113.958230078206
 21
-7531.918411927421
 31
0.0
  0
LINE
  5
164
100
AcDbEntity
  8
Frei
  6
CONTINUOUS
 62
           7
100
AcDbLine
 10
-14114.094678565563
 20
-7533.91375195115
 30
0.0
 11
-14113.958230078206
 21
-7531.918411927421
 31
0.0
  0
LINE
  5
165
100
AcDbEntity
  8
Frei
  6
CONTINUOUS
 62
           7
100
AcDbLine
 10
-14114.094678565563
 20
-7533.91375195115
 30
0.0
 11
-14119.083028624887
 21
-7533.572630732757
 31
0.0
  0
LINE
  5
166
100
AcDbEntity
  8
Frei
  6
CONTINUOUS
 62
           7
100
AcDbLine
 10
-14118.94658013753
 20
-7531.577290709027
 30
0.0
 11
-14119.083028624887
 21
-7533.572630732757
 31
0.0
  0
LINE
  5
167
100
AcDbEntity
  8
Frei
  6
CONTINUOUS
 62
           7
100
AcDbLine
 10
-14114.184011463696
 20
-7535.220102138936
 30
0.0
 11
-14114.094678565563
 21
-7533.91375195115
 31
0.0
  0
LINE
  5
168
100
AcDbEntity
  8
Frei
  6
CONTINUOUS
 62
           7
100
AcDbLine
 10
-14114.362677259964
 20
-7537.832802514507
 30
0.0
 11
-14114.184011463696
 21
-7535.220102138936
 31
0.0
  0
LINE
  5
169
100
AcDbEntity
  8
Frei
  6
CONTINUOUS
 62
           7
100
AcDbLine
 10
-14114.362677259964
 20
-7537.832802514507
 30
0.0
 11
-14119.351027319288
 21
-7537.491681296113
 31
0.0
  0
LINE
  5
16A
100
AcDbEntity
  8
Frei
  6
CONTINUOUS
 62
           7
100
AcDbLine
 10
-14119.083028624887
 20
-7533.572630732757
 30
0.0
 11
-14119.351027319288
 21
-7537.491681296113
 31
0.0
  0
LINE
  5
16B
100
AcDbEntity
  8
Frei
  6
CONTINUOUS
 62
           7
100
AcDbLine
 10
-14114.635574234679
 20
-7541.823482561966
 30
0.0
 11
-14114.362677259964
 21
-7537.832802514507
 31
0.0
  0
LINE
  5
16C
100
AcDbEntity
  8
Frei
  6
CONTINUOUS
 62
           7
100
AcDbLine
 10
-14114.635574234679
 20
-7541.823482561966
 30
0.0
 11
-14119.623924294003
 21
-7541.482361343573
 31
0.0
  0
LINE
  5
16D
100
AcDbEntity
  8
Frei
  6
CONTINUOUS
 62
           7
100
AcDbLine
 10
-14119.351027319288
 20
-7537.491681296113
 30
0.0
 11
-14119.623924294003
 21
-7541.482361343573
 31
0.0
  0
LINE
  5
16E
100
AcDbEntity
  8
Frei
  6
CONTINUOUS
 62
           7
100
AcDbLine
 10
-14114.814240030946
 20
-7544.436182937538
 30
0.0
 11
-14114.635574234679
 21
-7541.823482561966
 31
0.0
  0
LINE
  5
16F
100
AcDbEntity
  8
Frei
  6
CONTINUOUS
 62
           7
100
AcDbLine
 10
-14114.903572929081
 20
-7545.742533125324
 30
0.0
 11
-14114.814240030946
 21
-7544.436182937538
 31
0.0
  0
LINE
  5
170
100
AcDbEntity
  8
Frei
  6
CONTINUOUS
 62
           7
100
AcDbLine
 10
-14114.903572929081
 20
-7545.742533125324
 30
0.0
 11
-14119.891922988405
 21
-7545.401411906931
 31
0.0
  0
LINE
  5
171
100
AcDbEntity
  8
Frei
  6
CONTINUOUS
 62
           7
100
AcDbLine
 10
-14119.623924294003
 20
-7541.482361343573
 30
0.0
 11
-14119.891922988405
 21
-7545.401411906931
 31
0.0
  0
LINE
  5
172
100
AcDbEntity
  8
Frei
  6
CONTINUOUS
 62
           7
100
AcDbLine
 10
-14115.040021416438
 20
-7547.737873149054
 30
0.0
 11
-14114.903572929081
 21
-7545.742533125324
 31
0.0
  0
LINE
  5
173
100
AcDbEntity
  8
Frei
  6
CONTINUOUS
 62
           7
100
AcDbLine
 10
-14115.040021416438
 20
-7547.737873149054
 30
0.0
 11
-14120.028371475762
 21
-7547.396751930661
 31
0.0
  0
LINE
  5
174
100
AcDbEntity
  8
Frei
  6
CONTINUOUS
 62
           7
100
AcDbLine
 10
-14119.891922988405
 20
-7545.401411906931
 30
0.0
 11
-14120.028371475762
 21
-7547.396751930661
 31
0.0
  0
LINE
  5
175
100
AcDbEntity
  8
Frei
  6
CONTINUOUS
 62
           7
100
AcDbLine
 10
-14115.129354314573
 20
-7549.044223336839
 30
0.0
 11
-14115.040021416438
 21
-7547.737873149054
 31
0.0
  0
LINE
  5
176
100
AcDbEntity
  8
Frei
  6
CONTINUOUS
 62
           7
100
AcDbLine
 10
-14118.94658013753
 20
-7531.577290709027
 30
0.0
 11
-14118.103025606822
 21
-7530.322516894026
 31
0.0
  0
LINE
  5
177
100
AcDbEntity
  8
Frei
  6
CONTINUOUS
 62
           7
100
AcDbLine
 10
-14113.868897180071
 20
-7530.612061739636
 30
0.0
 11
-14118.103025606822
 21
-7530.322516894026
 31
0.0
  0
LINE
  5
178
100
AcDbEntity
  8
Frei
  6
CONTINUOUS
 62
           7
100
AcDbLine
 10
-14119.363482741324
 20
-7548.75467849123
 30
0.0
 11
-14120.028371475762
 21
-7547.396751930661
 31
0.0
  0
LINE
  5
179
100
AcDbEntity
  8
Frei
  6
CONTINUOUS
 62
           7
100
AcDbLine
 10
-14118.418139890447
 20
-7534.930557293328
 30
0.0
 11
-14119.083028624887
 21
-7533.572630732757
 31
0.0
  0
LINE
  5
17A
100
AcDbEntity
  8
Frei
  6
CONTINUOUS
 62
           7
100
AcDbLine
 10
-14114.184011463696
 20
-7535.220102138936
 30
0.0
 11
-14118.418139890447
 21
-7534.930557293328
 31
0.0
  0
LINE
  5
17B
100
AcDbEntity
  8
Frei
  6
CONTINUOUS
 62
           7
100
AcDbLine
 10
-14119.351027319288
 20
-7537.491681296113
 30
0.0
 11
-14118.418139890447
 21
-7534.930557293328
 31
0.0
  0
LINE
  5
17C
100
AcDbEntity
  8
Frei
  6
CONTINUOUS
 62
           7
100
AcDbLine
 10
-14119.048368457698
 20
-7544.14663809193
 30
0.0
 11
-14119.623924294003
 21
-7541.482361343573
 31
0.0
  0
LINE
  5
17D
100
AcDbEntity
  8
Frei
  6
CONTINUOUS
 62
           7
100
AcDbLine
 10
-14114.814240030946
 20
-7544.436182937538
 30
0.0
 11
-14119.048368457698
 21
-7544.14663809193
 31
0.0
  0
LINE
  5
17E
100
AcDbEntity
  8
Frei
  6
CONTINUOUS
 62
           7
100
AcDbLine
 10
-14119.891922988405
 20
-7545.401411906931
 30
0.0
 11
-14119.048368457698
 21
-7544.14663809193
 31
0.0
  0
LINE
  5
17F
100
AcDbEntity
  8
Frei
  6
CONTINUOUS
 62
           3
100
AcDbLine
 10
-14074.585502848358
 20
-7542.4573452842
 30
0.0
 11
-14092.543563061927
 21
-7541.229308897982
 31
0.0
  0
LINE
  5
180
100
AcDbEntity
  8
Frei
  6
CONTINUOUS
 62
           3
100
AcDbLine
 10
-14075.225039401685
 20
-7543.015012745111
 30
0.0
 11
-14074.585502848358
 21
-7542.4573452842
 31
0.0
  0
LINE
  5
181
100
AcDbEntity
  8
Frei
  6
CONTINUOUS
 62
           3
100
AcDbLine
 10
-14074.667371940774
 20
-7543.654549298437
 30
0.0
 11
-14075.225039401685
 21
-7543.015012745111
 31
0.0
  0
LINE
  5
182
100
AcDbEntity
  8
Frei
  6
CONTINUOUS
 62
           3
100
AcDbLine
 10
-14092.625432154342
 20
-7542.426512912221
 30
0.0
 11
-14074.667371940774
 21
-7543.654549298437
 31
0.0
  0
LINE
  5
183
100
AcDbEntity
  8
Frei
  6
CONTINUOUS
 62
           3
100
AcDbLine
 10
-14091.985895601016
 20
-7541.868845451309
 30
0.0
 11
-14092.625432154342
 21
-7542.426512912221
 31
0.0
  0
LINE
  5
184
100
AcDbEntity
  8
Frei
  6
CONTINUOUS
 62
           3
100
AcDbLine
 10
-14092.543563061927
 20
-7541.229308897982
 30
0.0
 11
-14091.985895601016
 21
-7541.868845451309
 31
0.0
  0
LINE
  5
185
100
AcDbEntity
  8
Frei
  6
CONTINUOUS
 62
           3
100
AcDbLine
 10
-14075.225039401685
 20
-7543.015012745111
 30
0.0
 11
-14091.985895601016
 21
-7541.868845451309
 31
0.0
  0
LINE
  5
186
100
AcDbEntity
  8
Frei
  6
CONTINUOUS
 62
           3
100
AcDbLine
 10
-14092.488983666984
 20
-7540.431172888491
 30
0.0
 11
-14091.849447113658
 21
-7539.873505427579
 31
0.0
  0
LINE
  5
187
100
AcDbEntity
  8
Frei
  6
CONTINUOUS
 62
           3
100
AcDbLine
 10
-14074.530923453416
 20
-7541.659209274707
 30
0.0
 11
-14092.488983666984
 21
-7540.431172888491
 31
0.0
  0
LINE
  5
188
100
AcDbEntity
  8
Frei
  6
CONTINUOUS
 62
           3
100
AcDbLine
 10
-14075.088590914327
 20
-7541.019672721381
 30
0.0
 11
-14074.530923453416
 21
-7541.659209274707
 31
0.0
  0
LINE
  5
189
100
AcDbEntity
  8
Frei
  6
CONTINUOUS
 62
           3
100
AcDbLine
 10
-14074.449054361001
 20
-7540.46200526047
 30
0.0
 11
-14075.088590914327
 21
-7541.019672721381
 31
0.0
  0
LINE
  5
18A
100
AcDbEntity
  8
Frei
  6
CONTINUOUS
 62
           3
100
AcDbLine
 10
-14092.407114574569
 20
-7539.233968874254
 30
0.0
 11
-14074.449054361001
 21
-7540.46200526047
 31
0.0
  0
LINE
  5
18B
100
AcDbEntity
  8
Frei
  6
CONTINUOUS
 62
           3
100
AcDbLine
 10
-14091.849447113658
 20
-7539.873505427579
 30
0.0
 11
-14092.407114574569
 21
-7539.233968874254
 31
0.0
  0
LINE
  5
18C
100
AcDbEntity
  8
Frei
  6
CONTINUOUS
 62
           3
100
AcDbLine
 10
-14091.849447113658
 20
-7539.873505427579
 30
0.0
 11
-14075.088590914327
 21
-7541.019672721381
 31
0.0
  0
LINE
  5
18D
100
AcDbEntity
  8
Frei
  6
CONTINUOUS
 62
           3
100
AcDbLine
 10
-14092.352535179627
 20
-7538.435832864761
 30
0.0
 11
-14091.712998626301
 21
-7537.878165403849
 31
0.0
  0
LINE
  5
18E
100
AcDbEntity
  8
Frei
  6
CONTINUOUS
 62
           3
100
AcDbLine
 10
-14074.394474966059
 20
-7539.663869250977
 30
0.0
 11
-14092.352535179627
 21
-7538.435832864761
 31
0.0
  0
LINE
  5
18F
100
AcDbEntity
  8
Frei
  6
CONTINUOUS
 62
           3
100
AcDbLine
 10
-14074.95214242697
 20
-7539.024332697651
 30
0.0
 11
-14074.394474966059
 21
-7539.663869250977
 31
0.0
  0
LINE
  5
190
100
AcDbEntity
  8
Frei
  6
CONTINUOUS
 62
           3
100
AcDbLine
 10
-14074.312605873643
 20
-7538.46666523674
 30
0.0
 11
-14074.95214242697
 21
-7539.024332697651
 31
0.0
  0
LINE
  5
191
100
AcDbEntity
  8
Frei
  6
CONTINUOUS
 62
           3
100
AcDbLine
 10
-14092.270666087212
 20
-7537.238628850524
 30
0.0
 11
-14074.312605873643
 21
-7538.46666523674
 31
0.0
  0
LINE
  5
192
100
AcDbEntity
  8
Frei
  6
CONTINUOUS
 62
           3
100
AcDbLine
 10
-14091.712998626301
 20
-7537.878165403849
 30
0.0
 11
-14092.270666087212
 21
-7537.238628850524
 31
0.0
  0
LINE
  5
193
100
AcDbEntity
  8
Frei
  6
CONTINUOUS
 62
           3
100
AcDbLine
 10
-14092.21608669227
 20
-7536.440492841031
 30
0.0
 11
-14091.576550138943
 21
-7535.882825380118
 31
0.0
  0
LINE
  5
194
100
AcDbEntity
  8
Frei
  6
CONTINUOUS
 62
           3
100
AcDbLine
 10
-14086.13736383391
 20
-7536.856177651251
 30
0.0
 11
-14092.21608669227
 21
-7536.440492841031
 31
0.0
  0
LINE
  5
195
100
AcDbEntity
  8
Frei
  6
CONTINUOUS
 62
           3
100
AcDbLine
 10
-14074.815693939612
 20
-7537.028992673921
 30
0.0
 11
-14074.258026478701
 21
-7537.668529227249
 31
0.0
  0
LINE
  5
196
100
AcDbEntity
  8
Frei
  6
CONTINUOUS
 62
           3
100
AcDbLine
 10
-14074.176157386286
 20
-7536.47132521301
 30
0.0
 11
-14074.815693939612
 21
-7537.028992673921
 31
0.0
  0
LINE
  5
197
100
AcDbEntity
  8
Frei
  6
CONTINUOUS
 62
           3
100
AcDbLine
 10
-14080.254880244644
 20
-7536.05564040279
 30
0.0
 11
-14074.176157386286
 21
-7536.47132521301
 31
0.0
  0
LINE
  5
198
100
AcDbEntity
  8
Frei
  6
CONTINUOUS
 62
           3
100
AcDbLine
 10
-14091.576550138943
 20
-7535.882825380118
 30
0.0
 11
-14092.134217599854
 21
-7535.243288826794
 31
0.0
  0
LINE
  5
199
100
AcDbEntity
  8
Frei
  6
CONTINUOUS
 62
           3
100
AcDbLine
 10
-14092.079638204912
 20
-7534.445152817301
 30
0.0
 11
-14091.440101651586
 21
-7533.887485356388
 31
0.0
  0
LINE
  5
19A
100
AcDbEntity
  8
Frei
  6
CONTINUOUS
 62
           3
100
AcDbLine
 10
-14086.745392770183
 20
-7534.809927598595
 30
0.0
 11
-14092.079638204912
 21
-7534.445152817301
 31
0.0
  0
LINE
  5
19B
100
AcDbEntity
  8
Frei
  6
CONTINUOUS
 62
           3
100
AcDbLine
 10
-14074.679245452255
 20
-7535.033652650191
 30
0.0
 11
-14074.121577991344
 21
-7535.673189203519
 31
0.0
  0
LINE
  5
19C
100
AcDbEntity
  8
Frei
  6
CONTINUOUS
 62
           3
100
AcDbLine
 10
-14080.013490886984
 20
-7534.668877868899
 30
0.0
 11
-14074.679245452255
 21
-7535.033652650191
 31
0.0
  0
LINE
  5
19D
100
AcDbEntity
  8
Frei
  6
CONTINUOUS
 62
           3
100
AcDbLine
 10
-14085.497827280586
 20
-7536.29851019034
 30
0.0
 11
-14091.576550138943
 21
-7535.882825380118
 31
0.0
  0
LINE
  5
19E
100
AcDbEntity
  8
Frei
  6
CONTINUOUS
 62
           3
100
AcDbLine
 10
-14074.95214242697
 20
-7539.024332697651
 30
0.0
 11
-14091.712998626301
 21
-7537.878165403849
 31
0.0
  0
LINE
  5
19F
100
AcDbEntity
  8
Frei
  6
CONTINUOUS
 62
           3
100
AcDbLine
 10
-14085.497827280586
 20
-7536.29851019034
 30
0.0
 11
-14086.055494741495
 21
-7535.658973637013
 31
0.0
  0
LINE
  5
1A0
100
AcDbEntity
  8
Frei
  6
CONTINUOUS
 62
           3
100
AcDbLine
 10
-14092.134217599854
 20
-7535.243288826794
 30
0.0
 11
-14086.055494741495
 21
-7535.658973637013
 31
0.0
  0
LINE
  5
1A1
100
AcDbEntity
  8
Frei
  6
CONTINUOUS
 62
           3
100
AcDbLine
 10
-14086.13736383391
 20
-7536.856177651251
 30
0.0
 11
-14085.497827280586
 21
-7536.29851019034
 31
0.0
  0
LINE
  5
1A2
100
AcDbEntity
  8
Frei
  6
CONTINUOUS
 62
           3
100
AcDbLine
 10
-14086.105856216856
 20
-7534.252260137682
 30
0.0
 11
-14086.745392770183
 21
-7534.809927598595
 31
0.0
  0
LINE
  5
1A3
100
AcDbEntity
  8
Frei
  6
CONTINUOUS
 62
           3
100
AcDbLine
 10
-14091.440101651586
 20
-7533.887485356388
 30
0.0
 11
-14086.105856216856
 21
-7534.252260137682
 31
0.0
  0
LINE
  5
1A4
100
AcDbEntity
  8
Frei
  6
CONTINUOUS
 62
           3
100
AcDbLine
 10
-14079.455823426071
 20
-7535.308414422225
 30
0.0
 11
-14080.013490886984
 21
-7534.668877868899
 31
0.0
  0
LINE
  5
1A5
100
AcDbEntity
  8
Frei
  6
CONTINUOUS
 62
           3
100
AcDbLine
 10
-14074.121577991344
 20
-7535.673189203519
 30
0.0
 11
-14079.455823426071
 21
-7535.308414422225
 31
0.0
  0
LINE
  5
1A6
100
AcDbEntity
  8
Frei
  6
CONTINUOUS
 62
           3
100
AcDbLine
 10
-14080.894416797972
 20
-7536.613307863701
 30
0.0
 11
-14080.254880244644
 21
-7536.05564040279
 31
0.0
  0
LINE
  5
1A7
100
AcDbEntity
  8
Frei
  6
CONTINUOUS
 62
           3
100
AcDbLine
 10
-14074.815693939612
 20
-7537.028992673921
 30
0.0
 11
-14080.894416797972
 21
-7536.613307863701
 31
0.0
  0
LINE
  5
1A8
100
AcDbEntity
  8
Frei
  6
CONTINUOUS
 62
           3
100
AcDbLine
 10
-14080.336749337059
 20
-7537.252844417029
 30
0.0
 11
-14080.894416797972
 21
-7536.613307863701
 31
0.0
  0
LINE
  5
1A9
100
AcDbEntity
  8
Frei
  6
CONTINUOUS
 62
           3
100
AcDbLine
 10
-14074.258026478701
 20
-7537.668529227249
 30
0.0
 11
-14080.336749337059
 21
-7537.252844417029
 31
0.0
  0
LINE
  5
1AA
100
AcDbEntity
  8
Frei
  6
CONTINUOUS
 62
           3
100
AcDbLine
 10
-14092.134217599854
 20
-7535.243288826794
 30
0.0
 11
-14092.21608669227
 21
-7536.440492841031
 31
0.0
  0
LINE
  5
1AB
100
AcDbEntity
  8
Frei
  6
CONTINUOUS
 62
           3
100
AcDbLine
 10
-14092.352535179627
 20
-7538.435832864761
 30
0.0
 11
-14092.270666087212
 21
-7537.238628850524
 31
0.0
  0
LINE
  5
1AC
100
AcDbEntity
  8
Frei
  6
CONTINUOUS
 62
           3
100
AcDbLine
 10
-14092.488983666984
 20
-7540.431172888491
 30
0.0
 11
-14092.407114574569
 21
-7539.233968874254
 31
0.0
  0
LINE
  5
1AD
100
AcDbEntity
  8
Frei
  6
CONTINUOUS
 62
           3
100
AcDbLine
 10
-14092.625432154342
 20
-7542.426512912221
 30
0.0
 11
-14092.543563061927
 21
-7541.229308897982
 31
0.0
  0
LINE
  5
1AE
100
AcDbEntity
  8
Frei
  6
CONTINUOUS
 62
           3
100
AcDbLine
 10
-14092.038703658705
 20
-7533.846550810182
 30
0.0
 11
-14092.079638204912
 21
-7534.445152817301
 31
0.0
  0
LINE
  5
1AF
100
AcDbEntity
  8
Frei
  6
CONTINUOUS
 62
           3
100
AcDbLine
 10
-14074.121577991344
 20
-7535.673189203519
 30
0.0
 11
-14074.080643445137
 21
-7535.074587196399
 31
0.0
  0
LINE
  5
1B0
100
AcDbEntity
  8
Frei
  6
CONTINUOUS
 62
           3
100
AcDbLine
 10
-14074.258026478701
 20
-7537.668529227249
 30
0.0
 11
-14074.176157386286
 21
-7536.47132521301
 31
0.0
  0
LINE
  5
1B1
100
AcDbEntity
  8
Frei
  6
CONTINUOUS
 62
           3
100
AcDbLine
 10
-14074.394474966059
 20
-7539.663869250977
 30
0.0
 11
-14074.312605873643
 21
-7538.46666523674
 31
0.0
  0
LINE
  5
1B2
100
AcDbEntity
  8
Frei
  6
CONTINUOUS
 62
           3
100
AcDbLine
 10
-14074.530923453416
 20
-7541.659209274707
 30
0.0
 11
-14074.449054361001
 21
-7540.46200526047
 31
0.0
  0
LINE
  5
1B3
100
AcDbEntity
  8
Frei
  6
CONTINUOUS
 62
           3
100
AcDbLine
 10
-14074.667371940774
 20
-7543.654549298437
 30
0.0
 11
-14074.585502848358
 21
-7542.4573452842
 31
0.0
  0
LINE
  5
1B4
100
AcDbEntity
  8
Frei
  6
CONTINUOUS
 62
           3
100
AcDbLine
 10
-14073.575784041914
 20
-7527.691829108599
 30
0.0
 11
-14073.4939149495
 21
-7526.494625094361
 31
0.0
  0
LINE
  5
1B5
100
AcDbEntity
  8
Frei
  6
CONTINUOUS
 62
           3
100
AcDbLine
 10
-14073.712232529271
 20
-7529.687169132329
 30
0.0
 11
-14073.630363436858
 21
-7528.489965118091
 31
0.0
  0
LINE
  5
1B6
100
AcDbEntity
  8
Frei
  6
CONTINUOUS
 62
           3
100
AcDbLine
 10
-14073.848681016629
 20
-7531.682509156059
 30
0.0
 11
-14073.766811924213
 21
-7530.485305141821
 31
0.0
  0
LINE
  5
1B7
100
AcDbEntity
  8
Frei
  6
CONTINUOUS
 62
           3
100
AcDbLine
 10
-14073.985129503986
 20
-7533.677849179789
 30
0.0
 11
-14073.903260411571
 21
-7532.480645165551
 31
0.0
  0
LINE
  5
1B8
100
AcDbEntity
  8
Frei
  6
CONTINUOUS
 62
           3
100
AcDbLine
 10
-14074.080643445137
 20
-7535.074587196399
 30
0.0
 11
-14074.039708898928
 21
-7534.47598518928
 31
0.0
  0
LINE
  5
1B9
100
AcDbEntity
  8
Frei
  6
CONTINUOUS
 62
           3
100
AcDbLine
 10
-14091.997769112497
 20
-7533.247948803064
 30
0.0
 11
-14092.038703658705
 21
-7533.846550810182
 31
0.0
  0
LINE
  5
1BA
100
AcDbEntity
  8
Frei
  6
CONTINUOUS
 62
           3
100
AcDbLine
 10
-14091.533844255482
 20
-7526.463792722383
 30
0.0
 11
-14091.451975163069
 21
-7525.266588708146
 31
0.0
  0
LINE
  5
1BB
100
AcDbEntity
  8
Frei
  6
CONTINUOUS
 62
           3
100
AcDbLine
 10
-14091.67029274284
 20
-7528.459132746113
 30
0.0
 11
-14091.588423650426
 21
-7527.261928731874
 31
0.0
  0
LINE
  5
1BC
100
AcDbEntity
  8
Frei
  6
CONTINUOUS
 62
           3
100
AcDbLine
 10
-14091.806741230197
 20
-7530.454472769841
 30
0.0
 11
-14091.724872137782
 21
-7529.257268755604
 31
0.0
  0
LINE
  5
1BD
100
AcDbEntity
  8
Frei
  6
CONTINUOUS
 62
           3
100
AcDbLine
 10
-14091.861320625139
 20
-7531.252608779334
 30
0.0
 11
-14091.943189717555
 21
-7532.449812793571
 31
0.0
  0
LINE
  5
1BE
100
AcDbEntity
  8
Frei
  6
CONTINUOUS
 62
           3
100
AcDbLine
 10
-14079.981983269929
 20
-7532.064960355332
 30
0.0
 11
-14073.903260411571
 21
-7532.480645165551
 31
0.0
  0
LINE
  5
1BF
100
AcDbEntity
  8
Frei
  6
CONTINUOUS
 62
           3
100
AcDbLine
 10
-14080.621519823257
 20
-7532.622627816241
 30
0.0
 11
-14079.981983269929
 21
-7532.064960355332
 31
0.0
  0
LINE
  5
1C0
100
AcDbEntity
  8
Frei
  6
CONTINUOUS
 62
           3
100
AcDbLine
 10
-14080.621519823257
 20
-7532.622627816241
 30
0.0
 11
-14074.542796964897
 21
-7533.038312626461
 31
0.0
  0
LINE
  5
1C1
100
AcDbEntity
  8
Frei
  6
CONTINUOUS
 62
           3
100
AcDbLine
 10
-14080.063852362344
 20
-7533.262164369569
 30
0.0
 11
-14080.621519823257
 21
-7532.622627816241
 31
0.0
  0
LINE
  5
1C2
100
AcDbEntity
  8
Frei
  6
CONTINUOUS
 62
           3
100
AcDbLine
 10
-14079.373954333656
 20
-7534.111210407988
 30
0.0
 11
-14074.039708898928
 21
-7534.47598518928
 31
0.0
  0
LINE
  5
1C3
100
AcDbEntity
  8
Frei
  6
CONTINUOUS
 62
           3
100
AcDbLine
 10
-14080.013490886984
 20
-7534.668877868899
 30
0.0
 11
-14079.373954333656
 21
-7534.111210407988
 31
0.0
  0
LINE
  5
1C4
100
AcDbEntity
  8
Frei
  6
CONTINUOUS
 62
           3
100
AcDbLine
 10
-14086.663523677767
 20
-7533.612723584356
 30
0.0
 11
-14086.105856216856
 21
-7534.252260137682
 31
0.0
  0
LINE
  5
1C5
100
AcDbEntity
  8
Frei
  6
CONTINUOUS
 62
           3
100
AcDbLine
 10
-14085.224930305871
 20
-7532.30783014288
 30
0.0
 11
-14085.78259776678
 21
-7531.668293589553
 31
0.0
  0
LINE
  5
1C6
100
AcDbEntity
  8
Frei
  6
CONTINUOUS
 62
           3
100
AcDbLine
 10
-14085.864466859195
 20
-7532.865497603791
 30
0.0
 11
-14091.943189717555
 21
-7532.449812793571
 31
0.0
  0
LINE
  5
1C7
100
AcDbEntity
  8
Frei
  6
CONTINUOUS
 62
           3
100
AcDbLine
 10
-14085.864466859195
 20
-7532.865497603791
 30
0.0
 11
-14085.224930305871
 21
-7532.30783014288
 31
0.0
  0
LINE
  5
1C8
100
AcDbEntity
  8
Frei
  6
CONTINUOUS
 62
           3
100
AcDbLine
 10
-14091.167204676871
 20
-7529.89680530893
 30
0.0
 11
-14074.40634847754
 21
-7531.042972602732
 31
0.0
  0
LINE
  5
1C9
100
AcDbEntity
  8
Frei
  6
CONTINUOUS
 62
           3
100
AcDbLine
 10
-14091.303653164228
 20
-7531.892145332658
 30
0.0
 11
-14085.224930305871
 21
-7532.30783014288
 31
0.0
  0
LINE
  5
1CA
100
AcDbEntity
  8
Frei
  6
CONTINUOUS
 62
           3
100
AcDbLine
 10
-14074.039708898928
 20
-7534.47598518928
 30
0.0
 11
-14074.679245452255
 21
-7535.033652650191
 31
0.0
  0
LINE
  5
1CB
100
AcDbEntity
  8
Frei
  6
CONTINUOUS
 62
           3
100
AcDbLine
 10
-14091.997769112497
 20
-7533.247948803064
 30
0.0
 11
-14086.663523677767
 21
-7533.612723584356
 31
0.0
  0
LINE
  5
1CC
100
AcDbEntity
  8
Frei
  6
CONTINUOUS
 62
           3
100
AcDbLine
 10
-14091.440101651586
 20
-7533.887485356388
 30
0.0
 11
-14091.997769112497
 21
-7533.247948803064
 31
0.0
  0
LINE
  5
1CD
100
AcDbEntity
  8
Frei
  6
CONTINUOUS
 62
           3
100
AcDbLine
 10
-14091.943189717555
 20
-7532.449812793571
 30
0.0
 11
-14091.303653164228
 21
-7531.892145332658
 31
0.0
  0
LINE
  5
1CE
100
AcDbEntity
  8
Frei
  6
CONTINUOUS
 62
           3
100
AcDbLine
 10
-14073.985129503986
 20
-7533.677849179789
 30
0.0
 11
-14080.063852362344
 21
-7533.262164369569
 31
0.0
  0
LINE
  5
1CF
100
AcDbEntity
  8
Frei
  6
CONTINUOUS
 62
           3
100
AcDbLine
 10
-14074.542796964897
 20
-7533.038312626461
 30
0.0
 11
-14073.985129503986
 21
-7533.677849179789
 31
0.0
  0
LINE
  5
1D0
100
AcDbEntity
  8
Frei
  6
CONTINUOUS
 62
           3
100
AcDbLine
 10
-14073.903260411571
 20
-7532.480645165551
 30
0.0
 11
-14074.542796964897
 21
-7533.038312626461
 31
0.0
  0
LINE
  5
1D1
100
AcDbEntity
  8
Frei
  6
CONTINUOUS
 62
           3
100
AcDbLine
 10
-14091.861320625139
 20
-7531.252608779334
 30
0.0
 11
-14085.78259776678
 21
-7531.668293589553
 31
0.0
  0
LINE
  5
1D2
100
AcDbEntity
  8
Frei
  6
CONTINUOUS
 62
           3
100
AcDbLine
 10
-14091.303653164228
 20
-7531.892145332658
 30
0.0
 11
-14091.861320625139
 21
-7531.252608779334
 31
0.0
  0
LINE
  5
1D3
100
AcDbEntity
  8
Frei
  6
CONTINUOUS
 62
           3
100
AcDbLine
 10
-14091.806741230197
 20
-7530.454472769841
 30
0.0
 11
-14091.167204676871
 21
-7529.89680530893
 31
0.0
  0
LINE
  5
1D4
100
AcDbEntity
  8
Frei
  6
CONTINUOUS
 62
           3
100
AcDbLine
 10
-14073.848681016629
 20
-7531.682509156059
 30
0.0
 11
-14091.806741230197
 21
-7530.454472769841
 31
0.0
  0
LINE
  5
1D5
100
AcDbEntity
  8
Frei
  6
CONTINUOUS
 62
           3
100
AcDbLine
 10
-14074.40634847754
 20
-7531.042972602732
 30
0.0
 11
-14073.848681016629
 21
-7531.682509156059
 31
0.0
  0
LINE
  5
1D6
100
AcDbEntity
  8
Frei
  6
CONTINUOUS
 62
           3
100
AcDbLine
 10
-14073.766811924213
 20
-7530.485305141821
 30
0.0
 11
-14074.40634847754
 21
-7531.042972602732
 31
0.0
  0
LINE
  5
1D7
100
AcDbEntity
  8
Frei
  6
CONTINUOUS
 62
           3
100
AcDbLine
 10
-14091.724872137782
 20
-7529.257268755604
 30
0.0
 11
-14073.766811924213
 21
-7530.485305141821
 31
0.0
  0
LINE
  5
1D8
100
AcDbEntity
  8
Frei
  6
CONTINUOUS
 62
           3
100
AcDbLine
 10
-14091.167204676871
 20
-7529.89680530893
 30
0.0
 11
-14091.724872137782
 21
-7529.257268755604
 31
0.0
  0
LINE
  5
1D9
100
AcDbEntity
  8
Frei
  6
CONTINUOUS
 62
           3
100
AcDbLine
 10
-14074.269899990182
 20
-7529.047632579002
 30
0.0
 11
-14091.030756189513
 21
-7527.9014652852
 31
0.0
  0
LINE
  5
1DA
100
AcDbEntity
  8
Frei
  6
CONTINUOUS
 62
           3
100
AcDbLine
 10
-14091.67029274284
 20
-7528.459132746113
 30
0.0
 11
-14091.030756189513
 21
-7527.9014652852
 31
0.0
  0
LINE
  5
1DB
100
AcDbEntity
  8
Frei
  6
CONTINUOUS
 62
           3
100
AcDbLine
 10
-14073.712232529271
 20
-7529.687169132329
 30
0.0
 11
-14091.67029274284
 21
-7528.459132746113
 31
0.0
  0
LINE
  5
1DC
100
AcDbEntity
  8
Frei
  6
CONTINUOUS
 62
           3
100
AcDbLine
 10
-14074.269899990182
 20
-7529.047632579002
 30
0.0
 11
-14073.712232529271
 21
-7529.687169132329
 31
0.0
  0
LINE
  5
1DD
100
AcDbEntity
  8
Frei
  6
CONTINUOUS
 62
           3
100
AcDbLine
 10
-14073.630363436858
 20
-7528.489965118091
 30
0.0
 11
-14074.269899990182
 21
-7529.047632579002
 31
0.0
  0
LINE
  5
1DE
100
AcDbEntity
  8
Frei
  6
CONTINUOUS
 62
           3
100
AcDbLine
 10
-14091.588423650426
 20
-7527.261928731874
 30
0.0
 11
-14073.630363436858
 21
-7528.489965118091
 31
0.0
  0
LINE
  5
1DF
100
AcDbEntity
  8
Frei
  6
CONTINUOUS
 62
           3
100
AcDbLine
 10
-14091.030756189513
 20
-7527.9014652852
 30
0.0
 11
-14091.588423650426
 21
-7527.261928731874
 31
0.0
  0
LINE
  5
1E0
100
AcDbEntity
  8
Frei
  6
CONTINUOUS
 62
           3
100
AcDbLine
 10
-14090.894307702156
 20
-7525.90612526147
 30
0.0
 11
-14074.133451502825
 21
-7527.052292555272
 31
0.0
  0
LINE
  5
1E1
100
AcDbEntity
  8
Frei
  6
CONTINUOUS
 62
           3
100
AcDbLine
 10
-14090.894307702156
 20
-7525.90612526147
 30
0.0
 11
-14091.533844255482
 21
-7526.463792722383
 31
0.0
  0
LINE
  5
1E2
100
AcDbEntity
  8
Frei
  6
CONTINUOUS
 62
           3
100
AcDbLine
 10
-14091.451975163069
 20
-7525.266588708146
 30
0.0
 11
-14090.894307702156
 21
-7525.90612526147
 31
0.0
  0
LINE
  5
1E3
100
AcDbEntity
  8
Frei
  6
CONTINUOUS
 62
           3
100
AcDbLine
 10
-14073.4939149495
 20
-7526.494625094361
 30
0.0
 11
-14091.451975163069
 21
-7525.266588708146
 31
0.0
  0
LINE
  5
1E4
100
AcDbEntity
  8
Frei
  6
CONTINUOUS
 62
           3
100
AcDbLine
 10
-14074.133451502825
 20
-7527.052292555272
 30
0.0
 11
-14073.4939149495
 21
-7526.494625094361
 31
0.0
  0
LINE
  5
1E5
100
AcDbEntity
  8
Frei
  6
CONTINUOUS
 62
           3
100
AcDbLine
 10
-14073.575784041914
 20
-7527.691829108599
 30
0.0
 11
-14074.133451502825
 21
-7527.052292555272
 31
0.0
  0
LINE
  5
1E6
100
AcDbEntity
  8
Frei
  6
CONTINUOUS
 62
           3
100
AcDbLine
 10
-14091.533844255482
 20
-7526.463792722383
 30
0.0
 11
-14073.575784041914
 21
-7527.691829108599
 31
0.0
  0
LINE
  5
1E7
100
AcDbEntity
  8
Frei
  6
CONTINUOUS
 62
           3
100
AcDbLine
 10
-13900.978871989288
 20
-7539.494623265016
 30
0.0
 11
-13883.020811775719
 21
-7540.722659651234
 31
0.0
  0
LINE
  5
1E8
100
AcDbEntity
  8
Frei
  6
CONTINUOUS
 62
           3
100
AcDbLine
 10
-13900.339335435963
 20
-7538.936955804104
 30
0.0
 11
-13900.978871989288
 21
-7539.494623265016
 31
0.0
  0
LINE
  5
1E9
100
AcDbEntity
  8
Frei
  6
CONTINUOUS
 62
           3
100
AcDbLine
 10
-13900.897002896874
 20
-7538.297419250779
 30
0.0
 11
-13900.339335435963
 21
-7538.936955804104
 31
0.0
  0
LINE
  5
1EA
100
AcDbEntity
  8
Frei
  6
CONTINUOUS
 62
           3
100
AcDbLine
 10
-13882.938942683306
 20
-7539.525455636996
 30
0.0
 11
-13900.897002896874
 21
-7538.297419250779
 31
0.0
  0
LINE
  5
1EB
100
AcDbEntity
  8
Frei
  6
CONTINUOUS
 62
           3
100
AcDbLine
 10
-13883.578479236632
 20
-7540.083123097906
 30
0.0
 11
-13882.938942683306
 21
-7539.525455636996
 31
0.0
  0
LINE
  5
1EC
100
AcDbEntity
  8
Frei
  6
CONTINUOUS
 62
           3
100
AcDbLine
 10
-13883.020811775719
 20
-7540.722659651234
 30
0.0
 11
-13883.578479236632
 21
-7540.083123097906
 31
0.0
  0
LINE
  5
1ED
100
AcDbEntity
  8
Frei
  6
CONTINUOUS
 62
           3
100
AcDbLine
 10
-13900.339335435963
 20
-7538.936955804104
 30
0.0
 11
-13883.578479236632
 21
-7540.083123097906
 31
0.0
  0
LINE
  5
1EE
100
AcDbEntity
  8
Frei
  6
CONTINUOUS
 62
           3
100
AcDbLine
 10
-13883.075391170662
 20
-7541.520795660725
 30
0.0
 11
-13883.71492772399
 21
-7542.078463121636
 31
0.0
  0
LINE
  5
1EF
100
AcDbEntity
  8
Frei
  6
CONTINUOUS
 62
           3
100
AcDbLine
 10
-13901.03345138423
 20
-7540.292759274507
 30
0.0
 11
-13883.075391170662
 21
-7541.520795660725
 31
0.0
  0
LINE
  5
1F0
100
AcDbEntity
  8
Frei
  6
CONTINUOUS
 62
           3
100
AcDbLine
 10
-13900.475783923321
 20
-7540.932295827834
 30
0.0
 11
-13901.03345138423
 21
-7540.292759274507
 31
0.0
  0
LINE
  5
1F1
100
AcDbEntity
  8
Frei
  6
CONTINUOUS
 62
           3
100
AcDbLine
 10
-13901.115320476645
 20
-7541.489963288746
 30
0.0
 11
-13900.475783923321
 21
-7540.932295827834
 31
0.0
  0
LINE
  5
1F2
100
AcDbEntity
  8
Frei
  6
CONTINUOUS
 62
           3
100
AcDbLine
 10
-13883.157260263077
 20
-7542.717999674964
 30
0.0
 11
-13901.115320476645
 21
-7541.489963288746
 31
0.0
  0
LINE
  5
1F3
100
AcDbEntity
  8
Frei
  6
CONTINUOUS
 62
           3
100
AcDbLine
 10
-13883.71492772399
 20
-7542.078463121636
 30
0.0
 11
-13883.157260263077
 21
-7542.717999674964
 31
0.0
  0
LINE
  5
1F4
100
AcDbEntity
  8
Frei
  6
CONTINUOUS
 62
           3
100
AcDbLine
 10
-13883.71492772399
 20
-7542.078463121636
 30
0.0
 11
-13900.475783923321
 21
-7540.932295827834
 31
0.0
  0
LINE
  5
1F5
100
AcDbEntity
  8
Frei
  6
CONTINUOUS
 62
           3
100
AcDbLine
 10
-13883.211839658019
 20
-7543.516135684455
 30
0.0
 11
-13883.851376211347
 21
-7544.073803145366
 31
0.0
  0
LINE
  5
1F6
100
AcDbEntity
  8
Frei
  6
CONTINUOUS
 62
           3
100
AcDbLine
 10
-13901.169899871587
 20
-7542.288099298237
 30
0.0
 11
-13883.211839658019
 21
-7543.516135684455
 31
0.0
  0
LINE
  5
1F7
100
AcDbEntity
  8
Frei
  6
CONTINUOUS
 62
           3
100
AcDbLine
 10
-13900.612232410678
 20
-7542.927635851564
 30
0.0
 11
-13901.169899871587
 21
-7542.288099298237
 31
0.0
  0
LINE
  5
1F8
100
AcDbEntity
  8
Frei
  6
CONTINUOUS
 62
           3
100
AcDbLine
 10
-13901.251768964003
 20
-7543.485303312475
 30
0.0
 11
-13900.612232410678
 21
-7542.927635851564
 31
0.0
  0
LINE
  5
1F9
100
AcDbEntity
  8
Frei
  6
CONTINUOUS
 62
           3
100
AcDbLine
 10
-13883.293708750434
 20
-7544.713339698692
 30
0.0
 11
-13901.251768964003
 21
-7543.485303312475
 31
0.0
  0
LINE
  5
1FA
100
AcDbEntity
  8
Frei
  6
CONTINUOUS
 62
           3
100
AcDbLine
 10
-13883.851376211347
 20
-7544.073803145366
 30
0.0
 11
-13883.293708750434
 21
-7544.713339698692
 31
0.0
  0
LINE
  5
1FB
100
AcDbEntity
  8
Frei
  6
CONTINUOUS
 62
           3
100
AcDbLine
 10
-13883.348288145377
 20
-7545.511475708185
 30
0.0
 11
-13883.987824698705
 21
-7546.069143169096
 31
0.0
  0
LINE
  5
1FC
100
AcDbEntity
  8
Frei
  6
CONTINUOUS
 62
           3
100
AcDbLine
 10
-13889.427011003736
 20
-7545.095790897965
 30
0.0
 11
-13883.348288145377
 21
-7545.511475708185
 31
0.0
  0
LINE
  5
1FD
100
AcDbEntity
  8
Frei
  6
CONTINUOUS
 62
           3
100
AcDbLine
 10
-13900.748680898036
 20
-7544.922975875294
 30
0.0
 11
-13901.306348358945
 21
-7544.283439321967
 31
0.0
  0
LINE
  5
1FE
100
AcDbEntity
  8
Frei
  6
CONTINUOUS
 62
           3
100
AcDbLine
 10
-13901.38821745136
 20
-7545.480643336205
 30
0.0
 11
-13900.748680898036
 21
-7544.922975875294
 31
0.0
  0
LINE
  5
1FF
100
AcDbEntity
  8
Frei
  6
CONTINUOUS
 62
           3
100
AcDbLine
 10
-13895.309494593002
 20
-7545.896328146426
 30
0.0
 11
-13901.38821745136
 21
-7545.480643336205
 31
0.0
  0
LINE
  5
200
100
AcDbEntity
  8
Frei
  6
CONTINUOUS
 62
           3
100
AcDbLine
 10
-13883.987824698705
 20
-7546.069143169096
 30
0.0
 11
-13883.430157237792
 21
-7546.708679722422
 31
0.0
  0
LINE
  5
201
100
AcDbEntity
  8
Frei
  6
CONTINUOUS
 62
           3
100
AcDbLine
 10
-13883.484736632734
 20
-7547.506815731915
 30
0.0
 11
-13884.124273186062
 21
-7548.064483192826
 31
0.0
  0
LINE
  5
202
100
AcDbEntity
  8
Frei
  6
CONTINUOUS
 62
           3
100
AcDbLine
 10
-13888.818982067465
 20
-7547.142040950621
 30
0.0
 11
-13883.484736632734
 21
-7547.506815731915
 31
0.0
  0
LINE
  5
203
100
AcDbEntity
  8
Frei
  6
CONTINUOUS
 62
           3
100
AcDbLine
 10
-13900.885129385393
 20
-7546.918315899024
 30
0.0
 11
-13901.442796846302
 21
-7546.278779345697
 31
0.0
  0
LINE
  5
204
100
AcDbEntity
  8
Frei
  6
CONTINUOUS
 62
           3
100
AcDbLine
 10
-13890.066547557062
 20
-7545.653458358876
 30
0.0
 11
-13883.987824698705
 21
-7546.069143169096
 31
0.0
  0
LINE
  5
205
100
AcDbEntity
  8
Frei
  6
CONTINUOUS
 62
           3
100
AcDbLine
 10
-13900.612232410678
 20
-7542.927635851564
 30
0.0
 11
-13883.851376211347
 21
-7544.073803145366
 31
0.0
  0
LINE
  5
206
100
AcDbEntity
  8
Frei
  6
CONTINUOUS
 62
           3
100
AcDbLine
 10
-13890.066547557062
 20
-7545.653458358876
 30
0.0
 11
-13889.508880096151
 21
-7546.292994912203
 31
0.0
  0
LINE
  5
207
100
AcDbEntity
  8
Frei
  6
CONTINUOUS
 62
           3
100
AcDbLine
 10
-13883.430157237792
 20
-7546.708679722422
 30
0.0
 11
-13889.508880096151
 21
-7546.292994912203
 31
0.0
  0
LINE
  5
208
100
AcDbEntity
  8
Frei
  6
CONTINUOUS
 62
           3
100
AcDbLine
 10
-13889.427011003736
 20
-7545.095790897965
 30
0.0
 11
-13890.066547557062
 21
-7545.653458358876
 31
0.0
  0
LINE
  5
209
100
AcDbEntity
  8
Frei
  6
CONTINUOUS
 62
           3
100
AcDbLine
 10
-13889.458518620791
 20
-7547.699708411532
 30
0.0
 11
-13888.818982067465
 21
-7547.142040950621
 31
0.0
  0
LINE
  5
20A
100
AcDbEntity
  8
Frei
  6
CONTINUOUS
 62
           3
100
AcDbLine
 10
-13896.108551411575
 20
-7546.643554126991
 30
0.0
 11
-13895.550883950664
 21
-7547.283090680316
 31
0.0
  0
LINE
  5
20B
100
AcDbEntity
  8
Frei
  6
CONTINUOUS
 62
           3
100
AcDbLine
 10
-13901.442796846302
 20
-7546.278779345697
 30
0.0
 11
-13896.108551411575
 21
-7546.643554126991
 31
0.0
  0
LINE
  5
20C
100
AcDbEntity
  8
Frei
  6
CONTINUOUS
 62
           3
100
AcDbLine
 10
-13894.669958039676
 20
-7545.338660685513
 30
0.0
 11
-13895.309494593002
 21
-7545.896328146426
 31
0.0
  0
LINE
  5
20D
100
AcDbEntity
  8
Frei
  6
CONTINUOUS
 62
           3
100
AcDbLine
 10
-13900.748680898036
 20
-7544.922975875294
 30
0.0
 11
-13894.669958039676
 21
-7545.338660685513
 31
0.0
  0
LINE
  5
20E
100
AcDbEntity
  8
Frei
  6
CONTINUOUS
 62
           3
100
AcDbLine
 10
-13895.227625500587
 20
-7544.699124132188
 30
0.0
 11
-13894.669958039676
 21
-7545.338660685513
 31
0.0
  0
LINE
  5
20F
100
AcDbEntity
  8
Frei
  6
CONTINUOUS
 62
           3
100
AcDbLine
 10
-13901.306348358945
 20
-7544.283439321967
 30
0.0
 11
-13895.227625500587
 21
-7544.699124132188
 31
0.0
  0
LINE
  5
210
100
AcDbEntity
  8
Frei
  6
CONTINUOUS
 62
           3
100
AcDbLine
 10
-13883.430157237792
 20
-7546.708679722422
 30
0.0
 11
-13883.348288145377
 21
-7545.511475708185
 31
0.0
  0
LINE
  5
211
100
AcDbEntity
  8
Frei
  6
CONTINUOUS
 62
           3
100
AcDbLine
 10
-13883.211839658019
 20
-7543.516135684455
 30
0.0
 11
-13883.293708750434
 21
-7544.713339698692
 31
0.0
  0
LINE
  5
212
100
AcDbEntity
  8
Frei
  6
CONTINUOUS
 62
           3
100
AcDbLine
 10
-13883.075391170662
 20
-7541.520795660725
 30
0.0
 11
-13883.157260263077
 21
-7542.717999674964
 31
0.0
  0
LINE
  5
213
100
AcDbEntity
  8
Frei
  6
CONTINUOUS
 62
           3
100
AcDbLine
 10
-13882.938942683306
 20
-7539.525455636996
 30
0.0
 11
-13883.020811775719
 21
-7540.722659651234
 31
0.0
  0
LINE
  5
214
100
AcDbEntity
  8
Frei
  6
CONTINUOUS
 62
           3
100
AcDbLine
 10
-13883.525671178943
 20
-7548.105417739032
 30
0.0
 11
-13883.484736632734
 21
-7547.506815731915
 31
0.0
  0
LINE
  5
215
100
AcDbEntity
  8
Frei
  6
CONTINUOUS
 62
           3
100
AcDbLine
 10
-13901.442796846302
 20
-7546.278779345697
 30
0.0
 11
-13901.483731392511
 21
-7546.877381352815
 31
0.0
  0
LINE
  5
216
100
AcDbEntity
  8
Frei
  6
CONTINUOUS
 62
           3
100
AcDbLine
 10
-13901.306348358945
 20
-7544.283439321967
 30
0.0
 11
-13901.38821745136
 21
-7545.480643336205
 31
0.0
  0
LINE
  5
217
100
AcDbEntity
  8
Frei
  6
CONTINUOUS
 62
           3
100
AcDbLine
 10
-13901.169899871587
 20
-7542.288099298237
 30
0.0
 11
-13901.251768964003
 21
-7543.485303312475
 31
0.0
  0
LINE
  5
218
100
AcDbEntity
  8
Frei
  6
CONTINUOUS
 62
           3
100
AcDbLine
 10
-13901.03345138423
 20
-7540.292759274507
 30
0.0
 11
-13901.115320476645
 21
-7541.489963288746
 31
0.0
  0
LINE
  5
219
100
AcDbEntity
  8
Frei
  6
CONTINUOUS
 62
           3
100
AcDbLine
 10
-13900.897002896874
 20
-7538.297419250779
 30
0.0
 11
-13900.978871989288
 21
-7539.494623265016
 31
0.0
  0
LINE
  5
21A
100
AcDbEntity
  8
Frei
  6
CONTINUOUS
 62
           3
100
AcDbLine
 10
-13901.988590795732
 20
-7554.260139440616
 30
0.0
 11
-13902.070459888148
 21
-7555.457343454855
 31
0.0
  0
LINE
  5
21B
100
AcDbEntity
  8
Frei
  6
CONTINUOUS
 62
           3
100
AcDbLine
 10
-13901.852142308375
 20
-7552.264799416887
 30
0.0
 11
-13901.93401140079
 21
-7553.462003431125
 31
0.0
  0
LINE
  5
21C
100
AcDbEntity
  8
Frei
  6
CONTINUOUS
 62
           3
100
AcDbLine
 10
-13901.715693821017
 20
-7550.269459393157
 30
0.0
 11
-13901.797562913433
 21
-7551.466663407395
 31
0.0
  0
LINE
  5
21D
100
AcDbEntity
  8
Frei
  6
CONTINUOUS
 62
           3
100
AcDbLine
 10
-13901.57924533366
 20
-7548.274119369427
 30
0.0
 11
-13901.661114426075
 21
-7549.471323383665
 31
0.0
  0
LINE
  5
21E
100
AcDbEntity
  8
Frei
  6
CONTINUOUS
 62
           3
100
AcDbLine
 10
-13901.483731392511
 20
-7546.877381352815
 30
0.0
 11
-13901.524665938718
 21
-7547.475983359935
 31
0.0
  0
LINE
  5
21F
100
AcDbEntity
  8
Frei
  6
CONTINUOUS
 62
           3
100
AcDbLine
 10
-13883.566605725149
 20
-7548.704019746152
 30
0.0
 11
-13883.525671178943
 21
-7548.105417739032
 31
0.0
  0
LINE
  5
220
100
AcDbEntity
  8
Frei
  6
CONTINUOUS
 62
           3
100
AcDbLine
 10
-13884.030530582164
 20
-7555.488175826833
 30
0.0
 11
-13884.112399674579
 21
-7556.685379841072
 31
0.0
  0
LINE
  5
221
100
AcDbEntity
  8
Frei
  6
CONTINUOUS
 62
           3
100
AcDbLine
 10
-13883.894082094806
 20
-7553.492835803105
 30
0.0
 11
-13883.975951187222
 21
-7554.690039817342
 31
0.0
  0
LINE
  5
222
100
AcDbEntity
  8
Frei
  6
CONTINUOUS
 62
           3
100
AcDbLine
 10
-13883.757633607449
 20
-7551.497495779375
 30
0.0
 11
-13883.839502699864
 21
-7552.694699793612
 31
0.0
  0
LINE
  5
223
100
AcDbEntity
  8
Frei
  6
CONTINUOUS
 62
           3
100
AcDbLine
 10
-13883.703054212507
 20
-7550.699359769882
 30
0.0
 11
-13883.621185120091
 21
-7549.502155755645
 31
0.0
  0
LINE
  5
224
100
AcDbEntity
  8
Frei
  6
CONTINUOUS
 62
           3
100
AcDbLine
 10
-13895.582391567717
 20
-7549.887008193886
 30
0.0
 11
-13901.661114426075
 21
-7549.471323383665
 31
0.0
  0
LINE
  5
225
100
AcDbEntity
  8
Frei
  6
CONTINUOUS
 62
           3
100
AcDbLine
 10
-13894.942855014391
 20
-7549.329340732973
 30
0.0
 11
-13895.582391567717
 21
-7549.887008193886
 31
0.0
  0
LINE
  5
226
100
AcDbEntity
  8
Frei
  6
CONTINUOUS
 62
           3
100
AcDbLine
 10
-13894.942855014391
 20
-7549.329340732973
 30
0.0
 11
-13901.021577872751
 21
-7548.913655922754
 31
0.0
  0
LINE
  5
227
100
AcDbEntity
  8
Frei
  6
CONTINUOUS
 62
           3
100
AcDbLine
 10
-13895.500522475302
 20
-7548.689804179647
 30
0.0
 11
-13894.942855014391
 21
-7549.329340732973
 31
0.0
  0
LINE
  5
228
100
AcDbEntity
  8
Frei
  6
CONTINUOUS
 62
           3
100
AcDbLine
 10
-13896.19042050399
 20
-7547.840758141228
 30
0.0
 11
-13901.524665938718
 21
-7547.475983359935
 31
0.0
  0
LINE
  5
229
100
AcDbEntity
  8
Frei
  6
CONTINUOUS
 62
           3
100
AcDbLine
 10
-13895.550883950664
 20
-7547.283090680316
 30
0.0
 11
-13896.19042050399
 21
-7547.840758141228
 31
0.0
  0
LINE
  5
22A
100
AcDbEntity
  8
Frei
  6
CONTINUOUS
 62
           3
100
AcDbLine
 10
-13889.458518620791
 20
-7547.699708411532
 30
0.0
 11
-13884.124273186062
 21
-7548.064483192826
 31
0.0
  0
LINE
  5
22B
100
AcDbEntity
  8
Frei
  6
CONTINUOUS
 62
           3
100
AcDbLine
 10
-13888.90085115988
 20
-7548.339244964858
 30
0.0
 11
-13889.458518620791
 21
-7547.699708411532
 31
0.0
  0
LINE
  5
22C
100
AcDbEntity
  8
Frei
  6
CONTINUOUS
 62
           3
100
AcDbLine
 10
-13890.339444531777
 20
-7549.644138406336
 30
0.0
 11
-13889.781777070866
 21
-7550.283674959663
 31
0.0
  0
LINE
  5
22D
100
AcDbEntity
  8
Frei
  6
CONTINUOUS
 62
           3
100
AcDbLine
 10
-13889.699907978451
 20
-7549.086470945424
 30
0.0
 11
-13883.621185120091
 21
-7549.502155755645
 31
0.0
  0
LINE
  5
22E
100
AcDbEntity
  8
Frei
  6
CONTINUOUS
 62
           3
100
AcDbLine
 10
-13889.699907978451
 20
-7549.086470945424
 30
0.0
 11
-13890.339444531777
 21
-7549.644138406336
 31
0.0
  0
LINE
  5
22F
100
AcDbEntity
  8
Frei
  6
CONTINUOUS
 62
           3
100
AcDbLine
 10
-13884.397170160777
 20
-7552.055163240286
 30
0.0
 11
-13901.158026360108
 21
-7550.908995946484
 31
0.0
  0
LINE
  5
230
100
AcDbEntity
  8
Frei
  6
CONTINUOUS
 62
           3
100
AcDbLine
 10
-13884.26072167342
 20
-7550.059823216556
 30
0.0
 11
-13890.339444531777
 21
-7549.644138406336
 31
0.0
  0
LINE
  5
231
100
AcDbEntity
  8
Frei
  6
CONTINUOUS
 62
           3
100
AcDbLine
 10
-13900.885129385393
 20
-7546.918315899024
 30
0.0
 11
-13895.550883950664
 21
-7547.283090680316
 31
0.0
  0
LINE
  5
232
100
AcDbEntity
  8
Frei
  6
CONTINUOUS
 62
           3
100
AcDbLine
 10
-13901.524665938718
 20
-7547.475983359935
 30
0.0
 11
-13900.885129385393
 21
-7546.918315899024
 31
0.0
  0
LINE
  5
233
100
AcDbEntity
  8
Frei
  6
CONTINUOUS
 62
           3
100
AcDbLine
 10
-13883.566605725149
 20
-7548.704019746152
 30
0.0
 11
-13888.90085115988
 21
-7548.339244964858
 31
0.0
  0
LINE
  5
234
100
AcDbEntity
  8
Frei
  6
CONTINUOUS
 62
           3
100
AcDbLine
 10
-13884.124273186062
 20
-7548.064483192826
 30
0.0
 11
-13883.566605725149
 21
-7548.704019746152
 31
0.0
  0
LINE
  5
235
100
AcDbEntity
  8
Frei
  6
CONTINUOUS
 62
           3
100
AcDbLine
 10
-13883.621185120091
 20
-7549.502155755645
 30
0.0
 11
-13884.26072167342
 21
-7550.059823216556
 31
0.0
  0
LINE
  5
236
100
AcDbEntity
  8
Frei
  6
CONTINUOUS
 62
           3
100
AcDbLine
 10
-13901.57924533366
 20
-7548.274119369427
 30
0.0
 11
-13895.500522475302
 21
-7548.689804179647
 31
0.0
  0
LINE
  5
237
100
AcDbEntity
  8
Frei
  6
CONTINUOUS
 62
           3
100
AcDbLine
 10
-13901.021577872751
 20
-7548.913655922754
 30
0.0
 11
-13901.57924533366
 21
-7548.274119369427
 31
0.0
  0
LINE
  5
238
100
AcDbEntity
  8
Frei
  6
CONTINUOUS
 62
           3
100
AcDbLine
 10
-13901.661114426075
 20
-7549.471323383665
 30
0.0
 11
-13901.021577872751
 21
-7548.913655922754
 31
0.0
  0
LINE
  5
239
100
AcDbEntity
  8
Frei
  6
CONTINUOUS
 62
           3
100
AcDbLine
 10
-13883.703054212507
 20
-7550.699359769882
 30
0.0
 11
-13889.781777070866
 21
-7550.283674959663
 31
0.0
  0
LINE
  5
23A
100
AcDbEntity
  8
Frei
  6
CONTINUOUS
 62
           3
100
AcDbLine
 10
-13884.26072167342
 20
-7550.059823216556
 30
0.0
 11
-13883.703054212507
 21
-7550.699359769882
 31
0.0
  0
LINE
  5
23B
100
AcDbEntity
  8
Frei
  6
CONTINUOUS
 62
           3
100
AcDbLine
 10
-13883.757633607449
 20
-7551.497495779375
 30
0.0
 11
-13884.397170160777
 21
-7552.055163240286
 31
0.0
  0
LINE
  5
23C
100
AcDbEntity
  8
Frei
  6
CONTINUOUS
 62
           3
100
AcDbLine
 10
-13901.715693821017
 20
-7550.269459393157
 30
0.0
 11
-13883.757633607449
 21
-7551.497495779375
 31
0.0
  0
LINE
  5
23D
100
AcDbEntity
  8
Frei
  6
CONTINUOUS
 62
           3
100
AcDbLine
 10
-13901.158026360108
 20
-7550.908995946484
 30
0.0
 11
-13901.715693821017
 21
-7550.269459393157
 31
0.0
  0
LINE
  5
23E
100
AcDbEntity
  8
Frei
  6
CONTINUOUS
 62
           3
100
AcDbLine
 10
-13901.797562913433
 20
-7551.466663407395
 30
0.0
 11
-13901.158026360108
 21
-7550.908995946484
 31
0.0
  0
LINE
  5
23F
100
AcDbEntity
  8
Frei
  6
CONTINUOUS
 62
           3
100
AcDbLine
 10
-13883.839502699864
 20
-7552.694699793612
 30
0.0
 11
-13901.797562913433
 21
-7551.466663407395
 31
0.0
  0
LINE
  5
240
100
AcDbEntity
  8
Frei
  6
CONTINUOUS
 62
           3
100
AcDbLine
 10
-13884.397170160777
 20
-7552.055163240286
 30
0.0
 11
-13883.839502699864
 21
-7552.694699793612
 31
0.0
  0
LINE
  5
241
100
AcDbEntity
  8
Frei
  6
CONTINUOUS
 62
           3
100
AcDbLine
 10
-13901.294474847466
 20
-7552.904335970212
 30
0.0
 11
-13884.533618648135
 21
-7554.050503264014
 31
0.0
  0
LINE
  5
242
100
AcDbEntity
  8
Frei
  6
CONTINUOUS
 62
           3
100
AcDbLine
 10
-13883.894082094806
 20
-7553.492835803105
 30
0.0
 11
-13884.533618648135
 21
-7554.050503264014
 31
0.0
  0
LINE
  5
243
100
AcDbEntity
  8
Frei
  6
CONTINUOUS
 62
           3
100
AcDbLine
 10
-13901.852142308375
 20
-7552.264799416887
 30
0.0
 11
-13883.894082094806
 21
-7553.492835803105
 31
0.0
  0
LINE
  5
244
100
AcDbEntity
  8
Frei
  6
CONTINUOUS
 62
           3
100
AcDbLine
 10
-13901.294474847466
 20
-7552.904335970212
 30
0.0
 11
-13901.852142308375
 21
-7552.264799416887
 31
0.0
  0
LINE
  5
245
100
AcDbEntity
  8
Frei
  6
CONTINUOUS
 62
           3
100
AcDbLine
 10
-13901.93401140079
 20
-7553.462003431125
 30
0.0
 11
-13901.294474847466
 21
-7552.904335970212
 31
0.0
  0
LINE
  5
246
100
AcDbEntity
  8
Frei
  6
CONTINUOUS
 62
           3
100
AcDbLine
 10
-13883.975951187222
 20
-7554.690039817342
 30
0.0
 11
-13901.93401140079
 21
-7553.462003431125
 31
0.0
  0
LINE
  5
247
100
AcDbEntity
  8
Frei
  6
CONTINUOUS
 62
           3
100
AcDbLine
 10
-13884.533618648135
 20
-7554.050503264014
 30
0.0
 11
-13883.975951187222
 21
-7554.690039817342
 31
0.0
  0
LINE
  5
248
100
AcDbEntity
  8
Frei
  6
CONTINUOUS
 62
           3
100
AcDbLine
 10
-13884.670067135492
 20
-7556.045843287744
 30
0.0
 11
-13901.430923334823
 21
-7554.899675993942
 31
0.0
  0
LINE
  5
249
100
AcDbEntity
  8
Frei
  6
CONTINUOUS
 62
           3
100
AcDbLine
 10
-13884.670067135492
 20
-7556.045843287744
 30
0.0
 11
-13884.030530582164
 21
-7555.488175826833
 31
0.0
  0
LINE
  5
24A
100
AcDbEntity
  8
Frei
  6
CONTINUOUS
 62
           3
100
AcDbLine
 10
-13884.112399674579
 20
-7556.685379841072
 30
0.0
 11
-13884.670067135492
 21
-7556.045843287744
 31
0.0
  0
LINE
  5
24B
100
AcDbEntity
  8
Frei
  6
CONTINUOUS
 62
           3
100
AcDbLine
 10
-13902.070459888148
 20
-7555.457343454855
 30
0.0
 11
-13884.112399674579
 21
-7556.685379841072
 31
0.0
  0
LINE
  5
24C
100
AcDbEntity
  8
Frei
  6
CONTINUOUS
 62
           3
100
AcDbLine
 10
-13901.430923334823
 20
-7554.899675993942
 30
0.0
 11
-13902.070459888148
 21
-7555.457343454855
 31
0.0
  0
LINE
  5
24D
100
AcDbEntity
  8
Frei
  6
CONTINUOUS
 62
           3
100
AcDbLine
 10
-13901.988590795732
 20
-7554.260139440616
 30
0.0
 11
-13901.430923334823
 21
-7554.899675993942
 31
0.0
  0
LINE
  5
24E
100
AcDbEntity
  8
Frei
  6
CONTINUOUS
 62
           3
100
AcDbLine
 10
-13884.030530582164
 20
-7555.488175826833
 30
0.0
 11
-13901.988590795732
 21
-7554.260139440616
 31
0.0
  0
LINE
  5
24F
100
AcDbEntity
  8
Frei
  6
CONTINUOUS
 62
           7
100
AcDbLine
 10
-13858.169598602381
 20
-7561.98646143386
 30
0.0
 11
-13857.504709867941
 21
-7563.344387994432
 31
0.0
  0
LINE
  5
250
100
AcDbEntity
  8
Frei
  6
CONTINUOUS
 62
           7
100
AcDbLine
 10
-13858.169598602381
 20
-7561.98646143386
 30
0.0
 11
-13862.40372702913
 21
-7561.696916588253
 31
0.0
  0
LINE
  5
251
100
AcDbEntity
  8
Frei
  6
CONTINUOUS
 62
           7
100
AcDbLine
 10
-13857.236711173538
 20
-7559.425337431074
 30
0.0
 11
-13858.169598602381
 21
-7561.98646143386
 31
0.0
  0
LINE
  5
252
100
AcDbEntity
  8
Frei
  6
CONTINUOUS
 62
           7
100
AcDbLine
 10
-13857.539370035131
 20
-7552.770380635258
 30
0.0
 11
-13856.963814198823
 21
-7555.434657383616
 31
0.0
  0
LINE
  5
253
100
AcDbEntity
  8
Frei
  6
CONTINUOUS
 62
           7
100
AcDbLine
 10
-13857.539370035131
 20
-7552.770380635258
 30
0.0
 11
-13861.77349846188
 21
-7552.480835789651
 31
0.0
  0
LINE
  5
254
100
AcDbEntity
  8
Frei
  6
CONTINUOUS
 62
           7
100
AcDbLine
 10
-13856.695815504423
 20
-7551.515606820258
 30
0.0
 11
-13857.539370035131
 21
-7552.770380635258
 31
0.0
  0
LINE
  5
255
100
AcDbEntity
  8
Frei
  6
CONTINUOUS
 62
           7
100
AcDbLine
 10
-13857.641158355298
 20
-7565.339728018162
 30
0.0
 11
-13858.484712886007
 21
-7566.594501833162
 31
0.0
  0
LINE
  5
256
100
AcDbEntity
  8
Frei
  6
CONTINUOUS
 62
           7
100
AcDbLine
 10
-13857.224255751506
 20
-7548.162340235958
 30
0.0
 11
-13861.458384178255
 21
-7547.872795390349
 31
0.0
  0
LINE
  5
257
100
AcDbEntity
  8
Frei
  6
CONTINUOUS
 62
           7
100
AcDbLine
 10
-13857.224255751506
 20
-7548.162340235958
 30
0.0
 11
-13856.559367017066
 21
-7549.52026679653
 31
0.0
  0
LINE
  5
258
100
AcDbEntity
  8
Frei
  6
CONTINUOUS
 62
           7
100
AcDbLine
 10
-13862.629508414622
 20
-7564.998606799769
 30
0.0
 11
-13862.718841312757
 21
-7566.304956987553
 31
0.0
  0
LINE
  5
259
100
AcDbEntity
  8
Frei
  6
CONTINUOUS
 62
           7
100
AcDbLine
 10
-13857.641158355298
 20
-7565.339728018162
 30
0.0
 11
-13857.504709867941
 21
-7563.344387994432
 31
0.0
  0
LINE
  5
25A
100
AcDbEntity
  8
Frei
  6
CONTINUOUS
 62
           7
100
AcDbLine
 10
-13857.641158355298
 20
-7565.339728018162
 30
0.0
 11
-13862.629508414622
 21
-7564.998606799769
 31
0.0
  0
LINE
  5
25B
100
AcDbEntity
  8
Frei
  6
CONTINUOUS
 62
           7
100
AcDbLine
 10
-13862.493059927265
 20
-7563.003266776039
 30
0.0
 11
-13862.629508414622
 21
-7564.998606799769
 31
0.0
  0
LINE
  5
25C
100
AcDbEntity
  8
Frei
  6
CONTINUOUS
 62
           7
100
AcDbLine
 10
-13857.504709867941
 20
-7563.344387994432
 30
0.0
 11
-13857.236711173538
 21
-7559.425337431074
 31
0.0
  0
LINE
  5
25D
100
AcDbEntity
  8
Frei
  6
CONTINUOUS
 62
           7
100
AcDbLine
 10
-13857.504709867941
 20
-7563.344387994432
 30
0.0
 11
-13862.493059927265
 21
-7563.003266776039
 31
0.0
  0
LINE
  5
25E
100
AcDbEntity
  8
Frei
  6
CONTINUOUS
 62
           7
100
AcDbLine
 10
-13862.40372702913
 20
-7561.696916588253
 30
0.0
 11
-13862.493059927265
 21
-7563.003266776039
 31
0.0
  0
LINE
  5
25F
100
AcDbEntity
  8
Frei
  6
CONTINUOUS
 62
           7
100
AcDbLine
 10
-13862.225061232863
 20
-7559.084216212681
 30
0.0
 11
-13862.40372702913
 21
-7561.696916588253
 31
0.0
  0
LINE
  5
260
100
AcDbEntity
  8
Frei
  6
CONTINUOUS
 62
           7
100
AcDbLine
 10
-13857.236711173538
 20
-7559.425337431074
 30
0.0
 11
-13856.963814198823
 21
-7555.434657383616
 31
0.0
  0
LINE
  5
261
100
AcDbEntity
  8
Frei
  6
CONTINUOUS
 62
           7
100
AcDbLine
 10
-13857.236711173538
 20
-7559.425337431074
 30
0.0
 11
-13862.225061232863
 21
-7559.084216212681
 31
0.0
  0
LINE
  5
262
100
AcDbEntity
  8
Frei
  6
CONTINUOUS
 62
           7
100
AcDbLine
 10
-13861.952164258148
 20
-7555.093536165221
 30
0.0
 11
-13862.225061232863
 21
-7559.084216212681
 31
0.0
  0
LINE
  5
263
100
AcDbEntity
  8
Frei
  6
CONTINUOUS
 62
           7
100
AcDbLine
 10
-13856.963814198823
 20
-7555.434657383616
 30
0.0
 11
-13856.695815504423
 21
-7551.515606820258
 31
0.0
  0
LINE
  5
264
100
AcDbEntity
  8
Frei
  6
CONTINUOUS
 62
           7
100
AcDbLine
 10
-13856.963814198823
 20
-7555.434657383616
 30
0.0
 11
-13861.952164258148
 21
-7555.093536165221
 31
0.0
  0
LINE
  5
265
100
AcDbEntity
  8
Frei
  6
CONTINUOUS
 62
           7
100
AcDbLine
 10
-13861.77349846188
 20
-7552.480835789651
 30
0.0
 11
-13861.952164258148
 21
-7555.093536165221
 31
0.0
  0
LINE
  5
266
100
AcDbEntity
  8
Frei
  6
CONTINUOUS
 62
           7
100
AcDbLine
 10
-13861.684165563747
 20
-7551.174485601865
 30
0.0
 11
-13861.77349846188
 21
-7552.480835789651
 31
0.0
  0
LINE
  5
267
100
AcDbEntity
  8
Frei
  6
CONTINUOUS
 62
           7
100
AcDbLine
 10
-13856.695815504423
 20
-7551.515606820258
 30
0.0
 11
-13856.559367017066
 21
-7549.52026679653
 31
0.0
  0
LINE
  5
268
100
AcDbEntity
  8
Frei
  6
CONTINUOUS
 62
           7
100
AcDbLine
 10
-13856.695815504423
 20
-7551.515606820258
 30
0.0
 11
-13861.684165563747
 21
-7551.174485601865
 31
0.0
  0
LINE
  5
269
100
AcDbEntity
  8
Frei
  6
CONTINUOUS
 62
           7
100
AcDbLine
 10
-13861.54771707639
 20
-7549.179145578135
 30
0.0
 11
-13861.684165563747
 21
-7551.174485601865
 31
0.0
  0
LINE
  5
26A
100
AcDbEntity
  8
Frei
  6
CONTINUOUS
 62
           7
100
AcDbLine
 10
-13861.54771707639
 20
-7549.179145578135
 30
0.0
 11
-13856.559367017066
 21
-7549.52026679653
 31
0.0
  0
LINE
  5
26B
100
AcDbEntity
  8
Frei
  6
CONTINUOUS
 62
           7
100
AcDbLine
 10
-13862.718841312757
 20
-7566.304956987553
 30
0.0
 11
-13858.484712886007
 21
-7566.594501833162
 31
0.0
  0
LINE
  5
26C
100
AcDbEntity
  8
Frei
  6
CONTINUOUS
 62
           7
100
AcDbLine
 10
-13861.458384178255
 20
-7547.872795390349
 30
0.0
 11
-13861.54771707639
 21
-7549.179145578135
 31
0.0
  0
LINE
  5
26D
100
AcDbEntity
  8
Frei
  6
CONTINUOUS
 62
           7
100
AcDbLine
 10
-13906.284245677845
 20
-7514.474371267388
 30
0.0
 11
-13906.642422957158
 21
-7519.712138829678
 31
0.0
  0
LINE
  5
26E
100
AcDbEntity
  8
Frei
  6
CONTINUOUS
 62
           7
100
AcDbLine
 10
-13905.265310365801
 20
-7521.560397715961
 30
0.0
 11
-13905.026525512925
 21
-7518.068552674435
 31
0.0
  0
LINE
  5
26F
100
AcDbEntity
  8
Frei
  6
CONTINUOUS
 62
           7
100
AcDbLine
 10
-13906.019537577062
 20
-7521.508820961686
 30
0.0
 11
-13905.265310365801
 21
-7521.560397715961
 31
0.0
  0
LINE
  5
270
100
AcDbEntity
  8
Frei
  6
CONTINUOUS
 62
           7
100
AcDbLine
 10
-13905.026525512925
 20
-7518.068552674435
 30
0.0
 11
-13904.548955807175
 21
-7511.08486259138
 31
0.0
  0
LINE
  5
271
100
AcDbEntity
  8
Frei
  6
CONTINUOUS
 62
           7
100
AcDbLine
 10
-13905.780752724186
 20
-7518.016975920158
 30
0.0
 11
-13905.026525512925
 21
-7518.068552674435
 31
0.0
  0
LINE
  5
272
100
AcDbEntity
  8
Frei
  6
CONTINUOUS
 62
           7
100
AcDbLine
 10
-13904.548955807175
 20
-7511.08486259138
 30
0.0
 11
-13904.310170954299
 21
-7507.593017549852
 31
0.0
  0
LINE
  5
273
100
AcDbEntity
  8
Frei
  6
CONTINUOUS
 62
           7
100
AcDbLine
 10
-13905.303183018435
 20
-7511.033285837104
 30
0.0
 11
-13904.548955807175
 21
-7511.08486259138
 31
0.0
  0
LINE
  5
274
100
AcDbEntity
  8
Frei
  6
CONTINUOUS
 62
           7
100
AcDbLine
 10
-13904.310170954299
 20
-7507.593017549852
 30
0.0
 11
-13903.934937614065
 21
-7502.105832484596
 31
0.0
  0
LINE
  5
275
100
AcDbEntity
  8
Frei
  6
CONTINUOUS
 62
           7
100
AcDbLine
 10
-13905.064398165559
 20
-7507.541440795578
 30
0.0
 11
-13904.310170954299
 21
-7507.593017549852
 31
0.0
  0
LINE
  5
276
100
AcDbEntity
  8
Frei
  6
CONTINUOUS
 62
           7
100
AcDbLine
 10
-13867.486308266902
 20
-7562.733775041746
 30
0.0
 11
-13866.667617342757
 21
-7550.761734899368
 31
0.0
  0
LINE
  5
277
100
AcDbEntity
  8
Frei
  6
CONTINUOUS
 62
           2
100
AcDbLine
 10
-13862.497958207578
 20
-7563.074896260141
 30
0.0
 11
-13867.486308266902
 21
-7562.733775041746
 31
0.0
  0
LINE
  5
278
100
AcDbEntity
  8
Frei
  6
CONTINUOUS
 62
           7
100
AcDbLine
 10
-13866.667617342757
 20
-7550.761734899368
 30
0.0
 11
-13866.599393099079
 21
-7549.764064887504
 31
0.0
  0
LINE
  5
279
100
AcDbEntity
  8
Frei
  6
CONTINUOUS
 62
           2
100
AcDbLine
 10
-13861.679267283433
 20
-7551.102856117761
 30
0.0
 11
-13866.667617342757
 21
-7550.761734899368
 31
0.0
  0
LINE
  5
27A
100
AcDbEntity
  8
Frei
  6
CONTINUOUS
 62
           7
100
AcDbLine
 10
-13867.554532510581
 20
-7563.731445053612
 30
0.0
 11
-13867.486308266902
 21
-7562.733775041746
 31
0.0
  0
LINE
  5
27B
100
AcDbEntity
  8
Frei
  6
CONTINUOUS
 62
           7
100
AcDbLine
 10
-13867.554532510581
 20
-7563.731445053612
 30
0.0
 11
-13862.566182451257
 21
-7564.072566272005
 31
0.0
  0
LINE
  5
27C
100
AcDbEntity
  8
Frei
  6
CONTINUOUS
 62
           7
100
AcDbLine
 10
-13866.599393099079
 20
-7549.764064887504
 30
0.0
 11
-13866.56528097724
 21
-7549.26522988157
 31
0.0
  0
LINE
  5
27D
100
AcDbEntity
  8
Frei
  6
CONTINUOUS
 62
           7
100
AcDbLine
 10
-13866.599393099079
 20
-7549.764064887504
 30
0.0
 11
-13861.611043039755
 21
-7550.105186105897
 31
0.0
  0
LINE
  5
27E
100
AcDbEntity
  8
Frei
  6
CONTINUOUS
 62
           7
100
AcDbLine
 10
-13886.973282999896
 20
-7562.403521442033
 30
0.0
 11
-13905.96482796738
 21
-7561.104811671981
 31
0.0
  0
LINE
  5
27F
100
AcDbEntity
  8
Frei
  6
CONTINUOUS
 62
           7
100
AcDbLine
 10
-13879.663021140317
 20
-7564.908094153196
 30
0.0
 11
-13886.973282999896
 21
-7562.403521442033
 31
0.0
  0
LINE
  5
280
100
AcDbEntity
  8
Frei
  6
CONTINUOUS
 62
           7
100
AcDbLine
 10
-13905.482829918494
 20
-7532.070044962382
 30
0.0
 11
-13905.981664924428
 21
-7532.035932840543
 31
0.0
  0
LINE
  5
281
100
AcDbEntity
  8
Frei
  6
CONTINUOUS
 62
           7
100
AcDbLine
 10
-13905.482829918494
 20
-7532.070044962382
 30
0.0
 11
-13907.358996619658
 21
-7559.505970288665
 31
0.0
  0
LINE
  5
282
100
AcDbEntity
  8
Frei
  6
CONTINUOUS
 62
           7
100
AcDbLine
 10
-13886.973282999896
 20
-7562.403521442033
 30
0.0
 11
-13881.023077670758
 21
-7562.810417763949
 31
0.0
  0
LINE
  5
283
100
AcDbEntity
  8
Frei
  6
CONTINUOUS
 62
           7
100
AcDbLine
 10
-13877.548069586277
 20
-7533.980323785385
 30
0.0
 11
-13905.482829918494
 21
-7532.070044962382
 31
0.0
  0
LINE
  5
284
100
AcDbEntity
  8
Frei
  6
CONTINUOUS
 62
           7
100
AcDbLine
 10
-13877.548069586277
 20
-7533.980323785385
 30
0.0
 11
-13879.424236287441
 21
-7561.41624911167
 31
0.0
  0
LINE
  5
285
100
AcDbEntity
  8
Frei
  6
CONTINUOUS
 62
           7
100
AcDbLine
 10
-13879.663021140317
 20
-7564.908094153196
 30
0.0
 11
-13869.187486015737
 21
-7565.624448711824
 31
0.0
  0
LINE
  5
286
100
AcDbEntity
  8
Frei
  6
CONTINUOUS
 62
           7
100
AcDbLine
 10
-13867.58864463242
 20
-7564.230280059544
 30
0.0
 11
-13867.554532510581
 21
-7563.731445053612
 31
0.0
  0
LINE
  5
287
100
AcDbEntity
  8
Frei
  6
CONTINUOUS
 62
           7
100
AcDbLine
 10
-13878.4349847541
 20
-7546.950033939629
 30
0.0
 11
-13867.959449629519
 21
-7547.666388498255
 31
0.0
  0
LINE
  5
288
100
AcDbEntity
  8
Frei
  6
CONTINUOUS
 62
           7
100
AcDbLine
 10
-13905.981664924428
 20
-7532.035932840543
 30
0.0
 11
-13905.913440680748
 21
-7531.038262828677
 31
0.0
  0
LINE
  5
289
100
AcDbEntity
  8
Frei
  6
CONTINUOUS
 62
           7
100
AcDbLine
 10
-13877.049234580345
 20
-7534.014435907226
 30
0.0
 11
-13877.548069586277
 21
-7533.980323785385
 31
0.0
  0
LINE
  5
28A
100
AcDbEntity
  8
Frei
  6
CONTINUOUS
 62
           7
100
AcDbLine
 10
-13876.981010336665
 20
-7533.01676589536
 30
0.0
 11
-13877.049234580345
 21
-7534.014435907226
 31
0.0
  0
LINE
  5
28B
100
AcDbEntity
  8
Frei
  6
CONTINUOUS
 62
           7
100
AcDbLine
 10
-13876.981010336665
 20
-7533.01676589536
 30
0.0
 11
-13905.913440680748
 21
-7531.038262828677
 31
0.0
  0
LINE
  5
28C
100
AcDbEntity
  8
Frei
  6
CONTINUOUS
 62
           7
100
AcDbLine
 10
-13875.241292122859
 20
-7507.576180592805
 30
0.0
 11
-13875.203364892093
 21
-7507.021555744999
 31
0.0
  0
LINE
  5
28D
100
AcDbEntity
  8
Frei
  6
CONTINUOUS
 62
           7
100
AcDbLine
 10
-13903.934937614065
 20
-7502.105832484596
 30
0.0
 11
-13876.992703186619
 21
-7504.895744724678
 31
0.0
  0
LINE
  5
28E
100
AcDbEntity
  8
Frei
  6
CONTINUOUS
 62
           7
100
AcDbLine
 10
-13871.003408744
 20
-7518.891671941714
 30
0.0
 11
-13871.037520865839
 21
-7519.390506947646
 31
0.0
  0
LINE
  5
28F
100
AcDbEntity
  8
Frei
  6
CONTINUOUS
 62
           1
100
AcDbLine
 10
-13871.003408744
 20
-7518.891671941714
 30
0.0
 11
-13873.485961858742
 21
-7518.721906080626
 31
0.0
  0
LINE
  5
290
100
AcDbEntity
  8
Frei
  6
CONTINUOUS
 62
           7
100
AcDbLine
 10
-13870.730511769285
 20
-7514.900991894254
 30
0.0
 11
-13871.003408744
 21
-7518.891671941714
 31
0.0
  0
LINE
  5
291
100
AcDbEntity
  8
Frei
  6
CONTINUOUS
 62
           1
100
AcDbLine
 10
-13870.730511769285
 20
-7514.900991894254
 30
0.0
 11
-13873.213064884027
 21
-7514.731226033166
 31
0.0
  0
LINE
  5
292
100
AcDbEntity
  8
Frei
  6
CONTINUOUS
 62
           7
100
AcDbLine
 10
-13871.037520865839
 20
-7519.390506947646
 30
0.0
 11
-13871.07163298768
 21
-7519.889341953578
 31
0.0
  0
LINE
  5
293
100
AcDbEntity
  8
Frei
  6
CONTINUOUS
 62
           1
100
AcDbLine
 10
-13871.037520865839
 20
-7519.390506947646
 30
0.0
 11
-13873.52007398058
 21
-7519.220741086558
 31
0.0
  0
LINE
  5
294
100
AcDbEntity
  8
Frei
  6
CONTINUOUS
 62
           7
100
AcDbLine
 10
-13870.696399647446
 20
-7514.402156888322
 30
0.0
 11
-13870.730511769285
 21
-7514.900991894254
 31
0.0
  0
LINE
  5
295
100
AcDbEntity
  8
Frei
  6
CONTINUOUS
 62
           1
100
AcDbLine
 10
-13870.696399647446
 20
-7514.402156888322
 30
0.0
 11
-13873.178952762188
 21
-7514.232391027234
 31
0.0
  0
LINE
  5
296
100
AcDbEntity
  8
Frei
  6
CONTINUOUS
 62
           7
100
AcDbLine
 10
-13872.069302999544
 20
-7519.821117709898
 30
0.0
 11
-13871.659957537471
 21
-7513.83509763871
 31
0.0
  0
LINE
  5
297
100
AcDbEntity
  8
Frei
  6
CONTINUOUS
 62
           2
100
AcDbLine
 10
-13871.07163298768
 20
-7519.889341953578
 30
0.0
 11
-13872.069302999544
 21
-7519.821117709898
 31
0.0
  0
LINE
  5
298
100
AcDbEntity
  8
Frei
  6
CONTINUOUS
 62
           7
100
AcDbLine
 10
-13871.659957537471
 20
-7513.83509763871
 30
0.0
 11
-13871.591733293792
 21
-7512.837427626844
 31
0.0
  0
LINE
  5
299
100
AcDbEntity
  8
Frei
  6
CONTINUOUS
 62
           2
100
AcDbLine
 10
-13870.662287525607
 20
-7513.903321882388
 30
0.0
 11
-13871.659957537471
 21
-7513.83509763871
 31
0.0
  0
LINE
  5
29A
100
AcDbEntity
  8
Frei
  6
CONTINUOUS
 62
           7
100
AcDbLine
 10
-13872.137527243221
 20
-7520.818787721764
 30
0.0
 11
-13872.069302999544
 21
-7519.821117709898
 31
0.0
  0
LINE
  5
29B
100
AcDbEntity
  8
Frei
  6
CONTINUOUS
 62
           7
100
AcDbLine
 10
-13871.07163298768
 20
-7519.889341953578
 30
0.0
 11
-13872.137527243221
 21
-7520.818787721764
 31
0.0
  0
LINE
  5
29C
100
AcDbEntity
  8
Frei
  6
CONTINUOUS
 62
           7
100
AcDbLine
 10
-13870.662287525607
 20
-7513.903321882388
 30
0.0
 11
-13870.696399647446
 21
-7514.402156888322
 31
0.0
  0
LINE
  5
29D
100
AcDbEntity
  8
Frei
  6
CONTINUOUS
 62
           7
100
AcDbLine
 10
-13871.591733293792
 20
-7512.837427626844
 30
0.0
 11
-13871.250612075399
 21
-7507.84907756752
 31
0.0
  0
LINE
  5
29E
100
AcDbEntity
  8
Frei
  6
CONTINUOUS
 62
           7
100
AcDbLine
 10
-13871.591733293792
 20
-7512.837427626844
 30
0.0
 11
-13870.662287525607
 21
-7513.903321882388
 31
0.0
  0
LINE
  5
29F
100
AcDbEntity
  8
Frei
  6
CONTINUOUS
 62
           7
100
AcDbLine
 10
-13905.913440680748
 20
-7531.038262828677
 30
0.0
 11
-13905.265310365801
 21
-7521.560397715961
 31
0.0
  0
LINE
  5
2A0
100
AcDbEntity
  8
Frei
  6
CONTINUOUS
 62
           7
100
AcDbLine
 10
-13876.469328509076
 20
-7525.534240806373
 30
0.0
 11
-13876.981010336665
 21
-7533.01676589536
 31
0.0
  0
LINE
  5
2A1
100
AcDbEntity
  8
Frei
  6
CONTINUOUS
 62
           7
100
AcDbLine
 10
-13874.175397867315
 20
-7506.646734824619
 30
0.0
 11
-13875.53988274089
 21
-7526.600135061917
 31
0.0
  0
LINE
  5
2A2
100
AcDbEntity
  8
Frei
  6
CONTINUOUS
 62
           7
100
AcDbLine
 10
-13872.180057843585
 20
-7506.783183311976
 30
0.0
 11
-13873.54454271716
 21
-7526.736583549275
 31
0.0
  0
LINE
  5
2A3
100
AcDbEntity
  8
Frei
  6
CONTINUOUS
 62
           7
100
AcDbLine
 10
-13872.478648461616
 20
-7525.807137781088
 30
0.0
 11
-13873.54454271716
 21
-7526.736583549275
 31
0.0
  0
LINE
  5
2A4
100
AcDbEntity
  8
Frei
  6
CONTINUOUS
 62
           7
100
AcDbLine
 10
-13875.53988274089
 20
-7526.600135061917
 30
0.0
 11
-13876.469328509076
 21
-7525.534240806373
 31
0.0
  0
LINE
  5
2A5
100
AcDbEntity
  8
Frei
  6
CONTINUOUS
 62
           7
100
AcDbLine
 10
-13875.241292122859
 20
-7507.576180592805
 30
0.0
 11
-13874.175397867315
 21
-7506.646734824619
 31
0.0
  0
LINE
  5
2A6
100
AcDbEntity
  8
Frei
  6
CONTINUOUS
 62
           7
100
AcDbLine
 10
-13871.250612075399
 20
-7507.84907756752
 30
0.0
 11
-13872.180057843585
 21
-7506.783183311976
 31
0.0
  0
LINE
  5
2A7
100
AcDbEntity
  8
Frei
  6
CONTINUOUS
 62
           7
100
AcDbLine
 10
-13872.478648461616
 20
-7525.807137781088
 30
0.0
 11
-13872.137527243221
 21
-7520.818787721764
 31
0.0
  0
LINE
  5
2A8
100
AcDbEntity
  8
Frei
  6
CONTINUOUS
 62
           7
100
AcDbLine
 10
-13875.53988274089
 20
-7526.600135061917
 30
0.0
 11
-13873.54454271716
 21
-7526.736583549275
 31
0.0
  0
LINE
  5
2A9
100
AcDbEntity
  8
Frei
  6
CONTINUOUS
 62
           7
100
AcDbLine
 10
-13875.241292122859
 20
-7507.576180592805
 30
0.0
 11
-13876.469328509076
 21
-7525.534240806373
 31
0.0
  0
LINE
  5
2AA
100
AcDbEntity
  8
Frei
  6
CONTINUOUS
 62
           7
100
AcDbLine
 10
-13872.180057843585
 20
-7506.783183311976
 30
0.0
 11
-13874.175397867315
 21
-7506.646734824619
 31
0.0
  0
LINE
  5
2AB
100
AcDbEntity
  8
Frei
  6
CONTINUOUS
 62
           7
100
AcDbLine
 10
-13922.374995876518
 20
-7529.912562807978
 30
0.0
 11
-13911.899460751936
 21
-7530.628917366605
 31
0.0
  0
LINE
  5
2AC
100
AcDbEntity
  8
Frei
  6
CONTINUOUS
 62
           7
100
AcDbLine
 10
-13906.156215669012
 20
-7497.94459182794
 30
0.0
 11
-13920.123595835121
 21
-7496.989452416437
 31
0.0
  0
LINE
  5
2AD
100
AcDbEntity
  8
Frei
  6
CONTINUOUS
 62
           7
100
AcDbLine
 10
-13905.226769900826
 20
-7499.010486083484
 30
0.0
 11
-13906.761815383597
 21
-7521.458061350442
 31
0.0
  0
LINE
  5
2AE
100
AcDbEntity
  8
Frei
  6
CONTINUOUS
 62
           7
100
AcDbLine
 10
-14065.971253341384
 20
-7519.090601706379
 30
0.0
 11
-14064.436207858613
 21
-7496.64302643942
 31
0.0
  0
LINE
  5
2AF
100
AcDbEntity
  8
Frei
  6
CONTINUOUS
 62
           7
100
AcDbLine
 10
-14065.271954843676
 20
-7508.864484084765
 30
0.0
 11
-14064.913777564363
 21
-7503.626716522475
 31
0.0
  0
LINE
  5
2B0
100
AcDbEntity
  8
Frei
  6
CONTINUOUS
 62
           7
100
AcDbLine
 10
-13905.926068398532
 20
-7509.236603705098
 30
0.0
 11
-13906.284245677845
 21
-7514.474371267388
 31
0.0
  0
ARC
  5
2B1
100
AcDbEntity
  8
Frei
  6
CONTINUOUS
 62
           7
100
AcDbCircle
 10
-14073.498136428316
 20
-7503.039687360531
 30
0.0
 40
8.604407030244
100
AcDbArc
 50
332.086014671726
 51
356.087999999999
  0
ARC
  5
2B2
100
AcDbEntity
  8
Frei
  6
CONTINUOUS
 62
           7
100
AcDbCircle
 10
-14066.980044178488
 20
-7498.223156815482
 30
0.0
 40
2.430106011614
100
AcDbArc
 50
310.022521857266
 51
356.087999999999
  0
ARC
  5
2B3
100
AcDbEntity
  8
Frei
  6
CONTINUOUS
 62
           7
100
AcDbCircle
 10
-14067.696398737115
 20
-7508.698691940062
 30
0.0
 40
2.430106011614
100
AcDbArc
 50
310.022521857266
 51
356.087999999999
  0
ARC
  5
2B4
100
AcDbEntity
  8
Frei
  6
CONTINUOUS
 62
           7
100
AcDbCircle
 10
-14066.980044178488
 20
-7498.223156815482
 30
0.0
 40
2.430106011614
100
AcDbArc
 50
356.087999999999
 51
42.153478142733
  0
ARC
  5
2B5
100
AcDbEntity
  8
Frei
  6
CONTINUOUS
 62
           7
100
AcDbCircle
 10
-14067.696398737115
 20
-7508.698691940062
 30
0.0
 40
2.430106011614
100
AcDbArc
 50
356.087999999999
 51
42.153478142733
  0
ARC
  5
2B6
100
AcDbEntity
  8
Frei
  6
CONTINUOUS
 62
           7
100
AcDbCircle
 10
-13904.217979063718
 20
-7519.87793097438
 30
0.0
 40
2.430106011614
100
AcDbArc
 50
130.022521857263
 51
176.088
  0
ARC
  5
2B7
100
AcDbEntity
  8
Frei
  6
CONTINUOUS
 62
           7
100
AcDbCircle
 10
-13903.501624505092
 20
-7509.4023958498
 30
0.0
 40
2.430106011614
100
AcDbArc
 50
130.022521857263
 51
176.088
  0
ARC
  5
2B8
100
AcDbEntity
  8
Frei
  6
CONTINUOUS
 62
           7
100
AcDbCircle
 10
-13904.217979063718
 20
-7519.87793097438
 30
0.0
 40
2.430106011614
100
AcDbArc
 50
176.088
 51
222.153478142737
  0
ARC
  5
2B9
100
AcDbEntity
  8
Frei
  6
CONTINUOUS
 62
           7
100
AcDbCircle
 10
-13903.501624505092
 20
-7509.4023958498
 30
0.0
 40
2.430106011614
100
AcDbArc
 50
176.088
 51
222.153478142737
  0
ARC
  5
2BA
100
AcDbEntity
  8
Frei
  6
CONTINUOUS
 62
           7
100
AcDbCircle
 10
-13897.699886813893
 20
-7515.061400429331
 30
0.0
 40
8.604407030244
100
AcDbArc
 50
152.086014671724
 51
176.088
  0
ARC
  5
2BB
100
AcDbEntity
  8
Frei
  6
CONTINUOUS
 62
           7
100
AcDbCircle
 10
-14042.149677928677
 20
-7512.964453075099
 30
0.0
 40
4.481959213903
100
AcDbArc
 50
184.466955885586
 51
347.709044114414
  0
ARC
  5
2BC
100
AcDbEntity
  8
Frei
  6
CONTINUOUS
 62
           7
100
AcDbCircle
 10
-14073.498136428316
 20
-7503.039687360531
 30
0.0
 40
8.604407030244
100
AcDbArc
 50
356.087999999999
 51
20.089985328274
  0
ARC
  5
2BD
100
AcDbEntity
  8
Frei
  6
CONTINUOUS
 62
           7
100
AcDbCircle
 10
-13897.699886813893
 20
-7515.061400429331
 30
0.0
 40
8.604407030244
100
AcDbArc
 50
176.088
 51
200.089985328276
  0
POLYLINE
  5
2BE
100
AcDbEntity
  8
Frei
  6
CONTINUOUS
 62
           7
100
AcDb2dPolyline
 66
           1
 10
0.0
 20
0.0
 30
0.0
  0
VERTEX
  5
2BF
100
AcDbEntity
  8
Frei
  6
CONTINUOUS
 62
           7
100
AcDbVertex
100
AcDb2dVertex
 10
-14046.310498063853
 20
-7512.980949756737
 30
0.0
 42
0.046286845788
  0
VERTEX
  5
2C0
100
AcDbEntity
  8
Frei
  6
CONTINUOUS
 62
           7
100
AcDbVertex
100
AcDb2dVertex
 10
-14046.29379723501
 20
-7513.660853356816
 30
0.0
  0
VERTEX
  5
2C1
100
AcDbEntity
  8
Frei
  6
CONTINUOUS
 62
           7
100
AcDbVertex
100
AcDb2dVertex
 10
-14046.238164077062
 20
-7513.998042249776
 30
0.0
  0
VERTEX
  5
2C2
100
AcDbEntity
  8
Frei
  6
CONTINUOUS
 62
           7
100
AcDbVertex
100
AcDb2dVertex
 10
-14046.151802003771
 20
-7514.328701210408
 30
0.0
 42
0.045273723548
  0
VERTEX
  5
2C3
100
AcDbEntity
  8
Frei
  6
CONTINUOUS
 62
           7
100
AcDbVertex
100
AcDb2dVertex
 10
-14045.888826823382
 20
-7514.964201098426
 30
0.0
  0
VERTEX
  5
2C4
100
AcDbEntity
  8
Frei
  6
CONTINUOUS
 62
           7
100
AcDbVertex
100
AcDb2dVertex
 10
-14045.71383379028
 20
-7515.264483466861
 30
0.0
  0
VERTEX
  5
2C5
100
AcDbEntity
  8
Frei
  6
CONTINUOUS
 62
           7
100
AcDbVertex
100
AcDb2dVertex
 10
-14045.512862061629
 20
-7515.548043678353
 30
0.0
 42
0.04348253534
  0
VERTEX
  5
2C6
100
AcDbEntity
  8
Frei
  6
CONTINUOUS
 62
           7
100
AcDbVertex
100
AcDb2dVertex
 10
-14045.035331217548
 20
-7516.062489188837
 30
0.0
  0
VERTEX
  5
2C7
100
AcDbEntity
  8
Frei
  6
CONTINUOUS
 62
           7
100
AcDbVertex
100
AcDb2dVertex
 10
-14044.762196642218
 20
-7516.289235972317
 30
0.0
  0
VERTEX
  5
2C8
100
AcDbEntity
  8
Frei
  6
CONTINUOUS
 62
           7
100
AcDbVertex
100
AcDb2dVertex
 10
-14044.4707438242
 20
-7516.491906463361
 30
0.0
 42
0.041825507476
  0
VERTEX
  5
2C9
100
AcDbEntity
  8
Frei
  6
CONTINUOUS
 62
           7
100
AcDbVertex
100
AcDb2dVertex
 10
-14043.836254583832
 20
-7516.82324787534
 30
0.0
  0
VERTEX
  5
2CA
100
AcDbEntity
  8
Frei
  6
CONTINUOUS
 62
           7
100
AcDbVertex
100
AcDb2dVertex
 10
-14043.498312672276
 20
-7516.94900683422
 30
0.0
  0
VERTEX
  5
2CB
100
AcDbEntity
  8
Frei
  6
CONTINUOUS
 62
           7
100
AcDbVertex
100
AcDb2dVertex
 10
-14043.151142130944
 20
-7517.046445783632
 30
0.0
 42
0.040993490696
  0
VERTEX
  5
2CC
100
AcDbEntity
  8
Frei
  6
CONTINUOUS
 62
           7
100
AcDbVertex
100
AcDb2dVertex
 10
-14042.43622326074
 20
-7517.154718432739
 30
0.0
  0
VERTEX
  5
2CD
100
AcDbEntity
  8
Frei
  6
CONTINUOUS
 62
           7
100
AcDbVertex
100
AcDb2dVertex
 10
-14042.074517372235
 20
-7517.164587201207
 30
0.0
  0
VERTEX
  5
2CE
100
AcDbEntity
  8
Frei
  6
CONTINUOUS
 62
           7
100
AcDbVertex
100
AcDb2dVertex
 10
-14041.713220421318
 20
-7517.144776013007
 30
0.0
 42
0.041278481646
  0
VERTEX
  5
2CF
100
AcDbEntity
  8
Frei
  6
CONTINUOUS
 62
           7
100
AcDbVertex
100
AcDb2dVertex
 10
-14041.004101688099
 20
-7517.01692061983
 30
0.0
  0
VERTEX
  5
2D0
100
AcDbEntity
  8
Frei
  6
CONTINUOUS
 62
           7
100
AcDbVertex
100
AcDb2dVertex
 10
-14040.662189904826
 20
-7516.910087402765
 30
0.0
  0
VERTEX
  5
2D1
100
AcDbEntity
  8
Frei
  6
CONTINUOUS
 62
           7
100
AcDbVertex
100
AcDb2dVertex
 10
-14040.33041327496
 20
-7516.775037074629
 30
0.0
 42
0.042584509173
  0
VERTEX
  5
2D2
100
AcDbEntity
  8
Frei
  6
CONTINUOUS
 62
           7
100
AcDbVertex
100
AcDb2dVertex
 10
-14039.712624863434
 20
-7516.426474886526
 30
0.0
  0
VERTEX
  5
2D3
100
AcDbEntity
  8
Frei
  6
CONTINUOUS
 62
           7
100
AcDbVertex
100
AcDb2dVertex
 10
-14039.431381636177
 20
-7516.21597474404
 30
0.0
  0
VERTEX
  5
2D4
100
AcDbEntity
  8
Frei
  6
CONTINUOUS
 62
           7
100
AcDbVertex
100
AcDb2dVertex
 10
-14039.169507641789
 20
-7515.981824941229
 30
0.0
 42
0.044417198743
  0
VERTEX
  5
2D5
100
AcDbEntity
  8
Frei
  6
CONTINUOUS
 62
           7
100
AcDbVertex
100
AcDb2dVertex
 10
-14038.717563951968
 20
-7515.454597702319
 30
0.0
  0
VERTEX
  5
2D6
100
AcDbEntity
  8
Frei
  6
CONTINUOUS
 62
           7
100
AcDbVertex
100
AcDb2dVertex
 10
-14038.530579302973
 20
-7515.165572289257
 30
0.0
  0
VERTEX
  5
2D7
100
AcDbEntity
  8
Frei
  6
CONTINUOUS
 62
           7
100
AcDbVertex
100
AcDb2dVertex
 10
-14038.370525874301
 20
-7514.86081270266
 30
0.0
 42
0.045929593742
  0
VERTEX
  5
2D8
100
AcDbEntity
  8
Frei
  6
CONTINUOUS
 62
           7
100
AcDbVertex
100
AcDb2dVertex
 10
-14038.138937985161
 20
-7514.218511798998
 30
0.0
  0
VERTEX
  5
2D9
100
AcDbEntity
  8
Frei
  6
CONTINUOUS
 62
           7
100
AcDbVertex
100
AcDb2dVertex
 10
-14038.068823395293
 20
-7513.885390265214
 30
0.0
  0
VERTEX
  5
2DA
100
AcDbEntity
  8
Frei
  6
CONTINUOUS
 62
           7
100
AcDbVertex
100
AcDb2dVertex
 10
-14038.029836965374
 20
-7513.54721097927
 30
0.0
 42
0.046286845788
  0
VERTEX
  5
2DB
100
AcDbEntity
  8
Frei
  6
CONTINUOUS
 62
           7
100
AcDbVertex
100
AcDb2dVertex
 10
-14038.046537794215
 20
-7512.867307379192
 30
0.0
  0
VERTEX
  5
2DC
100
AcDbEntity
  8
Frei
  6
CONTINUOUS
 62
           7
100
AcDbVertex
100
AcDb2dVertex
 10
-14038.102170952166
 20
-7512.530118486233
 30
0.0
  0
VERTEX
  5
2DD
100
AcDbEntity
  8
Frei
  6
CONTINUOUS
 62
           7
100
AcDbVertex
100
AcDb2dVertex
 10
-14038.188533025455
 20
-7512.199459525602
 30
0.0
 42
0.045273723548
  0
VERTEX
  5
2DE
100
AcDbEntity
  8
Frei
  6
CONTINUOUS
 62
           7
100
AcDbVertex
100
AcDb2dVertex
 10
-14038.451508205842
 20
-7511.563959637582
 30
0.0
  0
VERTEX
  5
2DF
100
AcDbEntity
  8
Frei
  6
CONTINUOUS
 62
           7
100
AcDbVertex
100
AcDb2dVertex
 10
-14038.626501238945
 20
-7511.263677269148
 30
0.0
  0
VERTEX
  5
2E0
100
AcDbEntity
  8
Frei
  6
CONTINUOUS
 62
           7
100
AcDbVertex
100
AcDb2dVertex
 10
-14038.827472967598
 20
-7510.980117057656
 30
0.0
 42
0.04348253534
  0
VERTEX
  5
2E1
100
AcDbEntity
  8
Frei
  6
CONTINUOUS
 62
           7
100
AcDbVertex
100
AcDb2dVertex
 10
-14039.305003811676
 20
-7510.465671547174
 30
0.0
  0
VERTEX
  5
2E2
100
AcDbEntity
  8
Frei
  6
CONTINUOUS
 62
           7
100
AcDbVertex
100
AcDb2dVertex
 10
-14039.578138387007
 20
-7510.238924763691
 30
0.0
  0
VERTEX
  5
2E3
100
AcDbEntity
  8
Frei
  6
CONTINUOUS
 62
           7
100
AcDbVertex
100
AcDb2dVertex
 10
-14039.869591205024
 20
-7510.036254272647
 30
0.0
 42
0.041825507476
  0
VERTEX
  5
2E4
100
AcDbEntity
  8
Frei
  6
CONTINUOUS
 62
           7
100
AcDbVertex
100
AcDb2dVertex
 10
-14040.504080445393
 20
-7509.70491286067
 30
0.0
  0
VERTEX
  5
2E5
100
AcDbEntity
  8
Frei
  6
CONTINUOUS
 62
           7
100
AcDbVertex
100
AcDb2dVertex
 10
-14040.84202235695
 20
-7509.579153901788
 30
0.0
  0
VERTEX
  5
2E6
100
AcDbEntity
  8
Frei
  6
CONTINUOUS
 62
           7
100
AcDbVertex
100
AcDb2dVertex
 10
-14041.18919289828
 20
-7509.481714952379
 30
0.0
 42
0.040993490695
  0
VERTEX
  5
2E7
100
AcDbEntity
  8
Frei
  6
CONTINUOUS
 62
           7
100
AcDbVertex
100
AcDb2dVertex
 10
-14041.904111768488
 20
-7509.373442303271
 30
0.0
  0
VERTEX
  5
2E8
100
AcDbEntity
  8
Frei
  6
CONTINUOUS
 62
           7
100
AcDbVertex
100
AcDb2dVertex
 10
-14042.265817656989
 20
-7509.363573534803
 30
0.0
  0
VERTEX
  5
2E9
100
AcDbEntity
  8
Frei
  6
CONTINUOUS
 62
           7
100
AcDbVertex
100
AcDb2dVertex
 10
-14042.627114607907
 20
-7509.383384723002
 30
0.0
 42
0.041278481646
  0
VERTEX
  5
2EA
100
AcDbEntity
  8
Frei
  6
CONTINUOUS
 62
           7
100
AcDbVertex
100
AcDb2dVertex
 10
-14043.336233341126
 20
-7509.511240116179
 30
0.0
  0
VERTEX
  5
2EB
100
AcDbEntity
  8
Frei
  6
CONTINUOUS
 62
           7
100
AcDbVertex
100
AcDb2dVertex
 10
-14043.678145124399
 20
-7509.618073333244
 30
0.0
  0
VERTEX
  5
2EC
100
AcDbEntity
  8
Frei
  6
CONTINUOUS
 62
           7
100
AcDbVertex
100
AcDb2dVertex
 10
-14044.009921754265
 20
-7509.753123661381
 30
0.0
 42
0.042584509172
  0
VERTEX
  5
2ED
100
AcDbEntity
  8
Frei
  6
CONTINUOUS
 62
           7
100
AcDbVertex
100
AcDb2dVertex
 10
-14044.627710165791
 20
-7510.101685849484
 30
0.0
  0
VERTEX
  5
2EE
100
AcDbEntity
  8
Frei
  6
CONTINUOUS
 62
           7
100
AcDbVertex
100
AcDb2dVertex
 10
-14044.908953393047
 20
-7510.312185991968
 30
0.0
  0
VERTEX
  5
2EF
100
AcDbEntity
  8
Frei
  6
CONTINUOUS
 62
           7
100
AcDbVertex
100
AcDb2dVertex
 10
-14045.170827387437
 20
-7510.546335794781
 30
0.0
 42
0.044417198743
  0
VERTEX
  5
2F0
100
AcDbEntity
  8
Frei
  6
CONTINUOUS
 62
           7
100
AcDbVertex
100
AcDb2dVertex
 10
-14045.622771077256
 20
-7511.073563033691
 30
0.0
  0
VERTEX
  5
2F1
100
AcDbEntity
  8
Frei
  6
CONTINUOUS
 62
           7
100
AcDbVertex
100
AcDb2dVertex
 10
-14045.809755726252
 20
-7511.362588446751
 30
0.0
  0
VERTEX
  5
2F2
100
AcDbEntity
  8
Frei
  6
CONTINUOUS
 62
           7
100
AcDbVertex
100
AcDb2dVertex
 10
-14045.969809154925
 20
-7511.66734803335
 30
0.0
 42
0.045929593742
  0
VERTEX
  5
2F3
100
AcDbEntity
  8
Frei
  6
CONTINUOUS
 62
           7
100
AcDbVertex
100
AcDb2dVertex
 10
-14046.201397044064
 20
-7512.309648937011
 30
0.0
  0
VERTEX
  5
2F4
100
AcDbEntity
  8
Frei
  6
CONTINUOUS
 62
           7
100
AcDbVertex
100
AcDb2dVertex
 10
-14046.271511633931
 20
-7512.642770470795
 30
0.0
  0
VERTEX
  5
2F5
100
AcDbEntity
  8
Frei
  6
CONTINUOUS
 62
           7
100
AcDbVertex
100
AcDb2dVertex
 10
-14046.310498063853
 20
-7512.980949756737
 30
0.0
  0
SEQEND
  5
2F6
100
AcDbEntity
  8
Frei
  6
CONTINUOUS
 62
           7
  0
POLYLINE
  5
2F7
100
AcDbEntity
  8
Frei
  6
CONTINUOUS
 62
           7
100
AcDb2dPolyline
 66
           1
 10
0.0
 20
0.0
 30
0.0
  0
VERTEX
  5
2F8
100
AcDbEntity
  8
Frei
  6
CONTINUOUS
 62
           7
100
AcDbVertex
100
AcDb2dVertex
 10
-14041.898420338619
 20
-7509.290214280522
 30
0.0
 42
0.046286845788
  0
VERTEX
  5
2F9
100
AcDbEntity
  8
Frei
  6
CONTINUOUS
 62
           7
100
AcDbVertex
100
AcDb2dVertex
 10
-14042.674262610642
 20
-7509.309271701299
 30
0.0
  0
VERTEX
  5
2FA
100
AcDbEntity
  8
Frei
  6
CONTINUOUS
 62
           7
100
AcDbVertex
100
AcDb2dVertex
 10
-14043.059030976017
 20
-7509.372755047552
 30
0.0
  0
VERTEX
  5
2FB
100
AcDbEntity
  8
Frei
  6
CONTINUOUS
 62
           7
100
AcDbVertex
100
AcDb2dVertex
 10
-14043.436347994566
 20
-7509.471303352269
 30
0.0
 42
0.045273723548
  0
VERTEX
  5
2FC
100
AcDbEntity
  8
Frei
  6
CONTINUOUS
 62
           7
100
AcDbVertex
100
AcDb2dVertex
 10
-14044.161520911632
 20
-7509.771385983713
 30
0.0
  0
VERTEX
  5
2FD
100
AcDbEntity
  8
Frei
  6
CONTINUOUS
 62
           7
100
AcDbVertex
100
AcDb2dVertex
 10
-14044.504175009872
 20
-7509.971071633814
 30
0.0
  0
VERTEX
  5
2FE
100
AcDbEntity
  8
Frei
  6
CONTINUOUS
 62
           7
100
AcDbVertex
100
AcDb2dVertex
 10
-14044.827747349709
 20
-7510.200401736718
 30
0.0
 42
0.04348253534
  0
VERTEX
  5
2FF
100
AcDbEntity
  8
Frei
  6
CONTINUOUS
 62
           7
100
AcDbVertex
100
AcDb2dVertex
 10
-14045.414784355602
 20
-7510.745315184728
 30
0.0
  0
VERTEX
  5
300
100
AcDbEntity
  8
Frei
  6
CONTINUOUS
 62
           7
100
AcDbVertex
100
AcDb2dVertex
 10
-14045.673526535596
 20
-7511.056990765603
 30
0.0
  0
VERTEX
  5
301
100
AcDbEntity
  8
Frei
  6
CONTINUOUS
 62
           7
100
AcDbVertex
100
AcDb2dVertex
 10
-14045.904795106944
 20
-7511.389569408359
 30
0.0
 42
0.041825507476
  0
VERTEX
  5
302
100
AcDbEntity
  8
Frei
  6
CONTINUOUS
 62
           7
100
AcDbVertex
100
AcDb2dVertex
 10
-14046.282890875013
 20
-7512.113589069037
 30
0.0
  0
VERTEX
  5
303
100
AcDbEntity
  8
Frei
  6
CONTINUOUS
 62
           7
100
AcDbVertex
100
AcDb2dVertex
 10
-14046.426395213533
 20
-7512.499216708666
 30
0.0
  0
VERTEX
  5
304
100
AcDbEntity
  8
Frei
  6
CONTINUOUS
 62
           7
100
AcDbVertex
100
AcDb2dVertex
 10
-14046.537583411218
 20
-7512.895375195743
 30
0.0
 42
0.040993490695
  0
VERTEX
  5
305
100
AcDbEntity
  8
Frei
  6
CONTINUOUS
 62
           7
100
AcDbVertex
100
AcDb2dVertex
 10
-14046.661134011736
 20
-7513.711173612624
 30
0.0
  0
VERTEX
  5
306
100
AcDbEntity
  8
Frei
  6
CONTINUOUS
 62
           7
100
AcDbVertex
100
AcDb2dVertex
 10
-14046.672395325468
 20
-7514.123918475732
 30
0.0
  0
VERTEX
  5
307
100
AcDbEntity
  8
Frei
  6
CONTINUOUS
 62
           7
100
AcDbVertex
100
AcDb2dVertex
 10
-14046.649788654078
 20
-7514.536196697591
 30
0.0
 42
0.041278481646
  0
VERTEX
  5
308
100
AcDbEntity
  8
Frei
  6
CONTINUOUS
 62
           7
100
AcDbVertex
100
AcDb2dVertex
 10
-14046.503892061206
 20
-7515.345376541693
 30
0.0
  0
VERTEX
  5
309
100
AcDbEntity
  8
Frei
  6
CONTINUOUS
 62
           7
100
AcDbVertex
100
AcDb2dVertex
 10
-14046.381984005644
 20
-7515.735534226893
 30
0.0
  0
VERTEX
  5
30A
100
AcDbEntity
  8
Frei
  6
CONTINUOUS
 62
           7
100
AcDbVertex
100
AcDb2dVertex
 10
-14046.227877227262
 20
-7516.114126624831
 30
0.0
 42
0.042584509173
  0
VERTEX
  5
30B
100
AcDbEntity
  8
Frei
  6
CONTINUOUS
 62
           7
100
AcDbVertex
100
AcDb2dVertex
 10
-14045.830130723305
 20
-7516.819088864731
 30
0.0
  0
VERTEX
  5
30C
100
AcDbEntity
  8
Frei
  6
CONTINUOUS
 62
           7
100
AcDbVertex
100
AcDb2dVertex
 10
-14045.589927687479
 20
-7517.140017279291
 30
0.0
  0
VERTEX
  5
30D
100
AcDbEntity
  8
Frei
  6
CONTINUOUS
 62
           7
100
AcDbVertex
100
AcDb2dVertex
 10
-14045.322737875589
 20
-7517.438843340469
 30
0.0
 42
0.044417198743
  0
VERTEX
  5
30E
100
AcDbEntity
  8
Frei
  6
CONTINUOUS
 62
           7
100
AcDbVertex
100
AcDb2dVertex
 10
-14044.721115559039
 20
-7517.954559125907
 30
0.0
  0
VERTEX
  5
30F
100
AcDbEntity
  8
Frei
  6
CONTINUOUS
 62
           7
100
AcDbVertex
100
AcDb2dVertex
 10
-14044.391306843339
 20
-7518.167928484289
 30
0.0
  0
VERTEX
  5
310
100
AcDbEntity
  8
Frei
  6
CONTINUOUS
 62
           7
100
AcDbVertex
100
AcDb2dVertex
 10
-14044.043543763306
 20
-7518.350566457866
 30
0.0
 42
0.045929593742
  0
VERTEX
  5
311
100
AcDbEntity
  8
Frei
  6
CONTINUOUS
 62
           7
100
AcDbVertex
100
AcDb2dVertex
 10
-14043.310610164539
 20
-7518.61483285396
 30
0.0
  0
VERTEX
  5
312
100
AcDbEntity
  8
Frei
  6
CONTINUOUS
 62
           7
100
AcDbVertex
100
AcDb2dVertex
 10
-14042.930483088287
 20
-7518.694841053208
 30
0.0
  0
VERTEX
  5
313
100
AcDbEntity
  8
Frei
  6
CONTINUOUS
 62
           7
100
AcDbVertex
100
AcDb2dVertex
 10
-14042.544584579255
 20
-7518.739328713464
 30
0.0
 42
0.046286845788
  0
VERTEX
  5
314
100
AcDbEntity
  8
Frei
  6
CONTINUOUS
 62
           7
100
AcDbVertex
100
AcDb2dVertex
 10
-14041.768742307229
 20
-7518.72027129269
 30
0.0
  0
VERTEX
  5
315
100
AcDbEntity
  8
Frei
  6
CONTINUOUS
 62
           7
100
AcDbVertex
100
AcDb2dVertex
 10
-14041.383973941853
 20
-7518.656787946435
 30
0.0
  0
VERTEX
  5
316
100
AcDbEntity
  8
Frei
  6
CONTINUOUS
 62
           7
100
AcDbVertex
100
AcDb2dVertex
 10
-14041.006656923304
 20
-7518.558239641718
 30
0.0
 42
0.045273723548
  0
VERTEX
  5
317
100
AcDbEntity
  8
Frei
  6
CONTINUOUS
 62
           7
100
AcDbVertex
100
AcDb2dVertex
 10
-14040.281484006238
 20
-7518.258157010276
 30
0.0
  0
VERTEX
  5
318
100
AcDbEntity
  8
Frei
  6
CONTINUOUS
 62
           7
100
AcDbVertex
100
AcDb2dVertex
 10
-14039.938829907998
 20
-7518.058471360173
 30
0.0
  0
VERTEX
  5
319
100
AcDbEntity
  8
Frei
  6
CONTINUOUS
 62
           7
100
AcDbVertex
100
AcDb2dVertex
 10
-14039.615257568164
 20
-7517.829141257269
 30
0.0
 42
0.04348253534
  0
VERTEX
  5
31A
100
AcDbEntity
  8
Frei
  6
CONTINUOUS
 62
           7
100
AcDbVertex
100
AcDb2dVertex
 10
-14039.02822056227
 20
-7517.284227809261
 30
0.0
  0
VERTEX
  5
31B
100
AcDbEntity
  8
Frei
  6
CONTINUOUS
 62
           7
100
AcDbVertex
100
AcDb2dVertex
 10
-14038.769478382275
 20
-7516.972552228386
 30
0.0
  0
VERTEX
  5
31C
100
AcDbEntity
  8
Frei
  6
CONTINUOUS
 62
           7
100
AcDbVertex
100
AcDb2dVertex
 10
-14038.538209810929
 20
-7516.63997358563
 30
0.0
 42
0.041825507476
  0
VERTEX
  5
31D
100
AcDbEntity
  8
Frei
  6
CONTINUOUS
 62
           7
100
AcDbVertex
100
AcDb2dVertex
 10
-14038.160114042859
 20
-7515.91595392495
 30
0.0
  0
VERTEX
  5
31E
100
AcDbEntity
  8
Frei
  6
CONTINUOUS
 62
           7
100
AcDbVertex
100
AcDb2dVertex
 10
-14038.01660970434
 20
-7515.530326285321
 30
0.0
  0
VERTEX
  5
31F
100
AcDbEntity
  8
Frei
  6
CONTINUOUS
 62
           7
100
AcDbVertex
100
AcDb2dVertex
 10
-14037.905421506652
 20
-7515.134167798244
 30
0.0
 42
0.040993490695
  0
VERTEX
  5
320
100
AcDbEntity
  8
Frei
  6
CONTINUOUS
 62
           7
100
AcDbVertex
100
AcDb2dVertex
 10
-14037.781870906136
 20
-7514.318369381364
 30
0.0
  0
VERTEX
  5
321
100
AcDbEntity
  8
Frei
  6
CONTINUOUS
 62
           7
100
AcDbVertex
100
AcDb2dVertex
 10
-14037.770609592404
 20
-7513.905624518255
 30
0.0
  0
VERTEX
  5
322
100
AcDbEntity
  8
Frei
  6
CONTINUOUS
 62
           7
100
AcDbVertex
100
AcDb2dVertex
 10
-14037.793216263792
 20
-7513.493346296396
 30
0.0
 42
0.041278481646
  0
VERTEX
  5
323
100
AcDbEntity
  8
Frei
  6
CONTINUOUS
 62
           7
100
AcDbVertex
100
AcDb2dVertex
 10
-14037.939112856666
 20
-7512.684166452294
 30
0.0
  0
VERTEX
  5
324
100
AcDbEntity
  8
Frei
  6
CONTINUOUS
 62
           7
100
AcDbVertex
100
AcDb2dVertex
 10
-14038.061020912226
 20
-7512.294008767094
 30
0.0
  0
VERTEX
  5
325
100
AcDbEntity
  8
Frei
  6
CONTINUOUS
 62
           7
100
AcDbVertex
100
AcDb2dVertex
 10
-14038.215127690612
 20
-7511.915416369158
 30
0.0
 42
0.042584509173
  0
VERTEX
  5
326
100
AcDbEntity
  8
Frei
  6
CONTINUOUS
 62
           7
100
AcDbVertex
100
AcDb2dVertex
 10
-14038.612874194567
 20
-7511.210454129256
 30
0.0
  0
VERTEX
  5
327
100
AcDbEntity
  8
Frei
  6
CONTINUOUS
 62
           7
100
AcDbVertex
100
AcDb2dVertex
 10
-14038.853077230393
 20
-7510.889525714696
 30
0.0
  0
VERTEX
  5
328
100
AcDbEntity
  8
Frei
  6
CONTINUOUS
 62
           7
100
AcDbVertex
100
AcDb2dVertex
 10
-14039.120267042284
 20
-7510.59069965352
 30
0.0
 42
0.044417198743
  0
VERTEX
  5
329
100
AcDbEntity
  8
Frei
  6
CONTINUOUS
 62
           7
100
AcDbVertex
100
AcDb2dVertex
 10
-14039.721889358831
 20
-7510.074983868082
 30
0.0
  0
VERTEX
  5
32A
100
AcDbEntity
  8
Frei
  6
CONTINUOUS
 62
           7
100
AcDbVertex
100
AcDb2dVertex
 10
-14040.051698074532
 20
-7509.861614509699
 30
0.0
  0
VERTEX
  5
32B
100
AcDbEntity
  8
Frei
  6
CONTINUOUS
 62
           7
100
AcDbVertex
100
AcDb2dVertex
 10
-14040.399461154564
 20
-7509.678976536121
 30
0.0
 42
0.045929593741
  0
VERTEX
  5
32C
100
AcDbEntity
  8
Frei
  6
CONTINUOUS
 62
           7
100
AcDbVertex
100
AcDb2dVertex
 10
-14041.132394753333
 20
-7509.414710140029
 30
0.0
  0
VERTEX
  5
32D
100
AcDbEntity
  8
Frei
  6
CONTINUOUS
 62
           7
100
AcDbVertex
100
AcDb2dVertex
 10
-14041.512521829583
 20
-7509.334701940779
 30
0.0
  0
VERTEX
  5
32E
100
AcDbEntity
  8
Frei
  6
CONTINUOUS
 62
           7
100
AcDbVertex
100
AcDb2dVertex
 10
-14041.898420338619
 20
-7509.290214280522
 30
0.0
  0
SEQEND
  5
32F
100
AcDbEntity
  8
Frei
  6
CONTINUOUS
 62
           7
  0
ARC
  5
330
100
AcDbEntity
  8
Frei
  6
CONTINUOUS
 62
           7
100
AcDbCircle
 10
-13908.220943976703
 20
-7527.932399974874
 30
0.0
 40
0.5
100
AcDbArc
 50
273.237821982568
 51
356.087999999999
  0
ARC
  5
331
100
AcDbEntity
  8
Frei
  6
CONTINUOUS
 62
           7
100
AcDbCircle
 10
-13907.871799391183
 20
-7522.826721054955
 30
0.0
 40
0.5
100
AcDbArc
 50
356.087999999999
 51
78.938178017423
  0
ARC
  5
332
100
AcDbEntity
  8
Frei
  6
CONTINUOUS
 62
           7
100
AcDbCircle
 10
-14062.478244259573
 20
-7490.202799936827
 30
0.0
 40
0.5
100
AcDbArc
 50
93.237821982565
 51
176.088
  0
ARC
  5
333
100
AcDbEntity
  8
Frei
  6
CONTINUOUS
 62
           7
100
AcDbCircle
 10
-14062.827388845093
 20
-7495.308478856747
 30
0.0
 40
0.5
100
AcDbArc
 50
176.088
 51
258.938178017419
  0
ARC
  5
334
100
AcDbEntity
  8
Frei
  6
CONTINUOUS
 62
           7
100
AcDbCircle
 10
-14092.695427478639
 20
-7492.148670623041
 30
0.0
 40
2.0
100
AcDbArc
 50
88.088
 51
176.088
  0
ARC
  5
335
100
AcDbEntity
  8
Frei
  6
CONTINUOUS
 62
           7
100
AcDbCircle
 10
-14108.52595249779
 20
-7547.754125211135
 30
0.0
 40
1.5
100
AcDbArc
 50
176.088
 51
266.088
  0
ARC
  5
336
100
AcDbEntity
  8
Frei
  6
CONTINUOUS
 62
           7
100
AcDbCircle
 10
-14107.50258884261
 20
-7532.789075033163
 30
0.0
 40
1.5
100
AcDbArc
 50
86.088
 51
176.088
  0
ARC
  5
337
100
AcDbEntity
  8
Frei
  6
CONTINUOUS
 62
           7
100
AcDbCircle
 10
-14096.417463868054
 20
-7546.57747611155
 30
0.0
 40
1.5
100
AcDbArc
 50
176.088
 51
266.088
  0
ARC
  5
338
100
AcDbEntity
  8
Frei
  6
CONTINUOUS
 62
           7
100
AcDbCircle
 10
-14071.475713571434
 20
-7548.283082203518
 30
0.0
 40
1.5
100
AcDbArc
 50
266.088
 51
356.087999999999
  0
ARC
  5
339
100
AcDbEntity
  8
Frei
  6
CONTINUOUS
 62
           7
100
AcDbCircle
 10
-13905.862491601862
 20
-7559.608306654183
 30
0.0
 40
1.5
100
AcDbArc
 50
176.088
 51
266.088
  0
ARC
  5
33A
100
AcDbEntity
  8
Frei
  6
CONTINUOUS
 62
           7
100
AcDbCircle
 10
-13880.920741305239
 20
-7561.313912746151
 30
0.0
 40
1.5
100
AcDbArc
 50
266.088
 51
356.087999999999
  0
ARC
  5
33B
100
AcDbEntity
  8
Frei
  6
CONTINUOUS
 62
           7
100
AcDbCircle
 10
-13868.061785995038
 20
-7549.162893516053
 30
0.0
 40
1.5
100
AcDbArc
 50
356.087999999999
 51
86.088
  0
ARC
  5
33C
100
AcDbEntity
  8
Frei
  6
CONTINUOUS
 62
           7
100
AcDbCircle
 10
-13869.085149650218
 20
-7564.127943694026
 30
0.0
 40
1.5
100
AcDbArc
 50
266.088
 51
356.087999999999
  0
ARC
  5
33D
100
AcDbEntity
  8
Frei
  6
CONTINUOUS
 62
           7
100
AcDbCircle
 10
-13877.198704915823
 20
-7506.885107257642
 30
0.0
 40
2.0
100
AcDbArc
 50
356.087999999999
 51
84.088
  0
ARC
  5
33E
100
AcDbEntity
  8
Frei
  6
CONTINUOUS
 62
           7
100
AcDbCircle
 10
-13906.224439912692
 20
-7498.942261839804
 30
0.0
 40
1.0
100
AcDbArc
 50
356.087999999999
 51
86.088
  0
ARC
  5
33F
100
AcDbEntity
  8
Frei
  6
CONTINUOUS
 62
           7
100
AcDbCircle
 10
-13908.339391466732
 20
-7529.870032207615
 30
0.0
 40
1.0
100
AcDbArc
 50
266.087999999999
 51
356.087999999999
  0
ARC
  5
340
100
AcDbEntity
  8
Frei
  6
CONTINUOUS
 62
           7
100
AcDbCircle
 10
-14064.97358332952
 20
-7519.158825950059
 30
0.0
 40
1.0
100
AcDbArc
 50
176.088
 51
266.088
  0
ARC
  5
341
100
AcDbEntity
  8
Frei
  6
CONTINUOUS
 62
           7
100
AcDbCircle
 10
-14062.85863177548
 20
-7488.231055582248
 30
0.0
 40
1.0
100
AcDbArc
 50
86.088
 51
176.088
  0
LINE
  5
342
100
AcDbEntity
  8
Frei
  6
CONTINUOUS
 62
           7
100
AcDbLine
 10
-14318.26802617966
 20
-7472.14158074273
 30
0.0
 11
-14318.268026179661
 21
-7542.14158074273
 31
0.0
  0
LINE
  5
343
100
AcDbEntity
  8
Frei
  6
CONTINUOUS
 62
           7
100
AcDbLine
 10
-13800.379141179661
 20
-7542.141580742741
 30
0.0
 11
-13800.379141179659
 21
-7472.141580742741
 31
0.0
  0
LINE
  5
344
100
AcDbEntity
  8
Frei
  6
CONTINUOUS
 62
          15
100
AcDbLine
 10
-14127.197825911007
 20
-7472.141580742734
 30
0.0
 11
-14318.26802617966
 21
-7472.14158074273
 31
0.0
  0
LINE
  5
345
100
AcDbEntity
  8
Frei
  6
GESTRICHELT
 62
          15
100
AcDbLine
 10
-14090.006673697948
 20
-7472.141580742735
 30
0.0
 11
-14127.197825911007
 21
-7472.141580742734
 31
0.0
  0
LINE
  5
346
100
AcDbEntity
  8
Frei
  6
CONTINUOUS
 62
          15
100
AcDbLine
 10
-13800.37907917966
 20
-7472.141580742741
 30
0.0
 11
-14090.00667369795
 21
-7472.141580742735
 31
0.0
  0
LINE
  5
347
100
AcDbEntity
  8
Frei
  6
CONTINUOUS
 62
          15
100
AcDbLine
 10
-14119.669004074281
 20
-7542.141580742735
 30
0.0
 11
-14318.268026179661
 21
-7542.14158074273
 31
0.0
  0
LINE
  5
348
100
AcDbEntity
  8
Frei
  6
GESTRICHELT
 62
          15
100
AcDbLine
 10
-14069.552232591357
 20
-7542.141580742736
 30
0.0
 11
-14119.669004074281
 21
-7542.141580742735
 31
0.0
  0
LINE
  5
349
100
AcDbEntity
  8
Frei
  6
CONTINUOUS
 62
          15
100
AcDbLine
 10
-13906.171557557018
 20
-7542.141580742739
 30
0.0
 11
-14069.552232591357
 21
-7542.141580742736
 31
0.0
  0
LINE
  5
34A
100
AcDbEntity
  8
Frei
  6
GESTRICHELT
 62
          15
100
AcDbLine
 10
-13878.106165526578
 20
-7542.14158074274
 30
0.0
 11
-13906.171557557018
 21
-7542.141580742739
 31
0.0
  0
LINE
  5
34B
100
AcDbEntity
  8
Frei
  6
CONTINUOUS
 62
          15
100
AcDbLine
 10
-13850.542695504933
 20
-7542.14158074274
 30
0.0
 11
-13878.106165526578
 21
-7542.14158074274
 31
0.0
  0
LINE
  5
34C
100
AcDbEntity
  8
Frei
  6
GESTRICHELT
 62
          15
100
AcDbLine
 10
-13843.73911387531
 20
-7542.14158074274
 30
0.0
 11
-13850.542695504933
 21
-7542.14158074274
 31
0.0
  0
LINE
  5
34D
100
AcDbEntity
  8
Frei
  6
CONTINUOUS
 62
          15
100
AcDbLine
 10
-13800.379079179662
 20
-7542.141580742741
 30
0.0
 11
-13843.73911387531
 21
-7542.14158074274
 31
0.0
  0
TEXT
  5
34E
100
AcDbEntity
  8
FREI
  6
CONTINUOUS
 62
          15
100
AcDbText
 10
-14393.120811030036
 20
-7598.410104879433
 30
0.0
 40
3.527777671814
  1
140-701
 41
0.899999979725
  7
GOTHICG
100
AcDbText
  0
ENDSEC
  0
SECTION
  2
OBJECTS
  0
DICTIONARY
  5
19
100
AcDbDictionary
  3
ACAD_GROUP
350
1A
  3
ACAD_MLINESTYLE
350
1B
  0
DICTIONARY
  5
1A
102
{ACAD_REACTORS
330
19
102
}
100
AcDbDictionary
  0
DICTIONARY
  5
1B
102
{ACAD_REACTORS
330
19
102
}
100
AcDbDictionary
  3
STANDARD
350
1C
  0
MLINESTYLE
  5
1C
102
{ACAD_REACTORS
330
1B
102
}
100
AcDbMlineStyle
  2
STANDARD
 70
           0
  3

 62
           0
 51
90.0
 52
90.0
 71
           2
 49
0.5
 62
         256
  6
BYLAYER
 49
-0.5
 62
         256
  6
BYLAYER
  0
ENDSEC
  0
EOF
