  0
SECTION
  2
HEADER
  9
$ACADVER
  1
AC1012
  9
$DWGCODEPAGE
  3
dos850
  9
$INSBASE
 10
0.0
 20
0.0
 30
0.0
  9
$EXTMIN
 10
-14518.320856740786
 20
-8276.103774651459
 30
0.0
  9
$EXTMAX
 10
-13879.575232754036
 20
-7964.251704923728
 30
0.0
  9
$LIMMIN
 10
-14518.320856740786
 20
-8276.103774651459
  9
$LIMMAX
 10
-13879.575232754036
 20
-7964.251704923728
  9
$ORTHOMODE
 70
           0
  9
$REGENMODE
 70
           1
  9
$FILLMODE
 70
           1
  9
$QTEXTMODE
 70
           0
  9
$MIRRTEXT
 70
           1
  9
$DRAGMODE
 70
           2
  9
$LTSCALE
 40
5.0
  9
$OSMODE
 70
           0
  9
$ATTMODE
 70
           1
  9
$TEXTSIZE
 40
0.2
  9
$TRACEWID
 40
0.05
  9
$TEXTSTYLE
  7
TXT
  9
$CLAYER
  8
0
  9
$CELTYPE
  6
CONTINUOUS
  9
$CECOLOR
 62
         256
  9
$CELTSCALE
 40
1.0
  9
$DELOBJ
 70
           1
  9
$DISPSILH
 70
           0
  9
$DIMSCALE
 40
1.0
  9
$DIMASZ
 40
3.5
  9
$DIMEXO
 40
0.0625
  9
$DIMDLI
 40
0.38
  9
$DIMRND
 40
0.0
  9
$DIMDLE
 40
0.0
  9
$DIMEXE
 40
0.18
  9
$DIMTP
 40
0.0
  9
$DIMTM
 40
0.0
  9
$DIMTXT
 40
3.5
  9
$DIMCEN
 40
0.09
  9
$DIMTSZ
 40
0.0
  9
$DIMTOL
 70
           0
  9
$DIMLIM
 70
           0
  9
$DIMTIH
 70
           1
  9
$DIMTOH
 70
           1
  9
$DIMSE1
 70
           0
  9
$DIMSE2
 70
           0
  9
$DIMTAD
 70
           0
  9
$DIMZIN
 70
           0
  9
$DIMBLK
  1

  9
$DIMASO
 70
           1
  9
$DIMSHO
 70
           1
  9
$DIMPOST
  1

  9
$DIMAPOST
  1

  9
$DIMALT
 70
           0
  9
$DIMALTD
 70
           2
  9
$DIMALTF
 40
25.4
  9
$DIMLFAC
 40
1.0
  9
$DIMTOFL
 70
           0
  9
$DIMTVP
 40
0.0
  9
$DIMTIX
 70
           0
  9
$DIMSOXD
 70
           0
  9
$DIMSAH
 70
           0
  9
$DIMBLK1
  1

  9
$DIMBLK2
  1

  9
$DIMSTYLE
  2
STANDARD
  9
$DIMCLRD
 70
           0
  9
$DIMCLRE
 70
           0
  9
$DIMCLRT
 70
           0
  9
$DIMTFAC
 40
1.0
  9
$DIMGAP
 40
0.09
  9
$DIMJUST
 70
           0
  9
$DIMSD1
 70
           0
  9
$DIMSD2
 70
           0
  9
$DIMTOLJ
 70
           1
  9
$DIMTZIN
 70
           0
  9
$DIMALTZ
 70
           0
  9
$DIMALTTZ
 70
           0
  9
$DIMFIT
 70
           3
  9
$DIMUPT
 70
           0
  9
$DIMUNIT
 70
           2
  9
$DIMDEC
 70
           4
  9
$DIMTDEC
 70
           4
  9
$DIMALTU
 70
           2
  9
$DIMALTTD
 70
           2
  9
$DIMTXSTY
  7
TXT
  9
$DIMAUNIT
 70
           0
  9
$LUNITS
 70
           2
  9
$LUPREC
 70
           3
  9
$SKETCHINC
 40
0.1
  9
$FILLETRAD
 40
0.0
  9
$AUNITS
 70
           0
  9
$AUPREC
 70
           3
  9
$MENU
  1
acad
  9
$ELEVATION
 40
0.0
  9
$PELEVATION
 40
0.0
  9
$THICKNESS
 40
0.0
  9
$LIMCHECK
 70
           0
  9
$BLIPMODE
 70
           1
  9
$CHAMFERA
 40
0.0
  9
$CHAMFERB
 40
0.0
  9
$CHAMFERC
 40
0.0
  9
$CHAMFERD
 40
0.0
  9
$SKPOLY
 70
           0
  9
$TDCREATE
 40
0.000000000
  9
$TDUPDATE
 40
0.000000000
  9
$TDINDWG
 40
0.0000000000
  9
$TDUSRTIMER
 40
0.0000000000
  9
$USRTIMER
 70
           1
  9
$ANGBASE
 50
0.0
  9
$ANGDIR
 70
           0
  9
$PDMODE
 70
           2
  9
$PDSIZE
 40
0.5
  9
$PLINEWID
 40
0.0
  9
$COORDS
 70
           0
  9
$SPLFRAME
 70
           0
  9
$SPLINETYPE
 70
           6
  9
$SPLINESEGS
 70
           8
  9
$ATTDIA
 70
           0
  9
$ATTREQ
 70
           1
  9
$HANDLING
 70
           1
  9
$HANDSEED
  5
3AB
  9
$SURFTAB1
 70
           6
  9
$SURFTAB2
 70
           6
  9
$SURFTYPE
 70
           6
  9
$SURFU
 70
           6
  9
$SURFV
 70
           6
  9
$UCSNAME
  2

  9
$UCSORG
 10
0.0
 20
0.0
 30
0.0
  9
$UCSXDIR
 10
1.0
 20
0.0
 30
0.0
  9
$UCSYDIR
 10
0.0
 20
1.0
 30
0.0
  9
$PUCSNAME
  2

  9
$PUCSORG
 10
0.0
 20
0.0
 30
0.0
  9
$PUCSXDIR
 10
1.0
 20
0.0
 30
0.0
  9
$PUCSYDIR
 10
0.0
 20
1.0
 30
0.0
  9
$USERI1
 70
           0
  9
$USERI2
 70
           0
  9
$USERI3
 70
           0
  9
$USERI4
 70
           0
  9
$USERI5
 70
           0
  9
$USERR1
 40
0.0
  9
$USERR2
 40
0.0
  9
$USERR3
 40
0.0
  9
$USERR4
 40
0.0
  9
$USERR5
 40
0.0
  9
$WORLDVIEW
 70
           1
  9
$SHADEDGE
 70
           3
  9
$SHADEDIF
 70
          70
  9
$TILEMODE
 70
           1
  9
$MAXACTVP
 70
          16
  9
$PINSBASE
 10
0.0
 20
0.0
 30
0.0
  9
$PLIMCHECK
 70
           0
  9
$PEXTMIN
 10
1.000000000000E+20
 20
1.000000000000E+20
 30
1.000000000000E+20
  9
$PEXTMAX
 10
-1.000000000000E+20
 20
-1.000000000000E+20
 30
-1.000000000000E+20
  9
$PLIMMIN
 10
0.0
 20
0.0
  9
$PLIMMAX
 10
12.0
 20
9.0
  9
$UNITMODE
 70
           0
  9
$VISRETAIN
 70
           0
  9
$PLINEGEN
 70
           1
  9
$PSLTSCALE
 70
           0
  9
$TREEDEPTH
 70
        3020
  9
$PICKSTYLE
 70
           1
  9
$CMLSTYLE
  2
STANDARD
  9
$CMLJUST
 70
           0
  9
$CMLSCALE
 40
1.0
  9
$SAVEIMAGES
 70
           0
  0
ENDSEC
  0
SECTION
  2
CLASSES
  0
CLASS
  1
LWPOLYLINE
  2
AcDbPolyline
  3
"AutoCAD"
 90
        0
280
           0
281
           1
  0
CLASS
  1
IMAGE
  2
AcDbRasterImage
  3
ISM
 90
      127
280
           0
281
           1
  0
CLASS
  1
OLE2FRAME
  2
AcDbOle2Frame
  3
""
 90
        0
280
           0
281
           1
  0
CLASS
  1
HATCH
  2
AcDbHatch
  3
"ACAD_SEDONA"
 90
        0
280
           0
281
           1
  0
CLASS
  1
DICTIONARYVAR
  2
AcDbDictionaryVar
  3
"AutoCAD"
 90
        0
280
           0
281
           0
  0
CLASS
  1
RASTERVARIABLES
  2
AcDbRasterVariables
  3
ISM
 90
        0
280
           0
281
           0
  0
CLASS
  1
IMAGEDEF
  2
AcDbRasterImageDef
  3
ISM
 90
        0
280
           0
281
           0
  0
CLASS
  1
IMAGEDEF_REACTOR
  2
AcDbRasterImageDefReactor
  3
ISM
 90
        1
280
           0
281
           0
  0
CLASS
  1
IDBUFFER
  2
AcDbIdBuffer
  3
"Acad"
 90
        0
280
           0
281
           0
  0
CLASS
  1
SPATIAL_FILTER
  2
AcDbSpatialFilter
  3
"Acad"
 90
        0
280
           0
281
           0
  0
CLASS
  1
XRECORD
  2
AcDbXrecord
  3
"<Built In>"
 90
        0
280
           0
281
           0
  0
ENDSEC
  0
SECTION
  2
TABLES
  0
TABLE
  2
VPORT
  5
7
100
AcDbSymbolTable
 70
           1
  0
VPORT
  5
15
100
AcDbSymbolTableRecord
100
AcDbViewportTableRecord
  2
*ACTIVE
 70
           0
 10
0.0
 20
0.0
 11
1.0
 21
1.0
 12
6.591288
 22
4.579184
 13
0.0
 23
0.0
 14
1.0
 24
1.0
 15
0.0
 25
0.0
 16
0.0
 26
0.0
 36
1.0
 17
0.0
 27
0.0
 37
0.0
 40
9.158369
 41
0.688564
 42
50.0
 43
0.0
 44
0.0
 50
0.0
 51
0.0
 71
           0
 72
         100
 73
           1
 74
           1
 75
           0
 76
           0
 77
           0
 78
           0
  0
ENDTAB
  0
TABLE
  2
LTYPE
  5
4
100
AcDbSymbolTable
 70
           5
  0
LTYPE
  5
11
100
AcDbSymbolTableRecord
100
AcDbLinetypeTableRecord
  2
BYBLOCK
 70
           0
  3

 72
          65
 73
           0
 40
0.0
  0
LTYPE
  5
12
100
AcDbSymbolTableRecord
100
AcDbLinetypeTableRecord
  2
BYLAYER
 70
           0
  3

 72
          65
 73
           0
 40
0.0
  0
LTYPE
  5
13
100
AcDbSymbolTableRecord
100
AcDbLinetypeTableRecord
  2
CONTINUOUS
 70
           0
  3
Solid line
 72
          65
 73
           0
 40
0.0
  0
LTYPE
  5
1D
100
AcDbSymbolTableRecord
100
AcDbLinetypeTableRecord
  2
GESTRICHELT
 70
           0
  3

 72
          65
 73
           2
 40
0.75
 49
0.5
 74
           0
 49
-0.25
 74
           0
  0
LTYPE
  5
1E
100
AcDbSymbolTableRecord
100
AcDbLinetypeTableRecord
  2
STRICHPUNKT
 70
           0
  3

 72
          65
 73
           4
 40
1.0
 49
0.5
 74
           0
 49
-0.25
 74
           0
 49
0.0
 74
           0
 49
-0.25
 74
           0
  0
ENDTAB
  0
TABLE
  2
LAYER
  5
2
100
AcDbSymbolTable
 70
           3
  0
LAYER
  5
14
100
AcDbSymbolTableRecord
100
AcDbLayerTableRecord
  2
0
 70
           0
 62
           7
  6
CONTINUOUS
  0
LAYER
  5
20
100
AcDbSymbolTableRecord
100
AcDbLayerTableRecord
  2
FREI
 70
           0
 62
           7
  6
CONTINUOUS
  0
LAYER
  5
21
100
AcDbSymbolTableRecord
100
AcDbLayerTableRecord
  2
Frei
 70
           0
 62
           7
  6
CONTINUOUS
  0
ENDTAB
  0
TABLE
  2
STYLE
  5
3
100
AcDbSymbolTable
 70
           2
  0
STYLE
  5
17
100
AcDbSymbolTableRecord
100
AcDbTextStyleTableRecord
  2
TXT
 70
           0
 40
3.5
 41
1.0
 50
0.0
 71
           0
 42
3.5
  3
TXT
  4

  0
STYLE
  5
1F
100
AcDbSymbolTableRecord
100
AcDbTextStyleTableRecord
  2
GOTHICG
 70
           0
 40
3.5
 41
1.0
 50
0.0
 71
           0
 42
3.5
  3
GOTHICG
  4

  0
ENDTAB
  0
TABLE
  2
VIEW
  5
5
100
AcDbSymbolTable
 70
           0
  0
ENDTAB
  0
TABLE
  2
UCS
  5
6
100
AcDbSymbolTable
 70
           0
  0
ENDTAB
  0
TABLE
  2
APPID
  5
8
100
AcDbSymbolTable
 70
           2
  0
APPID
  5
16
100
AcDbSymbolTableRecord
100
AcDbRegAppTableRecord
  2
ACAD
 70
           0
  0
APPID
  5
22
100
AcDbSymbolTableRecord
100
AcDbRegAppTableRecord
  2
MegaCADPntStyle
 70
           0
  0
ENDTAB
  0
TABLE
  2
DIMSTYLE
  5
9
100
AcDbSymbolTable
 70
           1
  0
DIMSTYLE
105
18
100
AcDbSymbolTableRecord
100
AcDbDimStyleTableRecord
  2
STANDARD
 70
           0
  3

  4

  5

  6

  7

 40
1.0
 41
0.18
 42
0.0625
 43
0.38
 44
0.18
 45
0.0
 46
0.0
 47
0.0
 48
0.0
140
0.18
141
0.09
142
0.0
143
25.4
144
1.0
145
0.0
146
1.0
147
0.09
 71
           0
 72
           0
 73
           1
 74
           1
 75
           0
 76
           0
 77
           0
 78
           0
170
           0
171
           2
172
           0
173
           0
174
           0
175
           0
176
           0
177
           0
178
           0
270
           2
271
           4
272
           4
273
           2
274
           2
340
17
275
           0
280
           0
281
           0
282
           0
283
           1
284
           0
285
           0
286
           0
287
           0
288
           0
  0
ENDTAB
  0
TABLE
  2
BLOCK_RECORD
  5
1
100
AcDbSymbolTable
 70
           3
  0
BLOCK_RECORD
  5
A
100
AcDbSymbolTableRecord
100
AcDbBlockTableRecord
  2
*MODEL_SPACE
  0
BLOCK_RECORD
  5
B
100
AcDbSymbolTableRecord
100
AcDbBlockTableRecord
  2
*PAPER_SPACE
  0
BLOCK_RECORD
  5
23
100
AcDbSymbolTableRecord
100
AcDbBlockTableRecord
  2
ELIPPSE
  0
BLOCK_RECORD
  5
24
100
AcDbSymbolTableRecord
100
AcDbBlockTableRecord
  2
MAK1
  0
BLOCK_RECORD
  5
25
100
AcDbSymbolTableRecord
100
AcDbBlockTableRecord
  2
MAK2
  0
ENDTAB
  0
ENDSEC
  0
SECTION
  2
BLOCKS
  0
BLOCK
  5
D
100
AcDbEntity
  8
0
100
AcDbBlockBegin
  2
*MODEL_SPACE
 70
           0
 10
0.0
 20
0.0
 30
0.0
  3
*MODEL_SPACE
  1

  0
ENDBLK
  5
E
100
AcDbEntity
  8
0
100
AcDbBlockEnd
  0
BLOCK
  5
F
100
AcDbEntity
 67
           1
  8
0
100
AcDbBlockBegin
  2
*PAPER_SPACE
 70
           0
 10
0.0
 20
0.0
 30
0.0
  3
*PAPER_SPACE
  1

  0
ENDBLK
  5
10
100
AcDbEntity
 67
           1
  8
0
100
AcDbBlockEnd
  0
BLOCK
  5
34F
100
AcDbEntity
  8
0
100
AcDbBlockBegin
  2
ELIPPSE
 70
          64
 10
0.0
 20
0.0
 30
0.0
  3
ELIPPSE
  1

  0
CIRCLE
  5
350
100
AcDbEntity
  8
0
  6
BYBLOCK
 62
           0
100
AcDbCircle
 10
0.0
 20
0.0
 30
0.0
 40
1.0
  0
ENDBLK
  5
351
100
AcDbEntity
  8
0
  6
BYBLOCK
 62
           0
100
AcDbBlockEnd
  0
BLOCK
  5
352
100
AcDbEntity
  8
0
100
AcDbBlockBegin
  2
MAK1
 70
          64
 10
0.0
 20
0.0
 30
0.0
  3
MAK1
  1

  0
LINE
  5
353
100
AcDbEntity
  8
Frei
  6
CONTINUOUS
 62
           2
100
AcDbLine
 10
191.903508353413
 20
615.106916893559
 30
0.0
 11
192.293358480829
 21
615.496767020979
 31
0.0
  0
LINE
  5
354
100
AcDbEntity
  8
Frei
  6
CONTINUOUS
 62
           2
100
AcDbLine
 10
191.903508353411
 20
614.04625672178
 30
0.0
 11
193.354018652608
 21
615.496767020979
 31
0.0
  0
LINE
  5
355
100
AcDbEntity
  8
Frei
  6
CONTINUOUS
 62
           2
100
AcDbLine
 10
191.903508353413
 20
612.985596550001
 30
0.0
 11
193.903508353413
 21
614.985596549999
 31
0.0
  0
LINE
  5
356
100
AcDbEntity
  8
Frei
  6
CONTINUOUS
 62
           2
100
AcDbLine
 10
191.903508353411
 20
611.924936378218
 30
0.0
 11
193.903508353411
 21
613.92493637822
 31
0.0
  0
LINE
  5
357
100
AcDbEntity
  8
Frei
  6
CONTINUOUS
 62
           2
100
AcDbLine
 10
191.903508353413
 20
610.864276206441
 30
0.0
 11
193.903508353413
 21
612.864276206439
 31
0.0
  0
LINE
  5
358
100
AcDbEntity
  8
Frei
  6
CONTINUOUS
 62
           2
100
AcDbLine
 10
191.903508353411
 20
609.80361603466
 30
0.0
 11
193.903508353411
 21
611.80361603466
 31
0.0
  0
LINE
  5
359
100
AcDbEntity
  8
Frei
  6
CONTINUOUS
 62
           2
100
AcDbLine
 10
191.903508353413
 20
608.742955862881
 30
0.0
 11
193.903508353413
 21
610.742955862881
 31
0.0
  0
LINE
  5
35A
100
AcDbEntity
  8
Frei
  6
CONTINUOUS
 62
           2
100
AcDbLine
 10
191.903508353411
 20
607.682295691102
 30
0.0
 11
193.903508353411
 21
609.682295691102
 31
0.0
  0
LINE
  5
35B
100
AcDbEntity
  8
Frei
  6
CONTINUOUS
 62
           2
100
AcDbLine
 10
191.903508353413
 20
606.621635519321
 30
0.0
 11
193.903508353413
 21
608.621635519321
 31
0.0
  0
LINE
  5
35C
100
AcDbEntity
  8
Frei
  6
CONTINUOUS
 62
           2
100
AcDbLine
 10
191.903508353413
 20
605.560975347542
 30
0.0
 11
193.903508353411
 21
607.560975347542
 31
0.0
  0
LINE
  5
35D
100
AcDbEntity
  8
Frei
  6
CONTINUOUS
 62
           2
100
AcDbLine
 10
191.903508353411
 20
604.500315175761
 30
0.0
 11
193.903508353413
 21
606.500315175761
 31
0.0
  0
LINE
  5
35E
100
AcDbEntity
  8
Frei
  6
CONTINUOUS
 62
           2
100
AcDbLine
 10
191.903508353411
 20
603.439655003982
 30
0.0
 11
193.903508353411
 21
605.439655003982
 31
0.0
  0
LINE
  5
35F
100
AcDbEntity
  8
Frei
  6
CONTINUOUS
 62
           2
100
AcDbLine
 10
191.903508353413
 20
602.378994832201
 30
0.0
 11
193.903508353413
 21
604.378994832203
 31
0.0
  0
LINE
  5
360
100
AcDbEntity
  8
Frei
  6
CONTINUOUS
 62
           2
100
AcDbLine
 10
191.903508353413
 20
601.318334660422
 30
0.0
 11
193.903508353413
 21
603.31833466042
 31
0.0
  0
LINE
  5
361
100
AcDbEntity
  8
Frei
  6
CONTINUOUS
 62
           2
100
AcDbLine
 10
191.903508353411
 20
600.257674488643
 30
0.0
 11
193.903508353411
 21
602.257674488643
 31
0.0
  0
LINE
  5
362
100
AcDbEntity
  8
Frei
  6
CONTINUOUS
 62
           2
100
AcDbLine
 10
191.903508353411
 20
599.197014316862
 30
0.0
 11
193.903508353413
 21
601.197014316862
 31
0.0
  0
LINE
  5
363
100
AcDbEntity
  8
Frei
  6
CONTINUOUS
 62
           2
100
AcDbLine
 10
191.903508353413
 20
598.136354145083
 30
0.0
 11
193.903508353413
 21
600.136354145083
 31
0.0
  0
LINE
  5
364
100
AcDbEntity
  8
Frei
  6
CONTINUOUS
 62
           2
100
AcDbLine
 10
191.903508353411
 20
597.075693973302
 30
0.0
 11
193.903508353415
 21
599.075693973304
 31
0.0
  0
LINE
  5
365
100
AcDbEntity
  8
Frei
  6
CONTINUOUS
 62
           2
100
AcDbLine
 10
191.903508353411
 20
596.015033801523
 30
0.0
 11
193.903508353411
 21
598.015033801523
 31
0.0
  0
LINE
  5
366
100
AcDbEntity
  8
Frei
  6
CONTINUOUS
 62
           2
100
AcDbLine
 10
192.445901744644
 20
595.496767020977
 30
0.0
 11
193.903508353413
 21
596.954373629744
 31
0.0
  0
LINE
  5
367
100
AcDbEntity
  8
Frei
  6
CONTINUOUS
 62
           2
100
AcDbLine
 10
193.506561916425
 20
595.496767020977
 30
0.0
 11
193.903508353413
 21
595.893713457963
 31
0.0
  0
LINE
  5
368
100
AcDbEntity
  8
Frei
  6
CONTINUOUS
 62
           2
100
AcDbLine
 10
192.573740611429
 20
595.496767020977
 30
0.0
 11
191.903508353413
 21
596.166999278996
 31
0.0
  0
LINE
  5
369
100
AcDbEntity
  8
Frei
  6
CONTINUOUS
 62
           2
100
AcDbLine
 10
193.634400783207
 20
595.496767020977
 30
0.0
 11
191.903508353411
 21
597.227659450777
 31
0.0
  0
LINE
  5
36A
100
AcDbEntity
  8
Frei
  6
CONTINUOUS
 62
           2
100
AcDbLine
 10
193.903508353411
 20
596.288319622556
 30
0.0
 11
191.903508353411
 21
598.288319622554
 31
0.0
  0
LINE
  5
36B
100
AcDbEntity
  8
Frei
  6
CONTINUOUS
 62
           2
100
AcDbLine
 10
193.903508353413
 20
597.348979794337
 30
0.0
 11
191.903508353413
 21
599.348979794337
 31
0.0
  0
LINE
  5
36C
100
AcDbEntity
  8
Frei
  6
CONTINUOUS
 62
           2
100
AcDbLine
 10
193.903508353411
 20
598.409639966114
 30
0.0
 11
191.903508353413
 21
600.409639966116
 31
0.0
  0
LINE
  5
36D
100
AcDbEntity
  8
Frei
  6
CONTINUOUS
 62
           2
100
AcDbLine
 10
193.903508353413
 20
599.470300137895
 30
0.0
 11
191.903508353411
 21
601.470300137895
 31
0.0
  0
LINE
  5
36E
100
AcDbEntity
  8
Frei
  6
CONTINUOUS
 62
           2
100
AcDbLine
 10
193.903508353411
 20
600.530960309674
 30
0.0
 11
191.903508353413
 21
602.530960309674
 31
0.0
  0
LINE
  5
36F
100
AcDbEntity
  8
Frei
  6
CONTINUOUS
 62
           2
100
AcDbLine
 10
193.903508353413
 20
601.591620481453
 30
0.0
 11
191.903508353413
 21
603.591620481455
 31
0.0
  0
LINE
  5
370
100
AcDbEntity
  8
Frei
  6
CONTINUOUS
 62
           2
100
AcDbLine
 10
193.903508353413
 20
602.652280653234
 30
0.0
 11
191.903508353411
 21
604.652280653236
 31
0.0
  0
LINE
  5
371
100
AcDbEntity
  8
Frei
  6
CONTINUOUS
 62
           2
100
AcDbLine
 10
193.903508353413
 20
603.712940825015
 30
0.0
 11
191.903508353411
 21
605.712940825015
 31
0.0
  0
LINE
  5
372
100
AcDbEntity
  8
Frei
  6
CONTINUOUS
 62
           2
100
AcDbLine
 10
193.903508353411
 20
604.773600996794
 30
0.0
 11
191.903508353411
 21
606.773600996794
 31
0.0
  0
LINE
  5
373
100
AcDbEntity
  8
Frei
  6
CONTINUOUS
 62
           2
100
AcDbLine
 10
193.903508353413
 20
605.834261168573
 30
0.0
 11
191.903508353413
 21
607.834261168573
 31
0.0
  0
LINE
  5
374
100
AcDbEntity
  8
Frei
  6
CONTINUOUS
 62
           2
100
AcDbLine
 10
193.903508353413
 20
606.894921340352
 30
0.0
 11
191.903508353411
 21
608.894921340354
 31
0.0
  0
LINE
  5
375
100
AcDbEntity
  8
Frei
  6
CONTINUOUS
 62
           2
100
AcDbLine
 10
193.903508353413
 20
607.955581512133
 30
0.0
 11
191.903508353413
 21
609.955581512131
 31
0.0
  0
LINE
  5
376
100
AcDbEntity
  8
Frei
  6
CONTINUOUS
 62
           2
100
AcDbLine
 10
193.903508353411
 20
609.016241683912
 30
0.0
 11
191.903508353411
 21
611.016241683912
 31
0.0
  0
LINE
  5
377
100
AcDbEntity
  8
Frei
  6
CONTINUOUS
 62
           2
100
AcDbLine
 10
193.903508353413
 20
610.076901855693
 30
0.0
 11
191.903508353413
 21
612.076901855693
 31
0.0
  0
LINE
  5
378
100
AcDbEntity
  8
Frei
  6
CONTINUOUS
 62
           2
100
AcDbLine
 10
193.903508353413
 20
611.137562027472
 30
0.0
 11
191.903508353411
 21
613.137562027474
 31
0.0
  0
LINE
  5
379
100
AcDbEntity
  8
Frei
  6
CONTINUOUS
 62
           2
100
AcDbLine
 10
193.903508353413
 20
612.198222199251
 30
0.0
 11
191.903508353413
 21
614.198222199251
 31
0.0
  0
LINE
  5
37A
100
AcDbEntity
  8
Frei
  6
CONTINUOUS
 62
           2
100
AcDbLine
 10
193.903508353411
 20
613.258882371032
 30
0.0
 11
191.903508353411
 21
615.258882371032
 31
0.0
  0
LINE
  5
37B
100
AcDbEntity
  8
Frei
  6
CONTINUOUS
 62
           2
100
AcDbLine
 10
193.903508353413
 20
614.319542542811
 30
0.0
 11
192.726283875247
 21
615.496767020979
 31
0.0
  0
LINE
  5
37C
100
AcDbEntity
  8
Frei
  6
CONTINUOUS
 62
           2
100
AcDbLine
 10
193.903508353413
 20
615.380202714592
 30
0.0
 11
193.786944047028
 21
615.496767020979
 31
0.0
  0
ENDBLK
  5
37D
100
AcDbEntity
  8
0
  6
BYBLOCK
 62
           0
100
AcDbBlockEnd
  0
BLOCK
  5
37E
100
AcDbEntity
  8
0
100
AcDbBlockBegin
  2
MAK2
 70
          64
 10
0.0
 20
0.0
 30
0.0
  3
MAK2
  1

  0
LINE
  5
37F
100
AcDbEntity
  8
Frei
  6
CONTINUOUS
 62
           2
100
AcDbLine
 10
-32.096491646589
 20
614.906213139102
 30
0.0
 11
-31.50593776471
 21
615.496767020979
 31
0.0
  0
LINE
  5
380
100
AcDbEntity
  8
Frei
  6
CONTINUOUS
 62
           2
100
AcDbLine
 10
-32.096491646589
 20
613.845552967321
 30
0.0
 11
-30.445277592931
 21
615.496767020977
 31
0.0
  0
LINE
  5
381
100
AcDbEntity
  8
Frei
  6
CONTINUOUS
 62
           2
100
AcDbLine
 10
-32.096491646587
 20
612.784892795542
 30
0.0
 11
-30.096491646589
 21
614.784892795542
 31
0.0
  0
LINE
  5
382
100
AcDbEntity
  8
Frei
  6
CONTINUOUS
 62
           2
100
AcDbLine
 10
-32.096491646591
 20
611.724232623763
 30
0.0
 11
-30.096491646591
 21
613.724232623761
 31
0.0
  0
LINE
  5
383
100
AcDbEntity
  8
Frei
  6
CONTINUOUS
 62
           2
100
AcDbLine
 10
-32.096491646589
 20
610.663572451982
 30
0.0
 11
-30.096491646591
 21
612.663572451982
 31
0.0
  0
LINE
  5
384
100
AcDbEntity
  8
Frei
  6
CONTINUOUS
 62
           2
100
AcDbLine
 10
-32.096491646587
 20
609.602912280203
 30
0.0
 11
-30.096491646589
 21
611.602912280203
 31
0.0
  0
LINE
  5
385
100
AcDbEntity
  8
Frei
  6
CONTINUOUS
 62
           2
100
AcDbLine
 10
-32.096491646589
 20
608.542252108422
 30
0.0
 11
-30.096491646591
 21
610.542252108422
 31
0.0
  0
LINE
  5
386
100
AcDbEntity
  8
Frei
  6
CONTINUOUS
 62
           2
100
AcDbLine
 10
-32.096491646589
 20
607.481591936643
 30
0.0
 11
-30.096491646591
 21
609.481591936643
 31
0.0
  0
LINE
  5
387
100
AcDbEntity
  8
Frei
  6
CONTINUOUS
 62
           2
100
AcDbLine
 10
-32.096491646589
 20
606.420931764864
 30
0.0
 11
-30.096491646591
 21
608.420931764864
 31
0.0
  0
LINE
  5
388
100
AcDbEntity
  8
Frei
  6
CONTINUOUS
 62
           2
100
AcDbLine
 10
-32.096491646587
 20
605.360271593085
 30
0.0
 11
-30.096491646589
 21
607.360271593085
 31
0.0
  0
LINE
  5
389
100
AcDbEntity
  8
Frei
  6
CONTINUOUS
 62
           2
100
AcDbLine
 10
-32.096491646589
 20
604.299611421302
 30
0.0
 11
-30.096491646591
 21
606.299611421304
 31
0.0
  0
LINE
  5
38A
100
AcDbEntity
  8
Frei
  6
CONTINUOUS
 62
           2
100
AcDbLine
 10
-32.096491646589
 20
603.238951249525
 30
0.0
 11
-30.096491646591
 21
605.238951249523
 31
0.0
  0
LINE
  5
38B
100
AcDbEntity
  8
Frei
  6
CONTINUOUS
 62
           2
100
AcDbLine
 10
-32.096491646589
 20
602.178291077744
 30
0.0
 11
-30.096491646591
 21
604.178291077744
 31
0.0
  0
LINE
  5
38C
100
AcDbEntity
  8
Frei
  6
CONTINUOUS
 62
           2
100
AcDbLine
 10
-32.096491646589
 20
601.117630905965
 30
0.0
 11
-30.096491646589
 21
603.117630905965
 31
0.0
  0
LINE
  5
38D
100
AcDbEntity
  8
Frei
  6
CONTINUOUS
 62
           2
100
AcDbLine
 10
-32.096491646589
 20
600.056970734186
 30
0.0
 11
-30.096491646591
 21
602.056970734186
 31
0.0
  0
LINE
  5
38E
100
AcDbEntity
  8
Frei
  6
CONTINUOUS
 62
           2
100
AcDbLine
 10
-32.096491646589
 20
598.996310562407
 30
0.0
 11
-30.096491646591
 21
600.996310562403
 31
0.0
  0
LINE
  5
38F
100
AcDbEntity
  8
Frei
  6
CONTINUOUS
 62
           2
100
AcDbLine
 10
-32.096491646589
 20
597.935650390626
 30
0.0
 11
-30.096491646591
 21
599.935650390627
 31
0.0
  0
LINE
  5
390
100
AcDbEntity
  8
Frei
  6
CONTINUOUS
 62
           2
100
AcDbLine
 10
-32.096491646589
 20
596.874990218845
 30
0.0
 11
-30.096491646591
 21
598.874990218845
 31
0.0
  0
LINE
  5
391
100
AcDbEntity
  8
Frei
  6
CONTINUOUS
 62
           2
100
AcDbLine
 10
-32.096491646589
 20
595.814330047066
 30
0.0
 11
-30.096491646591
 21
597.814330047066
 31
0.0
  0
LINE
  5
392
100
AcDbEntity
  8
Frei
  6
CONTINUOUS
 62
           2
100
AcDbLine
 10
-31.353394500897
 20
595.496767020979
 30
0.0
 11
-30.096491646591
 21
596.753669875285
 31
0.0
  0
LINE
  5
393
100
AcDbEntity
  8
Frei
  6
CONTINUOUS
 62
           2
100
AcDbLine
 10
-30.292734329118
 20
595.496767020979
 30
0.0
 11
-30.096491646591
 21
595.693009703506
 31
0.0
  0
LINE
  5
394
100
AcDbEntity
  8
Frei
  6
CONTINUOUS
 62
           2
100
AcDbLine
 10
-31.225555634113
 20
595.496767020977
 30
0.0
 11
-32.096491646589
 21
596.367703033455
 31
0.0
  0
LINE
  5
395
100
AcDbEntity
  8
Frei
  6
CONTINUOUS
 62
           2
100
AcDbLine
 10
-30.164895462332
 20
595.496767020977
 30
0.0
 11
-32.096491646587
 21
597.428363205234
 31
0.0
  0
LINE
  5
396
100
AcDbEntity
  8
Frei
  6
CONTINUOUS
 62
           2
100
AcDbLine
 10
-30.096491646589
 20
596.489023377013
 30
0.0
 11
-32.096491646589
 21
598.489023377013
 31
0.0
  0
LINE
  5
397
100
AcDbEntity
  8
Frei
  6
CONTINUOUS
 62
           2
100
AcDbLine
 10
-30.096491646591
 20
597.549683548794
 30
0.0
 11
-32.096491646589
 21
599.549683548794
 31
0.0
  0
LINE
  5
398
100
AcDbEntity
  8
Frei
  6
CONTINUOUS
 62
           2
100
AcDbLine
 10
-30.096491646591
 20
598.610343720575
 30
0.0
 11
-32.096491646589
 21
600.610343720575
 31
0.0
  0
LINE
  5
399
100
AcDbEntity
  8
Frei
  6
CONTINUOUS
 62
           2
100
AcDbLine
 10
-30.096491646591
 20
599.671003892352
 30
0.0
 11
-32.096491646589
 21
601.671003892354
 31
0.0
  0
LINE
  5
39A
100
AcDbEntity
  8
Frei
  6
CONTINUOUS
 62
           2
100
AcDbLine
 10
-30.096491646589
 20
600.731664064133
 30
0.0
 11
-32.096491646589
 21
602.731664064133
 31
0.0
  0
LINE
  5
39B
100
AcDbEntity
  8
Frei
  6
CONTINUOUS
 62
           2
100
AcDbLine
 10
-30.096491646591
 20
601.792324235912
 30
0.0
 11
-32.096491646589
 21
603.792324235912
 31
0.0
  0
LINE
  5
39C
100
AcDbEntity
  8
Frei
  6
CONTINUOUS
 62
           2
100
AcDbLine
 10
-30.096491646591
 20
602.852984407693
 30
0.0
 11
-32.096491646589
 21
604.852984407695
 31
0.0
  0
LINE
  5
39D
100
AcDbEntity
  8
Frei
  6
CONTINUOUS
 62
           2
100
AcDbLine
 10
-30.096491646589
 20
603.91364457947
 30
0.0
 11
-32.096491646589
 21
605.913644579472
 31
0.0
  0
LINE
  5
39E
100
AcDbEntity
  8
Frei
  6
CONTINUOUS
 62
           2
100
AcDbLine
 10
-30.096491646591
 20
604.974304751253
 30
0.0
 11
-32.096491646589
 21
606.974304751253
 31
0.0
  0
LINE
  5
39F
100
AcDbEntity
  8
Frei
  6
CONTINUOUS
 62
           2
100
AcDbLine
 10
-30.096491646591
 20
606.034964923032
 30
0.0
 11
-32.096491646589
 21
608.034964923032
 31
0.0
  0
LINE
  5
3A0
100
AcDbEntity
  8
Frei
  6
CONTINUOUS
 62
           2
100
AcDbLine
 10
-30.096491646593
 20
607.095625094811
 30
0.0
 11
-32.096491646589
 21
609.095625094811
 31
0.0
  0
LINE
  5
3A1
100
AcDbEntity
  8
Frei
  6
CONTINUOUS
 62
           2
100
AcDbLine
 10
-30.096491646589
 20
608.156285266592
 30
0.0
 11
-32.096491646589
 21
610.156285266592
 31
0.0
  0
LINE
  5
3A2
100
AcDbEntity
  8
Frei
  6
CONTINUOUS
 62
           2
100
AcDbLine
 10
-30.096491646591
 20
609.216945438369
 30
0.0
 11
-32.096491646587
 21
611.216945438371
 31
0.0
  0
LINE
  5
3A3
100
AcDbEntity
  8
Frei
  6
CONTINUOUS
 62
           2
100
AcDbLine
 10
-30.096491646591
 20
610.277605610152
 30
0.0
 11
-32.096491646589
 21
612.277605610152
 31
0.0
  0
LINE
  5
3A4
100
AcDbEntity
  8
Frei
  6
CONTINUOUS
 62
           2
100
AcDbLine
 10
-30.096491646591
 20
611.338265781931
 30
0.0
 11
-32.096491646589
 21
613.338265781931
 31
0.0
  0
LINE
  5
3A5
100
AcDbEntity
  8
Frei
  6
CONTINUOUS
 62
           2
100
AcDbLine
 10
-30.096491646589
 20
612.39892595371
 30
0.0
 11
-32.096491646589
 21
614.398925953712
 31
0.0
  0
LINE
  5
3A6
100
AcDbEntity
  8
Frei
  6
CONTINUOUS
 62
           2
100
AcDbLine
 10
-30.096491646591
 20
613.459586125489
 30
0.0
 11
-32.096491646587
 21
615.459586125489
 31
0.0
  0
LINE
  5
3A7
100
AcDbEntity
  8
Frei
  6
CONTINUOUS
 62
           2
100
AcDbLine
 10
-30.096491646591
 20
614.52024629727
 30
0.0
 11
-31.073012370296
 21
615.496767020979
 31
0.0
  0
ENDBLK
  5
3A8
100
AcDbEntity
  8
0
  6
BYBLOCK
 62
           0
100
AcDbBlockEnd
  0
ENDSEC
  0
SECTION
  2
ENTITIES
  0
INSERT
  5
26
100
AcDbEntity
  8
FREI
  6
CONTINUOUS
 62
           7
100
AcDbBlockReference
  2
MAK1
 10
-14186.819728314249
 20
-8711.53424103673
 30
0.0
 50
356.087999999999
  0
INSERT
  5
27
100
AcDbEntity
  8
FREI
  6
CONTINUOUS
 62
           7
100
AcDbBlockReference
  2
MAK2
 10
-14186.819728314249
 20
-8711.53424103673
 30
0.0
 50
356.087999999999
  0
LINE
  5
28
100
AcDbEntity
  8
FREI
  6
CONTINUOUS
 62
          15
100
AcDbLine
 10
-14311.84544666769
 20
-7964.251704923728
 30
0.0
 11
-14451.351256076894
 21
-8022.036903210857
 31
0.0
  0
LINE
  5
29
100
AcDbEntity
  8
FREI
  6
CONTINUOUS
 62
          15
100
AcDbLine
 10
-14362.464179754037
 20
-8236.629288389187
 30
0.0
 11
-14346.113312176494
 21
-8276.103774651459
 31
0.0
  0
LINE
  5
2A
100
AcDbEntity
  8
FREI
  6
CONTINUOUS
 62
          15
100
AcDbLine
 10
-14451.351256076894
 20
-8022.036903210857
 30
0.0
 11
-14444.184790876114
 21
-8039.338280692856
 31
0.0
  0
LINE
  5
2B
100
AcDbEntity
  8
FREI
  6
CONTINUOUS
 62
          15
100
AcDbLine
 10
-14346.113312176494
 20
-8276.103774651459
 30
0.0
 11
-14206.60750276729
 21
-8218.318576364331
 31
0.0
  0
LINE
  5
2C
100
AcDbEntity
  8
FREI
  6
CONTINUOUS
 62
          15
100
AcDbLine
 10
-14265.533393486568
 20
-8076.058891814933
 30
0.0
 11
-14311.84544666769
 21
-7964.251704923728
 31
0.0
  0
LINE
  5
2D
100
AcDbEntity
  8
FREI
  6
GESTRICHELT
 62
          15
100
AcDbLine
 10
-14236.538444120451
 20
-8146.058891814934
 30
0.0
 11
-14265.533393486568
 21
-8076.058891814933
 31
0.0
  0
LINE
  5
2E
100
AcDbEntity
  8
FREI
  6
CONTINUOUS
 62
          15
100
AcDbLine
 10
-14206.60750276729
 20
-8218.318576364331
 30
0.0
 11
-14236.538444120451
 21
-8146.058891814934
 31
0.0
  0
LINE
  5
2F
100
AcDbEntity
  8
FREI
  6
STRICHPUNKT
 62
          15
100
AcDbLine
 10
-14276.360407471891
 20
-8247.211175507895
 30
0.0
 11
-14381.598351372291
 21
-7993.144304067292
 31
0.0
  0
LINE
  5
30
100
AcDbEntity
  8
FREI
  6
STRICHPUNKT
 62
          15
100
AcDbLine
 10
-14362.464179754037
 20
-8039.338280692856
 30
0.0
 11
-14448.567952036181
 21
-8247.211175507895
 31
0.0
  0
LINE
  5
31
100
AcDbEntity
  8
FREI
  6
CONTINUOUS
 62
          15
100
AcDbLine
 10
-14444.184790876114
 20
-8039.338280692856
 30
0.0
 11
-14518.320856740786
 21
-8218.318576364331
 31
0.0
  0
LINE
  5
32
100
AcDbEntity
  8
FREI
  6
CONTINUOUS
 62
          15
100
AcDbLine
 10
-14362.464179754037
 20
-8236.629288389187
 30
0.0
 11
-14378.81504733158
 21
-8276.103774651459
 31
0.0
  0
LINE
  5
33
100
AcDbEntity
  8
FREI
  6
CONTINUOUS
 62
          15
100
AcDbLine
 10
-14362.464179754037
 20
-8076.058891814932
 30
0.0
 11
-14362.464179754037
 21
-8039.338280692856
 31
0.0
  0
LINE
  5
34
100
AcDbEntity
  8
FREI
  6
GESTRICHELT
 62
          15
100
AcDbLine
 10
-14362.464179754037
 20
-8114.058891814932
 30
0.0
 11
-14362.464179754037
 21
-8076.058891814932
 31
0.0
  0
LINE
  5
35
100
AcDbEntity
  8
FREI
  6
GESTRICHELT
 62
          15
100
AcDbLine
 10
-14362.464179754037
 20
-8146.058891814932
 30
0.0
 11
-14362.464179754037
 21
-8128.058891814932
 31
0.0
  0
LINE
  5
36
100
AcDbEntity
  8
FREI
  6
CONTINUOUS
 62
          15
100
AcDbLine
 10
-14362.464179754037
 20
-8236.629288389187
 30
0.0
 11
-14362.464179754037
 21
-8146.058891814932
 31
0.0
  0
LINE
  5
37
100
AcDbEntity
  8
FREI
  6
CONTINUOUS
 62
          15
100
AcDbLine
 10
-14444.184790876114
 20
-8039.338280692856
 30
0.0
 11
-14280.743568631962
 21
-8039.338280692856
 31
0.0
  0
LINE
  5
38
100
AcDbEntity
  8
FREI
  6
CONTINUOUS
 62
          15
100
AcDbLine
 10
-14518.320856740786
 20
-8218.318576364331
 30
0.0
 11
-14378.81504733158
 21
-8276.103774651459
 31
0.0
  0
CIRCLE
  5
39
100
AcDbEntity
  8
FREI
  6
CONTINUOUS
 62
          15
100
AcDbCircle
 10
-14362.464179754037
 20
-8121.058891814932
 30
0.0
 40
7.0
  0
CIRCLE
  5
3A
100
AcDbEntity
  8
Frei
  6
CONTINUOUS
 62
           7
100
AcDbCircle
 10
-13899.575232754038
 20
-8121.058891814933
 30
0.0
 40
6.25
  0
CIRCLE
  5
3B
100
AcDbEntity
  8
FREI
  6
CONTINUOUS
 62
          15
100
AcDbCircle
 10
-14296.868732945737
 20
-8093.888368117011
 30
0.0
 40
6.25
  0
ARC
  5
3C
100
AcDbEntity
  8
FREI
  6
CONTINUOUS
 62
          15
100
AcDbCircle
 10
-14362.464179754037
 20
-8121.058891814932
 30
0.0
 40
17.25
100
AcDbArc
 50
111.69299050693
 51
293.307009493072
  0
LINE
  5
3D
100
AcDbEntity
  8
FREI
  6
CONTINUOUS
 62
          15
100
AcDbLine
 10
-14302.875270586828
 20
-8078.789228884388
 30
0.0
 11
-14368.840350480732
 21
-8105.03057478338
 31
0.0
  0
LINE
  5
3E
100
AcDbEntity
  8
FREI
  6
CONTINUOUS
 62
          15
100
AcDbLine
 10
-14351.315821516067
 20
-8135.038740038263
 30
0.0
 11
-14355.639081648866
 21
-8136.901257037805
 31
0.0
  0
ARC
  5
3F
100
AcDbEntity
  8
FREI
  6
CONTINUOUS
 62
          15
100
AcDbCircle
 10
-14296.868732945737
 20
-8093.888368117011
 30
0.0
 40
16.25
100
AcDbArc
 50
43.677190698584
 51
111.692990506929
  0
ARC
  5
40
100
AcDbEntity
  8
FREI
  6
GESTRICHELT
 62
          15
100
AcDbCircle
 10
-14296.868732945737
 20
-8093.888368117011
 30
0.0
 40
16.25
100
AcDbArc
 50
308.476134970704
 51
43.677190698584
  0
ARC
  5
41
100
AcDbEntity
  8
FREI
  6
CONTINUOUS
 62
          15
100
AcDbCircle
 10
-14296.868732945737
 20
-8093.888368117011
 30
0.0
 40
16.25
100
AcDbArc
 50
223.699865029297
 51
308.476134970704
  0
ARC
  5
42
100
AcDbEntity
  8
FREI
  6
GESTRICHELT
 62
          15
100
AcDbCircle
 10
-14296.868732945737
 20
-8093.888368117011
 30
0.0
 40
16.25
100
AcDbArc
 50
216.333732352792
 51
223.699865029297
  0
ARC
  5
43
100
AcDbEntity
  8
FREI
  6
CONTINUOUS
 62
          15
100
AcDbCircle
 10
-14296.868732945737
 20
-8093.888368117011
 30
0.0
 40
16.25
100
AcDbArc
 50
210.049825852107
 51
216.333732352792
  0
LINE
  5
44
100
AcDbEntity
  8
FREI
  6
CONTINUOUS
 62
          15
100
AcDbLine
 10
-14318.941705458223
 20
-8101.143568250031
 30
0.0
 11
-14347.91404131379
 21
-8132.626359387062
 31
0.0
  0
ARC
  5
45
100
AcDbEntity
  8
FREI
  6
CONTINUOUS
 62
          15
100
AcDbCircle
 10
-14315.26252605124
 20
-8104.529367844104
 30
0.0
 40
5.0
100
AcDbArc
 50
30.049825852111
 51
137.377894256055
  0
ARC
  5
46
100
AcDbEntity
  8
FREI
  6
CONTINUOUS
 62
          15
100
AcDbCircle
 10
-14355.272400127758
 20
-8125.854760198919
 30
0.0
 40
10.0
100
AcDbArc
 50
293.30700949307
 51
317.377894256059
  0
LINE
  5
47
100
AcDbEntity
  8
Frei
  6
GESTRICHELT
 62
           7
100
AcDbLine
 10
-13917.134200416262
 20
-8119.857786171537
 30
0.0
 11
-13915.940276151883
 21
-8102.3985609639
 31
0.0
  0
LINE
  5
48
100
AcDbEntity
  8
Frei
  6
GESTRICHELT
 62
           7
100
AcDbLine
 10
-13915.940276151883
 20
-8102.3985609639
 30
0.0
 11
-13919.930956199341
 21
-8102.125663989187
 31
0.0
  0
LINE
  5
49
100
AcDbEntity
  8
Frei
  6
CONTINUOUS
 62
           7
100
AcDbLine
 10
-13919.930956199341
 20
-8102.125663989187
 30
0.0
 11
-13919.282825884395
 21
-8092.647798876471
 31
0.0
  0
LINE
  5
4A
100
AcDbEntity
  8
Frei
  6
CONTINUOUS
 62
           7
100
AcDbLine
 10
-13919.282825884395
 20
-8092.647798876471
 30
0.0
 11
-13948.813858235597
 21
-8090.62836126358
 31
0.0
  0
LINE
  5
4B
100
AcDbEntity
  8
Frei
  6
CONTINUOUS
 62
           7
100
AcDbLine
 10
-13948.813858235597
 20
-8090.62836126358
 30
0.0
 11
-13948.847970357436
 21
-8091.127196269514
 31
0.0
  0
LINE
  5
4C
100
AcDbEntity
  8
Frei
  6
CONTINUOUS
 62
           7
100
AcDbLine
 10
-13948.847970357436
 20
-8091.127196269514
 30
0.0
 11
-14176.689839959012
 21
-8075.546914959976
 31
0.0
  0
LINE
  5
4D
100
AcDbEntity
  8
Frei
  6
CONTINUOUS
 62
           7
100
AcDbLine
 10
-14176.689839959012
 20
-8075.546914959976
 30
0.0
 11
-14176.655727837173
 21
-8075.048079954044
 31
0.0
  0
LINE
  5
4E
100
AcDbEntity
  8
Frei
  6
CONTINUOUS
 62
           7
100
AcDbLine
 10
-14176.655727837173
 20
-8075.048079954044
 30
0.0
 11
-14206.186760188373
 21
-8073.028642341154
 31
0.0
  0
LINE
  5
4F
100
AcDbEntity
  8
Frei
  6
CONTINUOUS
 62
           7
100
AcDbLine
 10
-14206.186760188373
 20
-8073.028642341154
 30
0.0
 11
-14206.83489050332
 21
-8082.506507453871
 31
0.0
  0
LINE
  5
50
100
AcDbEntity
  8
Frei
  6
CONTINUOUS
 62
           7
100
AcDbLine
 10
-14206.83489050332
 20
-8082.506507453871
 30
0.0
 11
-14217.3104256279
 21
-8081.790152895244
 31
0.0
  0
LINE
  5
51
100
AcDbEntity
  8
Frei
  6
CONTINUOUS
 62
           7
100
AcDbLine
 10
-14217.3104256279
 20
-8081.790152895244
 30
0.0
 11
-14217.344537749739
 21
-8082.288987901176
 31
0.0
  0
LINE
  5
52
100
AcDbEntity
  8
Frei
  6
CONTINUOUS
 62
           7
100
AcDbLine
 10
-14217.344537749739
 20
-8082.288987901176
 30
0.0
 11
-14228.318907880253
 21
-8081.538521220711
 31
0.0
  0
LINE
  5
53
100
AcDbEntity
  8
Frei
  6
CONTINUOUS
 62
           7
100
AcDbLine
 10
-14228.318907880253
 20
-8081.538521220711
 30
0.0
 11
-14230.638532165331
 21
-8115.459301624118
 31
0.0
  0
LINE
  5
54
100
AcDbEntity
  8
Frei
  6
CONTINUOUS
 62
           7
100
AcDbLine
 10
-14230.638532165331
 20
-8115.459301624118
 30
0.0
 11
-14219.664162034816
 21
-8116.209768304583
 31
0.0
  0
LINE
  5
55
100
AcDbEntity
  8
Frei
  6
CONTINUOUS
 62
           7
100
AcDbLine
 10
-14219.664162034816
 20
-8116.209768304583
 30
0.0
 11
-14219.698274156655
 21
-8116.708603310515
 31
0.0
  0
LINE
  5
56
100
AcDbEntity
  8
Frei
  6
CONTINUOUS
 62
           7
100
AcDbLine
 10
-14219.698274156655
 20
-8116.708603310515
 30
0.0
 11
-14209.222739032075
 21
-8117.424957869142
 31
0.0
  0
LINE
  5
57
100
AcDbEntity
  8
Frei
  6
CONTINUOUS
 62
           7
100
AcDbLine
 10
-14209.222739032075
 20
-8117.424957869142
 30
0.0
 11
-14209.870869347023
 21
-8126.902822981858
 31
0.0
  0
LINE
  5
58
100
AcDbEntity
  8
Frei
  6
CONTINUOUS
 62
           7
100
AcDbLine
 10
-14209.870869347023
 20
-8126.902822981858
 30
0.0
 11
-14180.339836995823
 21
-8128.922260594747
 31
0.0
  0
LINE
  5
59
100
AcDbEntity
  8
Frei
  6
CONTINUOUS
 62
           7
100
AcDbLine
 10
-14180.339836995823
 20
-8128.922260594747
 30
0.0
 11
-14180.305724873982
 21
-8128.423425588815
 31
0.0
  0
LINE
  5
5A
100
AcDbEntity
  8
Frei
  6
CONTINUOUS
 62
           7
100
AcDbLine
 10
-13957.139912004463
 20
-8143.683948815993
 30
0.0
 11
-13952.463855272408
 21
-8144.003706898351
 31
0.0
  0
LINE
  5
5B
100
AcDbEntity
  8
Frei
  6
GESTRICHELT
 62
           7
100
AcDbLine
 10
-13985.074675346239
 20
-8141.773714002957
 30
0.0
 11
-13957.139912004463
 21
-8143.683948815993
 31
0.0
  0
LINE
  5
5C
100
AcDbEntity
  8
Frei
  6
CONTINUOUS
 62
           7
100
AcDbLine
 10
-14147.69490480015
 20
-8130.653418484211
 30
0.0
 11
-13985.074675346239
 21
-8141.773714002957
 31
0.0
  0
LINE
  5
5D
100
AcDbEntity
  8
Frei
  6
GESTRICHELT
 62
           7
100
AcDbLine
 10
-14175.629668141924
 20
-8128.743183671175
 30
0.0
 11
-14147.69490480015
 21
-8130.653418484211
 31
0.0
  0
LINE
  5
5E
100
AcDbEntity
  8
Frei
  6
CONTINUOUS
 62
           7
100
AcDbLine
 10
-14180.305724873982
 20
-8128.423425588815
 30
0.0
 11
-14175.629668141924
 21
-8128.743183671175
 31
0.0
  0
LINE
  5
5F
100
AcDbEntity
  8
Frei
  6
CONTINUOUS
 62
           7
100
AcDbLine
 10
-13952.463855272408
 20
-8144.003706898351
 30
0.0
 11
-13952.497967394247
 21
-8144.502541904283
 31
0.0
  0
LINE
  5
60
100
AcDbEntity
  8
Frei
  6
CONTINUOUS
 62
           7
100
AcDbLine
 10
-13952.497967394247
 20
-8144.502541904283
 30
0.0
 11
-13922.966935043045
 21
-8146.521979517174
 31
0.0
  0
LINE
  5
61
100
AcDbEntity
  8
Frei
  6
CONTINUOUS
 62
           7
100
AcDbLine
 10
-13922.966935043045
 20
-8146.521979517174
 30
0.0
 11
-13922.318804728096
 21
-8137.044114404458
 31
0.0
  0
LINE
  5
62
100
AcDbEntity
  8
Frei
  6
GESTRICHELT
 62
           7
100
AcDbLine
 10
-13922.318804728096
 20
-8137.044114404458
 30
0.0
 11
-13918.328124680638
 21
-8137.317011379171
 31
0.0
  0
LINE
  5
63
100
AcDbEntity
  8
Frei
  6
GESTRICHELT
 62
           7
100
AcDbLine
 10
-13918.328124680638
 20
-8137.317011379171
 30
0.0
 11
-13917.134200416262
 21
-8119.857786171537
 31
0.0
  0
LINE
  5
64
100
AcDbEntity
  8
Frei
  6
CONTINUOUS
 62
           7
100
AcDbLine
 10
-13919.930956199341
 20
-8102.125663989187
 30
0.0
 11
-13922.318804728096
 21
-8137.044114404458
 31
0.0
  0
LINE
  5
65
100
AcDbEntity
  8
Frei
  6
CONTINUOUS
 62
           7
100
AcDbLine
 10
-13951.134383289987
 20
-8124.562313971797
 30
0.0
 11
-13952.463855272408
 21
-8144.003706898351
 31
0.0
  0
LINE
  5
66
100
AcDbEntity
  8
Frei
  6
GESTRICHELT
 62
           7
100
AcDbLine
 10
-13950.614102046002
 20
-8116.954036226656
 30
0.0
 11
-13951.134383289987
 21
-8124.562313971797
 31
0.0
  0
LINE
  5
67
100
AcDbEntity
  8
Frei
  6
CONTINUOUS
 62
           7
100
AcDbLine
 10
-13948.847970357436
 20
-8091.127196269514
 30
0.0
 11
-13950.614102046002
 21
-8116.954036226656
 31
0.0
  0
LINE
  5
68
100
AcDbEntity
  8
Frei
  6
CONTINUOUS
 62
           7
100
AcDbLine
 10
-14178.97622834496
 20
-8108.981673707607
 30
0.0
 11
-14180.305724873982
 21
-8128.423425588815
 31
0.0
  0
LINE
  5
69
100
AcDbEntity
  8
Frei
  6
CONTINUOUS
 62
           7
100
AcDbLine
 10
-14178.455947100974
 20
-8101.373395962466
 30
0.0
 11
-14178.97622834496
 21
-8108.981673707607
 31
0.0
  0
LINE
  5
6A
100
AcDbEntity
  8
Frei
  6
CONTINUOUS
 62
           7
100
AcDbLine
 10
-14176.689839959012
 20
-8075.546914959976
 30
0.0
 11
-14178.455947100974
 21
-8101.373395962466
 31
0.0
  0
LINE
  5
6B
100
AcDbEntity
  8
Frei
  6
CONTINUOUS
 62
           7
100
AcDbLine
 10
-14206.83489050332
 20
-8082.506507453871
 30
0.0
 11
-14209.222739032075
 21
-8117.424957869142
 31
0.0
  0
LINE
  5
6C
100
AcDbEntity
  8
Frei
  6
CONTINUOUS
 62
           7
100
AcDbLine
 10
-14217.3104256279
 20
-8081.790152895244
 30
0.0
 11
-14219.698274156655
 21
-8116.708603310515
 31
0.0
  0
LINE
  5
6D
100
AcDbEntity
  8
Frei
  6
GESTRICHELT
 62
           7
100
AcDbLine
 10
-14242.592837806205
 20
-8091.58810856647
 30
0.0
 11
-14260.728636581232
 21
-8090.347917781719
 31
0.0
  0
LINE
  5
6E
100
AcDbEntity
  8
Frei
  6
CONTINUOUS
 62
           7
100
AcDbLine
 10
-14237.549569661573
 20
-8091.932985279957
 30
0.0
 11
-14242.592837806205
 21
-8091.58810856647
 31
0.0
  0
LINE
  5
6F
100
AcDbEntity
  8
Frei
  6
GESTRICHELT
 62
           7
100
AcDbLine
 10
-14243.411528730348
 20
-8103.560148708848
 30
0.0
 11
-14261.547327505376
 21
-8102.319957924097
 31
0.0
  0
LINE
  5
70
100
AcDbEntity
  8
Frei
  6
CONTINUOUS
 62
           7
100
AcDbLine
 10
-14238.368260585716
 20
-8103.905025422335
 30
0.0
 11
-14243.411528730348
 21
-8103.560148708848
 31
0.0
  0
LINE
  5
71
100
AcDbEntity
  8
Frei
  6
GESTRICHELT
 62
           7
100
AcDbLine
 10
-14261.545963614139
 20
-8091.060606820063
 30
0.0
 11
-14260.728636581232
 21
-8090.347917781719
 31
0.0
  0
LINE
  5
72
100
AcDbEntity
  8
Frei
  6
GESTRICHELT
 62
           7
100
AcDbLine
 10
-14262.260027202663
 20
-8101.502640185647
 30
0.0
 11
-14261.547327505376
 21
-8102.319957924097
 31
0.0
  0
LINE
  5
73
100
AcDbEntity
  8
Frei
  6
GESTRICHELT
 62
           7
100
AcDbLine
 10
-14261.545963614139
 20
-8091.060606820063
 30
0.0
 11
-14262.260027202663
 21
-8101.502640185647
 31
0.0
  0
LINE
  5
74
100
AcDbEntity
  8
Frei
  6
CONTINUOUS
 62
           7
100
AcDbLine
 10
-14242.645151474015
 20
-8092.353111954866
 30
0.0
 11
-14237.601883329382
 21
-8092.697988668353
 31
0.0
  0
LINE
  5
75
100
AcDbEntity
  8
Frei
  6
GESTRICHELT
 62
           7
100
AcDbLine
 10
-14261.545963614139
 20
-8091.060606820063
 30
0.0
 11
-14242.645151474015
 21
-8092.353111954866
 31
0.0
  0
LINE
  5
76
100
AcDbEntity
  8
Frei
  6
CONTINUOUS
 62
           7
100
AcDbLine
 10
-14243.359215062539
 20
-8102.79514532045
 30
0.0
 11
-14238.315946917906
 21
-8103.140022033937
 31
0.0
  0
LINE
  5
77
100
AcDbEntity
  8
Frei
  6
GESTRICHELT
 62
           7
100
AcDbLine
 10
-14262.260027202663
 20
-8101.502640185647
 30
0.0
 11
-14243.359215062539
 21
-8102.79514532045
 31
0.0
  0
LINE
  5
78
100
AcDbEntity
  8
Frei
  6
GESTRICHELT
 62
           7
100
AcDbLine
 10
-14260.728636581232
 20
-8090.347917781719
 30
0.0
 11
-14261.547327505376
 21
-8102.319957924097
 31
0.0
  0
LINE
  5
79
100
AcDbEntity
  8
Frei
  6
CONTINUOUS
 62
           7
100
AcDbLine
 10
-14228.932926073363
 20
-8090.517551327495
 30
0.0
 11
-14237.413121174215
 21
-8089.937645256227
 31
0.0
  0
LINE
  5
7A
100
AcDbEntity
  8
Frei
  6
CONTINUOUS
 62
           7
100
AcDbLine
 10
-14237.413121174215
 20
-8089.937645256227
 30
0.0
 11
-14238.504709073073
 21
-8105.900365446065
 31
0.0
  0
LINE
  5
7B
100
AcDbEntity
  8
Frei
  6
CONTINUOUS
 62
           7
100
AcDbLine
 10
-14238.504709073073
 20
-8105.900365446065
 30
0.0
 11
-14230.024513972221
 21
-8106.480271517334
 31
0.0
  0
LINE
  5
7C
100
AcDbEntity
  8
Frei
  6
CONTINUOUS
 62
           7
100
AcDbLine
 10
-14237.640738400642
 20
-8093.266181693511
 30
0.0
 11
-14232.319834996262
 21
-8093.630044099049
 31
0.0
  0
LINE
  5
7D
100
AcDbEntity
  8
Frei
  6
CONTINUOUS
 62
           7
100
AcDbLine
 10
-14238.277091846647
 20
-8102.571829008779
 30
0.0
 11
-14232.956188442267
 21
-8102.935691414317
 31
0.0
  0
LINE
  5
7E
100
AcDbEntity
  8
Frei
  6
CONTINUOUS
 62
           7
100
AcDbLine
 10
-14232.319834996262
 20
-8093.630044099049
 30
0.0
 11
-14232.956188442267
 21
-8102.935691414317
 31
0.0
  0
LINE
  5
7F
100
AcDbEntity
  8
Frei
  6
CONTINUOUS
 62
           7
100
AcDbLine
 10
-14237.640738400642
 20
-8093.266181693511
 30
0.0
 11
-14232.956188442267
 21
-8102.935691414317
 31
0.0
  0
LINE
  5
80
100
AcDbEntity
  8
Frei
  6
CONTINUOUS
 62
           7
100
AcDbLine
 10
-14232.319834996262
 20
-8093.630044099049
 30
0.0
 11
-14238.277091846647
 21
-8102.571829008779
 31
0.0
  0
CIRCLE
  5
81
100
AcDbEntity
  8
Frei
  6
CONTINUOUS
 62
           7
100
AcDbCircle
 10
-14194.470780063661
 20
-8106.906892144198
 30
0.0
 40
5.7225
  0
ARC
  5
82
100
AcDbEntity
  8
Frei
  6
CONTINUOUS
 62
           7
100
AcDbCircle
 10
-14194.470780063661
 20
-8106.906892144198
 30
0.0
 40
6.5785
100
AcDbArc
 50
106.088
 51
16.088
  0
CIRCLE
  5
83
100
AcDbEntity
  8
Frei
  6
CONTINUOUS
 62
           7
100
AcDbCircle
 10
-13934.682915167756
 20
-8112.643729714131
 30
0.0
 40
5.7225
  0
ARC
  5
84
100
AcDbEntity
  8
Frei
  6
CONTINUOUS
 62
           7
100
AcDbCircle
 10
-13934.682915167756
 20
-8112.643729714131
 30
0.0
 40
6.57849
100
AcDbArc
 50
106.087999999994
 51
16.088000000002
  0
LINE
  5
85
100
AcDbEntity
  8
Frei
  6
CONTINUOUS
 62
           7
100
AcDbLine
 10
-14185.774362654889
 20
-8090.395828061215
 30
0.0
 11
-14193.252253805291
 21
-8096.916497676
 31
0.0
  0
LINE
  5
86
100
AcDbEntity
  8
Frei
  6
CONTINUOUS
 62
           7
100
AcDbLine
 10
-14186.595806824813
 20
-8089.453790718164
 30
0.0
 11
-14194.073691835034
 21
-8095.974370542652
 31
0.0
  0
CIRCLE
  5
87
100
AcDbEntity
  8
Frei
  6
CONTINUOUS
 62
           7
100
AcDbCircle
 10
-14189.924028609446
 20
-8093.185119255333
 30
0.0
 40
5.0
  0
LINE
  5
88
100
AcDbEntity
  8
Frei
  6
CONTINUOUS
 62
           7
100
AcDbLine
 10
-13935.07970409538
 20
-8123.576271782951
 30
0.0
 11
-13942.557988173607
 21
-8130.096824317739
 31
0.0
  0
LINE
  5
89
100
AcDbEntity
  8
Frei
  6
CONTINUOUS
 62
           7
100
AcDbLine
 10
-13935.901341659124
 20
-8122.634131004752
 30
0.0
 11
-13943.379631877531
 21
-8129.154773329841
 31
0.0
  0
CIRCLE
  5
8A
100
AcDbEntity
  8
Frei
  6
CONTINUOUS
 62
           7
100
AcDbCircle
 10
-13939.229666621974
 20
-8126.365502602996
 30
0.0
 40
5.0
  0
LINE
  5
8B
100
AcDbEntity
  8
Frei
  6
CONTINUOUS
 62
           7
100
AcDbLine
 10
-14242.642734899346
 20
-8086.603089339375
 30
0.0
 11
-14245.242782670668
 21
-8086.425288773438
 31
0.0
  0
LINE
  5
8C
100
AcDbEntity
  8
Frei
  6
CONTINUOUS
 62
           7
100
AcDbLine
 10
-14247.84281048859
 20
-8086.247489571988
 30
0.0
 11
-14245.242782670668
 21
-8086.425288773438
 31
0.0
  0
LINE
  5
8D
100
AcDbEntity
  8
Frei
  6
CONTINUOUS
 62
           7
100
AcDbLine
 10
-14249.339650394901
 20
-8108.136369632304
 30
0.0
 11
-14246.739622576979
 21
-8108.314168833755
 31
0.0
  0
LINE
  5
8E
100
AcDbEntity
  8
Frei
  6
CONTINUOUS
 62
           7
100
AcDbLine
 10
-14244.139574805657
 20
-8108.491969399691
 30
0.0
 11
-14246.739622576979
 21
-8108.314168833755
 31
0.0
  0
LINE
  5
8F
100
AcDbEntity
  8
Frei
  6
CONTINUOUS
 62
           7
100
AcDbLine
 10
-14243.016945558165
 20
-8092.075319331154
 30
0.0
 11
-14245.616993329488
 21
-8091.897518765218
 31
0.0
  0
LINE
  5
90
100
AcDbEntity
  8
Frei
  6
CONTINUOUS
 62
           7
100
AcDbLine
 10
-14248.217021147409
 20
-8091.719719563767
 30
0.0
 11
-14245.616993329488
 21
-8091.897518765218
 31
0.0
  0
LINE
  5
91
100
AcDbEntity
  8
Frei
  6
CONTINUOUS
 62
           7
100
AcDbLine
 10
-14248.965439736079
 20
-8102.664139640525
 30
0.0
 11
-14246.365411918157
 21
-8102.841938841975
 31
0.0
  0
LINE
  5
92
100
AcDbEntity
  8
Frei
  6
CONTINUOUS
 62
           7
100
AcDbLine
 10
-14243.765364146835
 20
-8103.019739407911
 30
0.0
 11
-14246.365411918157
 21
-8102.841938841975
 31
0.0
  0
ARC
  5
93
100
AcDbEntity
  8
Frei
  6
CONTINUOUS
 62
           7
100
AcDbCircle
 10
-14281.689431920367
 20
-8094.928556205983
 30
0.0
 40
38.7776
100
AcDbArc
 50
356.947436999999
 51
4.21961
  0
ARC
  5
94
100
AcDbEntity
  8
Frei
  6
CONTINUOUS
 62
           7
100
AcDbCircle
 10
-14210.292973327279
 20
-8099.810901401212
 30
0.0
 40
38.7776
100
AcDbArc
 50
167.956
 51
175.229
  0
ARC
  5
95
100
AcDbEntity
  8
Frei
  6
CONTINUOUS
 62
           7
100
AcDbCircle
 10
-14210.292973327279
 20
-8099.810901401212
 30
0.0
 40
38.7776
100
AcDbArc
 50
176.946999999999
 51
184.219999999999
  0
ARC
  5
96
100
AcDbEntity
  8
Frei
  6
CONTINUOUS
 62
           7
100
AcDbCircle
 10
-14281.689431920367
 20
-8094.928556205983
 30
0.0
 40
38.7776
100
AcDbArc
 50
347.956389999999
 51
355.228562999999
  0
LINE
  5
97
100
AcDbEntity
  8
Frei
  6
CONTINUOUS
 62
           7
100
AcDbLine
 10
-14242.966851023986
 20
-8096.993544398914
 30
0.0
 11
-14243.002183268278
 21
-8097.574128637658
 31
0.0
  0
LINE
  5
98
100
AcDbEntity
  8
Frei
  6
CONTINUOUS
 62
           7
100
AcDbLine
 10
-14248.936150145775
 20
-8096.585342375167
 30
0.0
 11
-14248.980221979371
 21
-8097.165328969535
 31
0.0
  0
LINE
  5
99
100
AcDbEntity
  8
Frei
  6
CONTINUOUS
 62
           7
100
AcDbLine
 10
-14249.015514316858
 20
-8097.745915937248
 30
0.0
 11
-14248.980221979371
 21
-8097.165328969535
 31
0.0
  0
LINE
  5
9A
100
AcDbEntity
  8
Frei
  6
CONTINUOUS
 62
           7
100
AcDbLine
 10
-14243.046215195069
 20
-8098.154117960998
 30
0.0
 11
-14243.002183268278
 21
-8097.574128637658
 31
0.0
  0
ARC
  5
9B
100
AcDbEntity
  8
Frei
  6
CONTINUOUS
 62
           7
100
AcDbCircle
 10
-14252.551756403138
 20
-8088.674399970878
 30
0.0
 40
10.1345
100
AcDbArc
 50
340.369499999999
 51
356.087999999999
  0
ARC
  5
9C
100
AcDbEntity
  8
Frei
  6
CONTINUOUS
 62
           7
100
AcDbCircle
 10
-14238.308011667044
 20
-8089.648438180122
 30
0.0
 40
10.1232
100
AcDbArc
 50
176.088
 51
191.806999999999
  0
ARC
  5
9D
100
AcDbEntity
  8
Frei
  6
CONTINUOUS
 62
           7
100
AcDbCircle
 10
-14239.430638867809
 20
-8106.065058318558
 30
0.0
 40
10.1345
100
AcDbArc
 50
160.369
 51
176.088
  0
ARC
  5
9E
100
AcDbEntity
  8
Frei
  6
CONTINUOUS
 62
           7
100
AcDbCircle
 10
-14253.674383603902
 20
-8105.091020109314
 30
0.0
 40
10.1232
100
AcDbArc
 50
356.087999999999
 51
11.8065
  0
ARC
  5
9F
100
AcDbEntity
  8
Frei
  6
CONTINUOUS
 62
           7
100
AcDbCircle
 10
-14252.551756403138
 20
-8088.674399970878
 30
0.0
 40
10.1232
100
AcDbArc
 50
356.087999999999
 51
11.8065
  0
ARC
  5
A0
100
AcDbEntity
  8
Frei
  6
CONTINUOUS
 62
           7
100
AcDbCircle
 10
-14238.308011667044
 20
-8089.648438180122
 30
0.0
 40
10.1345
100
AcDbArc
 50
160.369
 51
176.088
  0
ARC
  5
A1
100
AcDbEntity
  8
Frei
  6
CONTINUOUS
 62
           7
100
AcDbCircle
 10
-14239.430638867809
 20
-8106.065058318558
 30
0.0
 40
10.1232
100
AcDbArc
 50
176.088
 51
191.806999999999
  0
ARC
  5
A2
100
AcDbEntity
  8
Frei
  6
CONTINUOUS
 62
           7
100
AcDbCircle
 10
-14253.674383603902
 20
-8105.091020109314
 30
0.0
 40
10.1345
100
AcDbArc
 50
340.369499999999
 51
356.087999999999
  0
LINE
  5
A3
100
AcDbEntity
  8
Frei
  6
CONTINUOUS
 62
           7
100
AcDbLine
 10
-14242.440869667895
 20
-8089.36581856844
 30
0.0
 11
-14243.002183268278
 21
-8097.574128637658
 31
0.0
  0
LINE
  5
A4
100
AcDbEntity
  8
Frei
  6
CONTINUOUS
 62
           7
100
AcDbLine
 10
-14248.418908378988
 20
-8088.957018900317
 30
0.0
 11
-14248.980221979371
 21
-8097.165328969535
 31
0.0
  0
LINE
  5
A5
100
AcDbEntity
  8
Frei
  6
CONTINUOUS
 62
           7
100
AcDbLine
 10
-14249.541535579752
 20
-8105.373639038753
 30
0.0
 11
-14248.980221979371
 21
-8097.165328969535
 31
0.0
  0
LINE
  5
A6
100
AcDbEntity
  8
Frei
  6
CONTINUOUS
 62
           7
100
AcDbLine
 10
-14243.563496868659
 20
-8105.782438706876
 30
0.0
 11
-14243.002183268278
 21
-8097.574128637658
 31
0.0
  0
LINE
  5
A7
100
AcDbEntity
  8
Frei
  6
CONTINUOUS
 62
           7
100
AcDbLine
 10
-13913.918142060722
 20
-8131.662929094244
 30
0.0
 11
-13914.759068819219
 21
-8131.620153005248
 31
0.0
  0
LINE
  5
A8
100
AcDbEntity
  8
Frei
  6
CONTINUOUS
 62
           7
100
AcDbLine
 10
-13913.079364363024
 20
-8130.918541497893
 30
0.0
 11
-13913.56983674496
 21
-8138.090912501531
 31
0.0
  0
LINE
  5
A9
100
AcDbEntity
  8
Frei
  6
CONTINUOUS
 62
           7
100
AcDbLine
 10
-13911.611453448802
 20
-8109.452701493807
 30
0.0
 11
-13911.621478386776
 21
-8109.599300113983
 31
0.0
  0
LINE
  5
AA
100
AcDbEntity
  8
Frei
  6
CONTINUOUS
 62
           7
100
AcDbLine
 10
-13913.180010606688
 20
-8108.528962239543
 30
0.0
 11
-13912.341088982028
 21
-8108.601060191135
 31
0.0
  0
LINE
  5
AB
100
AcDbEntity
  8
Frei
  6
CONTINUOUS
 62
           7
100
AcDbLine
 10
-13911.421015068192
 20
-8110.18565705127
 30
0.0
 11
-13912.790921137936
 21
-8130.218333577395
 31
0.0
  0
LINE
  5
AC
100
AcDbEntity
  8
Frei
  6
CONTINUOUS
 62
           7
100
AcDbLine
 10
-13900.062933012523
 20
-8130.646495710482
 30
0.0
 11
-13912.230561727351
 21
-8130.027555281362
 31
0.0
  0
LINE
  5
AD
100
AcDbEntity
  8
Frei
  6
CONTINUOUS
 62
           7
100
AcDbLine
 10
-13898.753227038842
 20
-8111.494148922198
 30
0.0
 11
-13910.891842853547
 21
-8110.450941416655
 31
0.0
  0
LINE
  5
AE
100
AcDbEntity
  8
Frei
  6
CONTINUOUS
 62
           7
100
AcDbLine
 10
-13913.06933942505
 20
-8130.771942877715
 30
0.0
 11
-13913.079364363024
 21
-8130.918541497893
 31
0.0
  0
LINE
  5
AF
100
AcDbEntity
  8
Frei
  6
CONTINUOUS
 62
           7
100
AcDbLine
 10
-13914.147781159856
 20
-8099.638273860548
 30
0.0
 11
-13913.268187020296
 21
-8099.729357265784
 31
0.0
  0
LINE
  5
B0
100
AcDbEntity
  8
Frei
  6
CONTINUOUS
 62
           7
100
AcDbLine
 10
-13911.120981066866
 20
-8102.280330490168
 30
0.0
 11
-13911.611453448802
 21
-8109.452701493807
 31
0.0
  0
LINE
  5
B1
100
AcDbEntity
  8
Frei
  6
CONTINUOUS
 62
           7
100
AcDbLine
 10
-13916.044319578292
 20
-8140.325838116743
 30
0.0
 11
-13916.928124727901
 21
-8140.296333971608
 31
0.0
  0
LINE
  5
B2
100
AcDbEntity
  8
Frei
  6
CONTINUOUS
 62
           7
100
AcDbLine
 10
-13915.34354399515
 20
-8094.490776955234
 30
0.0
 11
-13919.380270326617
 21
-8094.072767371346
 31
0.0
  0
LINE
  5
B3
100
AcDbEntity
  8
Frei
  6
CONTINUOUS
 62
           7
100
AcDbLine
 10
-13918.813487750454
 20
-8145.233132470803
 30
0.0
 11
-13922.869539694027
 21
-8145.097728931607
 31
0.0
  0
LINE
  5
B4
100
AcDbEntity
  8
Frei
  6
CONTINUOUS
 62
           7
100
AcDbLine
 10
-13916.436624214617
 20
-8133.108928197953
 30
0.0
 11
-13916.928124727901
 21
-8140.296333971608
 31
0.0
  0
LINE
  5
B5
100
AcDbEntity
  8
Frei
  6
CONTINUOUS
 62
           7
100
AcDbLine
 10
-13914.147781159856
 20
-8099.638273860548
 30
0.0
 11
-13914.63928167314
 21
-8106.825679634199
 31
0.0
  0
LINE
  5
B6
100
AcDbEntity
  8
Frei
  6
CONTINUOUS
 62
           7
100
AcDbLine
 10
-13913.912073359526
 20
-8096.191425771493
 30
0.0
 11
-13914.147781159856
 21
-8099.638273860548
 31
0.0
  0
LINE
  5
B7
100
AcDbEntity
  8
Frei
  6
CONTINUOUS
 62
           7
100
AcDbLine
 10
-13916.928124727901
 20
-8140.296333971608
 30
0.0
 11
-13917.163832528231
 21
-8143.743182060664
 31
0.0
  0
ARC
  5
B8
100
AcDbEntity
  8
Frei
  6
CONTINUOUS
 62
           7
100
AcDbCircle
 10
-13899.575232754043
 20
-8121.058891814937
 30
0.0
 40
9.6
100
AcDbArc
 50
267.087999999997
 51
85.088000000002
  0
ARC
  5
B9
100
AcDbEntity
  8
Frei
  6
CONTINUOUS
 62
           7
100
AcDbCircle
 10
-13899.575232754043
 20
-8121.058891814937
 30
0.0
 40
4.799999999999
100
AcDbArc
 50
176.087999999989
 51
356.08800000001
  0
ARC
  5
BA
100
AcDbEntity
  8
Frei
  6
CONTINUOUS
 62
           7
100
AcDbCircle
 10
-13899.575232754038
 20
-8121.058891814933
 30
0.0
 40
4.799999999996
100
AcDbArc
 50
356.087999999956
 51
66.291117282785
  0
ARC
  5
BB
100
AcDbEntity
  8
Frei
  6
CONTINUOUS
 62
           7
100
AcDbCircle
 10
-13899.575232754043
 20
-8121.058891814937
 30
0.0
 40
4.8
100
AcDbArc
 50
66.291117282759
 51
176.088
  0
ARC
  5
BC
100
AcDbEntity
  8
Frei
  6
CONTINUOUS
 62
           7
100
AcDbCircle
 10
-13912.271203415559
 20
-8130.82652227265
 30
0.0
 40
0.799999999992
100
AcDbArc
 50
87.087999999855
 51
130.515004001098
  0
ARC
  5
BD
100
AcDbEntity
  8
Frei
  6
CONTINUOUS
 62
           7
100
AcDbCircle
 10
-13912.27120341557
 20
-8130.82652227265
 30
0.0
 40
0.799999999986
100
AcDbArc
 50
130.515004000449
 51
176.088000000456
  0
ARC
  5
BE
100
AcDbEntity
  8
Frei
  6
CONTINUOUS
 62
           7
100
AcDbCircle
 10
-13913.877500372515
 20
-8130.863962102949
 30
0.0
 40
0.8
100
AcDbArc
 50
267.087999999976
 51
356.087999999999
  0
ARC
  5
BF
100
AcDbEntity
  8
Frei
  6
CONTINUOUS
 62
           7
100
AcDbCircle
 10
-13914.840352195633
 20
-8133.218086987839
 30
0.0
 40
1.599999999999
100
AcDbArc
 50
87.087999999911
 51
176.088
  0
ARC
  5
C0
100
AcDbEntity
  8
Frei
  6
CONTINUOUS
 62
           7
100
AcDbCircle
 10
-13910.823342377293
 20
-8109.653879508931
 30
0.0
 40
0.79999999999
100
AcDbArc
 50
176.087999999609
 51
221.660995999455
  0
ARC
  5
C1
100
AcDbEntity
  8
Frei
  6
CONTINUOUS
 62
           7
100
AcDbCircle
 10
-13910.823342377285
 20
-8109.653879508936
 30
0.0
 40
0.799999999992
100
AcDbArc
 50
221.660995998901
 51
265.088000000144
  0
ARC
  5
C2
100
AcDbEntity
  8
Frei
  6
CONTINUOUS
 62
           7
100
AcDbCircle
 10
-13913.043009654157
 20
-8106.934838424086
 30
0.0
 40
1.600000000001
100
AcDbArc
 50
176.088000000032
 51
265.088000000024
  0
ARC
  5
C3
100
AcDbEntity
  8
Frei
  6
CONTINUOUS
 62
           7
100
AcDbCircle
 10
-13912.409589458295
 20
-8109.398122098864
 30
0.0
 40
0.800000000001
100
AcDbArc
 50
356.088000000064
 51
85.087999999895
  0
ARC
  5
C4
100
AcDbEntity
  8
Frei
  6
CONTINUOUS
 62
           7
100
AcDbCircle
 10
-13918.760104547215
 20
-8143.634023270779
 30
0.0
 40
1.599999999998
100
AcDbArc
 50
268.087999999915
 51
356.088000000064
  0
ARC
  5
C5
100
AcDbEntity
  8
Frei
  6
CONTINUOUS
 62
           7
100
AcDbCircle
 10
-13915.964244773435
 20
-8137.927174316703
 30
0.0
 40
2.400000000001
100
AcDbArc
 50
268.087999999977
 51
356.087999999999
  0
ARC
  5
C6
100
AcDbEntity
  8
Frei
  6
CONTINUOUS
 62
           7
100
AcDbCircle
 10
-13913.515389095341
 20
-8102.11659230534
 30
0.0
 40
2.399999999999
100
AcDbArc
 50
356.087999999999
 51
84.087999999979
  0
ARC
  5
C7
100
AcDbEntity
  8
Frei
  6
CONTINUOUS
 62
           7
100
AcDbCircle
 10
-13915.50834537851
 20
-8096.082266981604
 30
0.0
 40
1.599999999998
100
AcDbArc
 50
356.087999999934
 51
84.088000000085
  0
LINE
  5
C8
100
AcDbEntity
  8
Frei
  6
CONTINUOUS
 62
           7
100
AcDbLine
 10
-14249.389567441442
 20
-8103.151349040723
 30
0.0
 11
-14249.348632895235
 21
-8102.552747033604
 31
0.0
  0
LINE
  5
C9
100
AcDbEntity
  8
Frei
  6
CONTINUOUS
 62
           7
100
AcDbLine
 10
-14249.348632895235
 20
-8102.552747033604
 30
0.0
 11
-14248.611811063505
 21
-8091.777910905465
 31
0.0
  0
LINE
  5
CA
100
AcDbEntity
  8
Frei
  6
CONTINUOUS
 62
           7
100
AcDbLine
 10
-14248.611811063505
 20
-8091.777910905465
 30
0.0
 11
-14248.570876517299
 21
-8091.179308898345
 31
0.0
  0
LINE
  5
CB
100
AcDbEntity
  8
Frei
  6
CONTINUOUS
 62
           7
100
AcDbLine
 10
-14248.570876517299
 20
-8091.179308898345
 30
0.0
 11
-14248.345736513158
 21
-8087.886997859192
 31
0.0
  0
LINE
  5
CC
100
AcDbEntity
  8
Frei
  6
CONTINUOUS
 62
           7
100
AcDbLine
 10
-14273.742993188273
 20
-8107.499987263624
 30
0.0
 11
-14272.441859935541
 21
-8107.58896340908
 31
0.0
  0
LINE
  5
CD
100
AcDbEntity
  8
Frei
  6
CONTINUOUS
 62
           7
100
AcDbLine
 10
-14270.804478087253
 20
-8083.644883124323
 30
0.0
 11
-14272.105611339985
 21
-8083.555906978867
 31
0.0
  0
LINE
  5
CE
100
AcDbEntity
  8
Frei
  6
CONTINUOUS
 62
           7
100
AcDbLine
 10
-14272.441859935541
 20
-8107.58896340908
 30
0.0
 11
-14268.654876127761
 21
-8107.847930906386
 31
0.0
  0
LINE
  5
CF
100
AcDbEntity
  8
Frei
  6
CONTINUOUS
 62
           7
100
AcDbLine
 10
-14267.017494279473
 20
-8083.903850621629
 30
0.0
 11
-14270.804478087253
 21
-8083.644883124323
 31
0.0
  0
LINE
  5
D0
100
AcDbEntity
  8
Frei
  6
CONTINUOUS
 62
           7
100
AcDbLine
 10
-14307.558711503238
 20
-8081.131497188117
 30
0.0
 11
-14272.105611339985
 21
-8083.555906978867
 31
0.0
  0
LINE
  5
D1
100
AcDbEntity
  8
Frei
  6
CONTINUOUS
 62
           7
100
AcDbLine
 10
-14309.196093351526
 20
-8105.075577472873
 30
0.0
 11
-14273.742993188273
 21
-8107.499987263624
 31
0.0
  0
LINE
  5
D2
100
AcDbEntity
  8
Frei
  6
CONTINUOUS
 62
           7
100
AcDbLine
 10
-14266.242394907416
 20
-8085.761058462296
 30
0.0
 11
-14267.634169478461
 21
-8106.113526704339
 31
0.0
  0
LINE
  5
D3
100
AcDbEntity
  8
Frei
  6
CONTINUOUS
 62
           7
100
AcDbLine
 10
-14249.182237704526
 20
-8086.927693029204
 30
0.0
 11
-14251.896278800676
 21
-8086.742097192006
 31
0.0
  0
LINE
  5
D4
100
AcDbEntity
  8
Frei
  6
CONTINUOUS
 62
           7
100
AcDbLine
 10
-14249.614707445582
 20
-8106.443660079878
 30
0.0
 11
-14249.389567441442
 21
-8103.151349040723
 31
0.0
  0
LINE
  5
D5
100
AcDbEntity
  8
Frei
  6
CONTINUOUS
 62
           7
100
AcDbLine
 10
-14266.73626646778
 20
-8106.174928523651
 30
0.0
 11
-14264.90001601867
 21
-8106.300497896897
 31
0.0
  0
LINE
  5
D6
100
AcDbEntity
  8
Frei
  6
CONTINUOUS
 62
           7
100
AcDbLine
 10
-14263.42637235521
 20
-8084.750825640616
 30
0.0
 11
-14263.508241447626
 21
-8085.948029654854
 31
0.0
  0
LINE
  5
D7
100
AcDbEntity
  8
Frei
  6
CONTINUOUS
 62
           7
100
AcDbLine
 10
-14263.508241447626
 20
-8085.948029654854
 30
0.0
 11
-14265.344491896736
 21
-8085.822460281608
 31
0.0
  0
LINE
  5
D8
100
AcDbEntity
  8
Frei
  6
CONTINUOUS
 62
           7
100
AcDbLine
 10
-14263.508241447626
 20
-8085.948029654854
 30
0.0
 11
-14264.90001601867
 21
-8106.300497896897
 31
0.0
  0
LINE
  5
D9
100
AcDbEntity
  8
Frei
  6
CONTINUOUS
 62
           7
100
AcDbLine
 10
-14264.90001601867
 20
-8106.300497896897
 30
0.0
 11
-14264.981885111085
 21
-8107.497701911134
 31
0.0
  0
LINE
  5
DA
100
AcDbEntity
  8
Frei
  6
CONTINUOUS
 62
           7
100
AcDbLine
 10
-14253.369922464135
 20
-8108.291769448288
 30
0.0
 11
-14253.28805337172
 21
-8107.094565434049
 31
0.0
  0
LINE
  5
DB
100
AcDbEntity
  8
Frei
  6
CONTINUOUS
 62
           7
100
AcDbLine
 10
-14253.28805337172
 20
-8107.094565434049
 30
0.0
 11
-14250.574012275571
 21
-8107.280161271247
 31
0.0
  0
LINE
  5
DC
100
AcDbEntity
  8
Frei
  6
CONTINUOUS
 62
           7
100
AcDbLine
 10
-14253.28805337172
 20
-8107.094565434049
 30
0.0
 11
-14251.896278800676
 21
-8086.742097192006
 31
0.0
  0
LINE
  5
DD
100
AcDbEntity
  8
Frei
  6
CONTINUOUS
 62
           7
100
AcDbLine
 10
-14251.896278800676
 20
-8086.742097192006
 30
0.0
 11
-14251.81440970826
 21
-8085.544893177768
 31
0.0
  0
LINE
  5
DE
100
AcDbEntity
  8
Frei
  6
CONTINUOUS
 62
           7
100
AcDbLine
 10
-14263.42637235521
 20
-8084.750825640616
 30
0.0
 11
-14251.81440970826
 21
-8085.544893177768
 31
0.0
  0
LINE
  5
DF
100
AcDbEntity
  8
Frei
  6
CONTINUOUS
 62
           7
100
AcDbLine
 10
-14264.981885111085
 20
-8107.497701911134
 30
0.0
 11
-14253.369922464135
 21
-8108.291769448288
 31
0.0
  0
ARC
  5
E0
100
AcDbEntity
  8
Frei
  6
CONTINUOUS
 62
           7
100
AcDbCircle
 10
-14288.65367473277
 20
-8094.452316374154
 30
0.0
 40
20.866107311614
100
AcDbArc
 50
320.981694434247
 51
31.194305565753
  0
ARC
  5
E1
100
AcDbEntity
  8
Frei
  6
CONTINUOUS
 62
           7
100
AcDbCircle
 10
-14278.786256429532
 20
-8095.127085729546
 30
0.0
 40
29.660254037844
100
AcDbArc
 50
152.22307458395
 51
199.95292541605
  0
ARC
  5
E2
100
AcDbEntity
  8
Frei
  6
CONTINUOUS
 62
           7
100
AcDbCircle
 10
-14289.369235780268
 20
-8094.40338375045
 30
0.0
 40
22.516660498395
100
AcDbArc
 50
143.883772496028
 51
208.292227503973
  0
CIRCLE
  5
E3
100
AcDbEntity
  8
Frei
  6
CONTINUOUS
 62
           7
100
AcDbCircle
 10
-14296.868382548886
 20
-8093.890565272957
 30
0.0
 40
5.1
  0
ARC
  5
E4
100
AcDbEntity
  8
Frei
  6
CONTINUOUS
 62
           7
100
AcDbCircle
 10
-14267.078896098783
 20
-8084.801753632306
 30
0.0
 40
0.9
100
AcDbArc
 50
356.087999999999
 51
86.088
  0
ARC
  5
E5
100
AcDbEntity
  8
Frei
  6
CONTINUOUS
 62
           7
100
AcDbCircle
 10
-14265.283090077424
 20
-8084.924557270928
 30
0.0
 40
0.9
100
AcDbArc
 50
176.088
 51
266.087999999999
  0
ARC
  5
E6
100
AcDbEntity
  8
Frei
  6
CONTINUOUS
 62
           7
100
AcDbCircle
 10
-14249.243639523836
 20
-8087.825596039882
 30
0.0
 40
0.9
100
AcDbArc
 50
356.087999999999
 51
86.088
  0
ARC
  5
E7
100
AcDbEntity
  8
Frei
  6
CONTINUOUS
 62
           7
100
AcDbCircle
 10
-14250.512610456261
 20
-8106.382258260568
 30
0.0
 40
0.9
100
AcDbArc
 50
266.087999999999
 51
356.087999999999
  0
ARC
  5
E8
100
AcDbEntity
  8
Frei
  6
CONTINUOUS
 62
           7
100
AcDbCircle
 10
-14266.797668287092
 20
-8107.07283153433
 30
0.0
 40
0.9
100
AcDbArc
 50
86.088
 51
176.088
  0
ARC
  5
E9
100
AcDbEntity
  8
Frei
  6
CONTINUOUS
 62
           7
100
AcDbCircle
 10
-14268.593474308451
 20
-8106.950027895708
 30
0.0
 40
0.9
100
AcDbArc
 50
266.087999999999
 51
356.087999999999
  0
LINE
  5
EA
100
AcDbEntity
  8
Frei
  6
CONTINUOUS
 62
           7
100
AcDbLine
 10
-13991.095614326312
 20
-8134.546228438805
 30
0.0
 11
-13987.603769284786
 21
-8134.785013291681
 31
0.0
  0
LINE
  5
EB
100
AcDbEntity
  8
Frei
  6
CONTINUOUS
 62
           7
100
AcDbLine
 10
-13990.959165838955
 20
-8132.550888415075
 30
0.0
 11
-13991.095614326312
 21
-8134.546228438805
 31
0.0
  0
LINE
  5
EC
100
AcDbEntity
  8
Frei
  6
CONTINUOUS
 62
           7
100
AcDbLine
 10
-13985.957968957973
 20
-8125.375372422643
 30
0.0
 11
-13986.537875029242
 21
-8133.855567523495
 31
0.0
  0
LINE
  5
ED
100
AcDbEntity
  8
Frei
  6
CONTINUOUS
 62
           7
100
AcDbLine
 10
-13990.447484011365
 20
-8125.068363326089
 30
0.0
 11
-13985.957968957973
 21
-8125.375372422643
 31
0.0
  0
LINE
  5
EE
100
AcDbEntity
  8
Frei
  6
CONTINUOUS
 62
           7
100
AcDbLine
 10
-13990.481596133204
 20
-8125.567198332021
 30
0.0
 11
-13990.447484011365
 21
-8125.068363326089
 31
0.0
  0
LINE
  5
EF
100
AcDbEntity
  8
Frei
  6
CONTINUOUS
 62
           7
100
AcDbLine
 10
-13986.972018937046
 20
-8126.253321762304
 30
0.0
 11
-13990.481596133204
 21
-8125.567198332021
 31
0.0
  0
LINE
  5
F0
100
AcDbEntity
  8
Frei
  6
CONTINUOUS
 62
           7
100
AcDbLine
 10
-13986.709578130547
 20
-8128.832148703023
 30
0.0
 11
-13986.569117959627
 21
-8126.778144248994
 31
0.0
  0
LINE
  5
F1
100
AcDbEntity
  8
Frei
  6
CONTINUOUS
 62
           7
100
AcDbLine
 10
-13990.959165838955
 20
-8132.550888415075
 30
0.0
 11
-13990.481596133204
 21
-8125.567198332021
 31
0.0
  0
LINE
  5
F2
100
AcDbEntity
  8
Frei
  6
CONTINUOUS
 62
           7
100
AcDbLine
 10
-13987.388857260265
 20
-8132.348912896005
 30
0.0
 11
-13990.959165838955
 21
-8132.550888415075
 31
0.0
  0
LINE
  5
F3
100
AcDbEntity
  8
Frei
  6
CONTINUOUS
 62
           7
100
AcDbLine
 10
-13986.777802374227
 20
-8129.829818714887
 30
0.0
 11
-13986.918262545147
 21
-8131.883823168913
 31
0.0
  0
LINE
  5
F4
100
AcDbEntity
  8
Frei
  6
CONTINUOUS
 62
           2
100
AcDbLine
 10
-13988.326311368644
 20
-8129.222758416619
 30
0.0
 11
-13985.55592708033
 21
-8129.412207202813
 31
0.0
  0
LINE
  5
F5
100
AcDbEntity
  8
Frei
  6
CONTINUOUS
 62
           7
100
AcDbLine
 10
-13988.292199246804
 20
-8128.723923410689
 30
0.0
 11
-13986.709578130547
 21
-8128.832148703023
 31
0.0
  0
LINE
  5
F6
100
AcDbEntity
  8
Frei
  6
CONTINUOUS
 62
           7
100
AcDbLine
 10
-13988.326311368644
 20
-8129.222758416619
 30
0.0
 11
-13988.292199246804
 21
-8128.723923410689
 31
0.0
  0
LINE
  5
F7
100
AcDbEntity
  8
Frei
  6
CONTINUOUS
 62
           7
100
AcDbLine
 10
-13988.360423490483
 20
-8129.721593422553
 30
0.0
 11
-13988.326311368644
 21
-8129.222758416619
 31
0.0
  0
LINE
  5
F8
100
AcDbEntity
  8
Frei
  6
CONTINUOUS
 62
           7
100
AcDbLine
 10
-13986.777802374227
 20
-8129.829818714887
 30
0.0
 11
-13988.360423490483
 21
-8129.721593422553
 31
0.0
  0
LINE
  5
F9
100
AcDbEntity
  8
Frei
  6
CONTINUOUS
 62
           7
100
AcDbLine
 10
-14130.270580981465
 20
-8125.028946445626
 30
0.0
 11
-14128.019180940068
 21
-8092.105836054085
 31
0.0
  0
LINE
  5
FA
100
AcDbEntity
  8
Frei
  6
CONTINUOUS
 62
           7
100
AcDbLine
 10
-14144.237961147574
 20
-8124.073807034123
 30
0.0
 11
-14130.270580981465
 21
-8125.028946445626
 31
0.0
  0
LINE
  5
FB
100
AcDbEntity
  8
Frei
  6
CONTINUOUS
 62
           7
100
AcDbLine
 10
-14137.995881058716
 20
-8091.423593617297
 30
0.0
 11
-14128.518015946
 21
-8092.071723932246
 31
0.0
  0
LINE
  5
FC
100
AcDbEntity
  8
Frei
  6
CONTINUOUS
 62
           7
100
AcDbLine
 10
-14138.132329546073
 20
-8093.418933641027
 30
0.0
 11
-14137.995881058716
 21
-8091.423593617297
 31
0.0
  0
LINE
  5
FD
100
AcDbEntity
  8
Frei
  6
CONTINUOUS
 62
           7
100
AcDbLine
 10
-14138.609899251825
 20
-8100.402623724081
 30
0.0
 11
-14138.644011373664
 21
-8100.901458730014
 31
0.0
  0
LINE
  5
FE
100
AcDbEntity
  8
Frei
  6
CONTINUOUS
 62
           7
100
AcDbLine
 10
-14143.632361432989
 20
-8100.560337511621
 30
0.0
 11
-14143.05245536172
 21
-8092.080142410769
 31
0.0
  0
LINE
  5
FF
100
AcDbEntity
  8
Frei
  6
CONTINUOUS
 62
           7
100
AcDbLine
 10
-14138.644011373664
 20
-8100.901458730014
 30
0.0
 11
-14143.632361432989
 21
-8100.560337511621
 31
0.0
  0
LINE
  5
100
100
AcDbEntity
  8
Frei
  6
CONTINUOUS
 62
           7
100
AcDbLine
 10
-14141.986561106176
 20
-8091.150696642582
 30
0.0
 11
-14137.995881058716
 21
-8091.423593617297
 31
0.0
  0
LINE
  5
101
100
AcDbEntity
  8
Frei
  6
CONTINUOUS
 62
           7
100
AcDbLine
 10
-14142.119476447982
 20
-8099.716500293798
 30
0.0
 11
-14138.609899251825
 21
-8100.402623724081
 31
0.0
  0
LINE
  5
102
100
AcDbEntity
  8
Frei
  6
CONTINUOUS
 62
           7
100
AcDbLine
 10
-14142.381917254481
 20
-8097.13767335308
 30
0.0
 11
-14142.522377425401
 21
-8099.191677807108
 31
0.0
  0
LINE
  5
103
100
AcDbEntity
  8
Frei
  6
CONTINUOUS
 62
           7
100
AcDbLine
 10
-14138.132329546073
 20
-8093.418933641027
 30
0.0
 11
-14138.609899251825
 21
-8100.402623724081
 31
0.0
  0
LINE
  5
104
100
AcDbEntity
  8
Frei
  6
CONTINUOUS
 62
           7
100
AcDbLine
 10
-14141.702638124763
 20
-8093.620909160098
 30
0.0
 11
-14138.132329546073
 21
-8093.418933641027
 31
0.0
  0
LINE
  5
105
100
AcDbEntity
  8
Frei
  6
CONTINUOUS
 62
           7
100
AcDbLine
 10
-14142.313693010803
 20
-8096.140003341216
 30
0.0
 11
-14142.173232839881
 21
-8094.085998887189
 31
0.0
  0
LINE
  5
106
100
AcDbEntity
  8
Frei
  6
CONTINUOUS
 62
           2
100
AcDbLine
 10
-14140.765184016385
 20
-8096.747063639481
 30
0.0
 11
-14143.5355683047
 21
-8096.557614853287
 31
0.0
  0
LINE
  5
107
100
AcDbEntity
  8
Frei
  6
CONTINUOUS
 62
           7
100
AcDbLine
 10
-14140.799296138224
 20
-8097.245898645413
 30
0.0
 11
-14142.381917254481
 21
-8097.13767335308
 31
0.0
  0
LINE
  5
108
100
AcDbEntity
  8
Frei
  6
CONTINUOUS
 62
           7
100
AcDbLine
 10
-14140.765184016385
 20
-8096.747063639481
 30
0.0
 11
-14140.799296138224
 21
-8097.245898645413
 31
0.0
  0
LINE
  5
109
100
AcDbEntity
  8
Frei
  6
CONTINUOUS
 62
           7
100
AcDbLine
 10
-14140.731071894546
 20
-8096.248228633549
 30
0.0
 11
-14140.765184016385
 21
-8096.747063639481
 31
0.0
  0
LINE
  5
10A
100
AcDbEntity
  8
Frei
  6
CONTINUOUS
 62
           7
100
AcDbLine
 10
-14142.313693010803
 20
-8096.140003341216
 30
0.0
 11
-14140.731071894546
 21
-8096.248228633549
 31
0.0
  0
LINE
  5
10B
100
AcDbEntity
  8
Frei
  6
CONTINUOUS
 62
           7
100
AcDbLine
 10
-14104.556300677119
 20
-8130.095087820426
 30
0.0
 11
-14104.590412798958
 21
-8130.593922826358
 31
0.0
  0
LINE
  5
10C
100
AcDbEntity
  8
Frei
  6
CONTINUOUS
 62
           7
100
AcDbLine
 10
-14104.590412798958
 20
-8130.593922826358
 30
0.0
 11
-14027.76982188536
 21
-8135.84718958962
 31
0.0
  0
LINE
  5
10D
100
AcDbEntity
  8
Frei
  6
CONTINUOUS
 62
           7
100
AcDbLine
 10
-14027.76982188536
 20
-8135.84718958962
 30
0.0
 11
-14024.56328243246
 21
-8088.956699031971
 31
0.0
  0
LINE
  5
10E
100
AcDbEntity
  8
Frei
  6
CONTINUOUS
 62
           7
100
AcDbLine
 10
-14024.56328243246
 20
-8088.956699031971
 30
0.0
 11
-14101.383873346058
 21
-8083.703432268711
 31
0.0
  0
LINE
  5
10F
100
AcDbEntity
  8
Frei
  6
CONTINUOUS
 62
           7
100
AcDbLine
 10
-14128.518015946
 20
-8092.071723932246
 30
0.0
 11
-14128.019180940068
 21
-8092.105836054085
 31
0.0
  0
LINE
  5
110
100
AcDbEntity
  8
Frei
  6
CONTINUOUS
 62
           7
100
AcDbLine
 10
-14102.381543357922
 20
-8083.635208025031
 30
0.0
 11
-14127.822128660477
 21
-8081.895489811224
 31
0.0
  0
LINE
  5
111
100
AcDbEntity
  8
Frei
  6
CONTINUOUS
 62
           7
100
AcDbLine
 10
-14130.529833107445
 20
-8128.820092490712
 30
0.0
 11
-14130.270580981465
 21
-8125.028946445626
 31
0.0
  0
LINE
  5
112
100
AcDbEntity
  8
Frei
  6
CONTINUOUS
 62
           7
100
AcDbLine
 10
-14128.518015946
 20
-8092.071723932246
 30
0.0
 11
-14127.822128660477
 21
-8081.895489811224
 31
0.0
  0
LINE
  5
113
100
AcDbEntity
  8
Frei
  6
CONTINUOUS
 62
           7
100
AcDbLine
 10
-14104.556300677119
 20
-8130.095087820426
 30
0.0
 11
-14105.553970688983
 21
-8130.026863576746
 31
0.0
  0
LINE
  5
114
100
AcDbEntity
  8
Frei
  6
CONTINUOUS
 62
           7
100
AcDbLine
 10
-14101.417985467899
 20
-8084.202267274641
 30
0.0
 11
-14104.556300677119
 21
-8130.095087820426
 31
0.0
  0
LINE
  5
115
100
AcDbEntity
  8
Frei
  6
CONTINUOUS
 62
           7
100
AcDbLine
 10
-14101.417985467899
 20
-8084.202267274641
 30
0.0
 11
-14102.415655479763
 21
-8084.134043030963
 31
0.0
  0
LINE
  5
116
100
AcDbEntity
  8
Frei
  6
CONTINUOUS
 62
           7
100
AcDbLine
 10
-14101.383873346058
 20
-8083.703432268711
 30
0.0
 11
-14101.417985467899
 21
-8084.202267274641
 31
0.0
  0
LINE
  5
117
100
AcDbEntity
  8
Frei
  6
CONTINUOUS
 62
           7
100
AcDbLine
 10
-14105.553970688983
 20
-8130.026863576746
 30
0.0
 11
-14102.381543357922
 21
-8083.635208025031
 31
0.0
  0
LINE
  5
118
100
AcDbEntity
  8
Frei
  6
CONTINUOUS
 62
           7
100
AcDbLine
 10
-14105.588082810822
 20
-8130.52569858268
 30
0.0
 11
-14105.553970688983
 21
-8130.026863576746
 31
0.0
  0
LINE
  5
119
100
AcDbEntity
  8
Frei
  6
CONTINUOUS
 62
           7
100
AcDbLine
 10
-14130.529833107445
 20
-8128.820092490712
 30
0.0
 11
-14105.588082810822
 21
-8130.52569858268
 31
0.0
  0
LINE
  5
11A
100
AcDbEntity
  8
Frei
  6
CONTINUOUS
 62
           7
100
AcDbLine
 10
-14026.772151873494
 20
-8135.915413833298
 30
0.0
 11
-14001.830401576874
 21
-8137.621019925266
 31
0.0
  0
LINE
  5
11B
100
AcDbEntity
  8
Frei
  6
CONTINUOUS
 62
           7
100
AcDbLine
 10
-14026.738039751655
 20
-8135.416578827366
 30
0.0
 11
-14026.772151873494
 21
-8135.915413833298
 31
0.0
  0
LINE
  5
11C
100
AcDbEntity
  8
Frei
  6
CONTINUOUS
 62
           7
100
AcDbLine
 10
-14023.565612420594
 20
-8089.024923275651
 30
0.0
 11
-14026.738039751655
 21
-8135.416578827366
 31
0.0
  0
LINE
  5
11D
100
AcDbEntity
  8
Frei
  6
CONTINUOUS
 62
           7
100
AcDbLine
 10
-14023.599724542435
 20
-8089.523758281581
 30
0.0
 11
-14024.597394554301
 21
-8089.455534037903
 31
0.0
  0
LINE
  5
11E
100
AcDbEntity
  8
Frei
  6
CONTINUOUS
 62
           7
100
AcDbLine
 10
-14026.738039751655
 20
-8135.416578827366
 30
0.0
 11
-14027.735709763521
 21
-8135.348354583686
 31
0.0
  0
LINE
  5
11F
100
AcDbEntity
  8
Frei
  6
CONTINUOUS
 62
           7
100
AcDbLine
 10
-13998.12502711804
 20
-8090.764641489457
 30
0.0
 11
-13998.820914403563
 21
-8100.940875610477
 31
0.0
  0
LINE
  5
120
100
AcDbEntity
  8
Frei
  6
CONTINUOUS
 62
           7
100
AcDbLine
 10
-13998.12502711804
 20
-8090.764641489457
 30
0.0
 11
-14023.565612420594
 21
-8089.024923275651
 31
0.0
  0
LINE
  5
121
100
AcDbEntity
  8
Frei
  6
CONTINUOUS
 62
           7
100
AcDbLine
 10
-13999.319749409497
 20
-8100.906763488638
 30
0.0
 11
-13998.820914403563
 21
-8100.940875610477
 31
0.0
  0
LINE
  5
122
100
AcDbEntity
  8
Frei
  6
CONTINUOUS
 62
           7
100
AcDbLine
 10
-13999.319749409497
 20
-8100.906763488638
 30
0.0
 11
-14001.830401576874
 21
-8137.621019925266
 31
0.0
  0
LINE
  5
123
100
AcDbEntity
  8
Frei
  6
CONTINUOUS
 62
           7
100
AcDbLine
 10
-14174.854294075696
 20
-8095.418263800146
 30
0.0
 11
-14176.849634099424
 21
-8095.281815312788
 31
0.0
  0
LINE
  5
124
100
AcDbEntity
  8
Frei
  6
CONTINUOUS
 62
           7
100
AcDbLine
 10
-14175.152884693727
 20
-8114.442218269258
 30
0.0
 11
-14173.92484830751
 21
-8096.48415805569
 31
0.0
  0
LINE
  5
125
100
AcDbEntity
  8
Frei
  6
CONTINUOUS
 62
           7
100
AcDbLine
 10
-14178.214118972999
 20
-8115.235215550085
 30
0.0
 11
-14176.218778949271
 21
-8115.371664037442
 31
0.0
  0
LINE
  5
126
100
AcDbEntity
  8
Frei
  6
CONTINUOUS
 62
           7
100
AcDbLine
 10
-14178.802443522793
 20
-8109.180971235217
 30
0.0
 11
-14179.143564741187
 21
-8114.169321294543
 31
0.0
  0
LINE
  5
127
100
AcDbEntity
  8
Frei
  6
CONTINUOUS
 62
           7
100
AcDbLine
 10
-14176.849634099424
 20
-8095.281815312788
 30
0.0
 11
-14177.91552835497
 21
-8096.211261080975
 31
0.0
  0
LINE
  5
128
100
AcDbEntity
  8
Frei
  6
CONTINUOUS
 62
           7
100
AcDbLine
 10
-14174.854294075696
 20
-8095.418263800146
 30
0.0
 11
-14173.92484830751
 21
-8096.48415805569
 31
0.0
  0
LINE
  5
129
100
AcDbEntity
  8
Frei
  6
CONTINUOUS
 62
           7
100
AcDbLine
 10
-14175.152884693727
 20
-8114.442218269258
 30
0.0
 11
-14176.218778949271
 21
-8115.371664037442
 31
0.0
  0
LINE
  5
12A
100
AcDbEntity
  8
Frei
  6
CONTINUOUS
 62
           7
100
AcDbLine
 10
-14178.214118972999
 20
-8115.235215550085
 30
0.0
 11
-14179.143564741187
 21
-8114.169321294543
 31
0.0
  0
LINE
  5
12B
100
AcDbEntity
  8
Frei
  6
CONTINUOUS
 62
           7
100
AcDbLine
 10
-14178.214118972999
 20
-8115.235215550085
 30
0.0
 11
-14176.849634099424
 21
-8095.281815312788
 31
0.0
  0
LINE
  5
12C
100
AcDbEntity
  8
Frei
  6
CONTINUOUS
 62
           7
100
AcDbLine
 10
-14176.218778949271
 20
-8115.371664037442
 30
0.0
 11
-14174.854294075696
 21
-8095.418263800146
 31
0.0
  0
LINE
  5
12D
100
AcDbEntity
  8
Frei
  6
CONTINUOUS
 62
           7
100
AcDbLine
 10
-14175.664566521316
 20
-8121.924743358244
 30
0.0
 11
-14175.152884693727
 21
-8114.442218269258
 31
0.0
  0
LINE
  5
12E
100
AcDbEntity
  8
Frei
  6
CONTINUOUS
 62
           7
100
AcDbLine
 10
-14146.084005862289
 20
-8114.42538131221
 30
0.0
 11
-14146.732136177236
 21
-8123.903246424927
 31
0.0
  0
LINE
  5
12F
100
AcDbEntity
  8
Frei
  6
CONTINUOUS
 62
           7
100
AcDbLine
 10
-14179.322543828906
 20
-8102.129056908485
 30
0.0
 11
-14178.256649573363
 21
-8101.199611140299
 31
0.0
  0
LINE
  5
130
100
AcDbEntity
  8
Frei
  6
CONTINUOUS
 62
           7
100
AcDbLine
 10
-14177.91552835497
 20
-8096.211261080975
 30
0.0
 11
-14178.256649573363
 21
-8101.199611140299
 31
0.0
  0
LINE
  5
131
100
AcDbEntity
  8
Frei
  6
CONTINUOUS
 62
           7
100
AcDbLine
 10
-14179.356655950745
 20
-8102.627891914417
 30
0.0
 11
-14179.322543828906
 21
-8102.129056908485
 31
0.0
  0
LINE
  5
132
100
AcDbEntity
  8
Frei
  6
CONTINUOUS
 62
           7
100
AcDbLine
 10
-14178.802443522793
 20
-8109.180971235217
 30
0.0
 11
-14179.731889290979
 21
-8108.115076979673
 31
0.0
  0
LINE
  5
133
100
AcDbEntity
  8
Frei
  6
CONTINUOUS
 62
           7
100
AcDbLine
 10
-14178.734219279115
 20
-8108.183301223353
 30
0.0
 11
-14178.802443522793
 21
-8109.180971235217
 31
0.0
  0
LINE
  5
134
100
AcDbEntity
  8
Frei
  6
CONTINUOUS
 62
           2
100
AcDbLine
 10
-14178.324873817042
 20
-8102.197281152163
 30
0.0
 11
-14179.322543828906
 21
-8102.129056908485
 31
0.0
  0
LINE
  5
135
100
AcDbEntity
  8
Frei
  6
CONTINUOUS
 62
           7
100
AcDbLine
 10
-14178.256649573363
 20
-8101.199611140299
 30
0.0
 11
-14178.324873817042
 21
-8102.197281152163
 31
0.0
  0
LINE
  5
136
100
AcDbEntity
  8
Frei
  6
CONTINUOUS
 62
           2
100
AcDbLine
 10
-14178.734219279115
 20
-8108.183301223353
 30
0.0
 11
-14179.731889290979
 21
-8108.115076979673
 31
0.0
  0
LINE
  5
137
100
AcDbEntity
  8
Frei
  6
CONTINUOUS
 62
           7
100
AcDbLine
 10
-14178.324873817042
 20
-8102.197281152163
 30
0.0
 11
-14178.734219279115
 21
-8108.183301223353
 31
0.0
  0
LINE
  5
138
100
AcDbEntity
  8
Frei
  6
CONTINUOUS
 62
           1
100
AcDbLine
 10
-14176.874102836004
 20
-8102.797657775505
 30
0.0
 11
-14179.356655950745
 21
-8102.627891914417
 31
0.0
  0
LINE
  5
139
100
AcDbEntity
  8
Frei
  6
CONTINUOUS
 62
           7
100
AcDbLine
 10
-14179.390768072584
 20
-8103.126726920349
 30
0.0
 11
-14179.356655950745
 21
-8102.627891914417
 31
0.0
  0
LINE
  5
13A
100
AcDbEntity
  8
Frei
  6
CONTINUOUS
 62
           1
100
AcDbLine
 10
-14177.215224054396
 20
-8107.786007834829
 30
0.0
 11
-14179.697777169138
 21
-8107.616241973741
 31
0.0
  0
LINE
  5
13B
100
AcDbEntity
  8
Frei
  6
CONTINUOUS
 62
           7
100
AcDbLine
 10
-14179.731889290979
 20
-8108.115076979673
 30
0.0
 11
-14179.697777169138
 21
-8107.616241973741
 31
0.0
  0
LINE
  5
13C
100
AcDbEntity
  8
Frei
  6
CONTINUOUS
 62
           1
100
AcDbLine
 10
-14176.908214957843
 20
-8103.296492781437
 30
0.0
 11
-14179.390768072584
 21
-8103.126726920349
 31
0.0
  0
LINE
  5
13D
100
AcDbEntity
  8
Frei
  6
CONTINUOUS
 62
           7
100
AcDbLine
 10
-14179.663665047299
 20
-8107.117406967809
 30
0.0
 11
-14179.390768072584
 21
-8103.126726920349
 31
0.0
  0
LINE
  5
13E
100
AcDbEntity
  8
Frei
  6
CONTINUOUS
 62
           1
100
AcDbLine
 10
-14177.181111932558
 20
-8107.287172828897
 30
0.0
 11
-14179.663665047299
 21
-8107.117406967809
 31
0.0
  0
LINE
  5
13F
100
AcDbEntity
  8
Frei
  6
CONTINUOUS
 62
           7
100
AcDbLine
 10
-14179.697777169138
 20
-8107.616241973741
 30
0.0
 11
-14179.663665047299
 21
-8107.117406967809
 31
0.0
  0
LINE
  5
140
100
AcDbEntity
  8
Frei
  6
CONTINUOUS
 62
           7
100
AcDbLine
 10
-14171.824852048967
 20
-8094.067095195207
 30
0.0
 11
-14144.753633110553
 21
-8094.970816080844
 31
0.0
  0
LINE
  5
141
100
AcDbEntity
  8
Frei
  6
CONTINUOUS
 62
           7
100
AcDbLine
 10
-14173.886921076744
 20
-8095.929533207884
 30
0.0
 11
-14173.92484830751
 21
-8096.48415805569
 31
0.0
  0
LINE
  5
142
100
AcDbEntity
  8
Frei
  6
CONTINUOUS
 62
           7
100
AcDbLine
 10
-14146.732136177236
 20
-8123.903246424927
 30
0.0
 11
-14175.664566521316
 21
-8121.924743358244
 31
0.0
  0
LINE
  5
143
100
AcDbEntity
  8
Frei
  6
CONTINUOUS
 62
           7
100
AcDbLine
 10
-14175.732790764996
 20
-8122.922413370108
 30
0.0
 11
-14175.664566521316
 21
-8121.924743358244
 31
0.0
  0
LINE
  5
144
100
AcDbEntity
  8
Frei
  6
CONTINUOUS
 62
           7
100
AcDbLine
 10
-14175.233955759064
 20
-8122.956525491949
 30
0.0
 11
-14175.732790764996
 21
-8122.922413370108
 31
0.0
  0
LINE
  5
145
100
AcDbEntity
  8
Frei
  6
CONTINUOUS
 62
           7
100
AcDbLine
 10
-14146.732136177236
 20
-8123.903246424927
 30
0.0
 11
-14146.800360420915
 21
-8124.900916436791
 31
0.0
  0
LINE
  5
146
100
AcDbEntity
  8
Frei
  6
CONTINUOUS
 62
           7
100
AcDbLine
 10
-14186.596406051467
 20
-8135.209881087565
 30
0.0
 11
-14176.120870926887
 21
-8135.926235646191
 31
0.0
  0
LINE
  5
147
100
AcDbEntity
  8
Frei
  6
CONTINUOUS
 62
           7
100
AcDbLine
 10
-14189.184498968125
 20
-8151.070264911885
 30
0.0
 11
-14189.218611089964
 21
-8151.569099917817
 31
0.0
  0
LINE
  5
148
100
AcDbEntity
  8
Frei
  6
CONTINUOUS
 62
           7
100
AcDbLine
 10
-14187.824442437684
 20
-8153.167941301133
 30
0.0
 11
-14177.348907313104
 21
-8153.88429585976
 31
0.0
  0
LINE
  5
149
100
AcDbEntity
  8
Frei
  6
CONTINUOUS
 62
           7
100
AcDbLine
 10
-14177.110122460228
 20
-8150.392450818232
 30
0.0
 11
-14175.233955759064
 21
-8122.956525491949
 31
0.0
  0
LINE
  5
14A
100
AcDbEntity
  8
Frei
  6
CONTINUOUS
 62
           7
100
AcDbLine
 10
-14147.299195426847
 20
-8124.866804314952
 30
0.0
 11
-14175.233955759064
 21
-8122.956525491949
 31
0.0
  0
LINE
  5
14B
100
AcDbEntity
  8
Frei
  6
CONTINUOUS
 62
           7
100
AcDbLine
 10
-14175.715953807949
 20
-8151.991292201548
 30
0.0
 11
-14169.765748478811
 21
-8152.398188523464
 31
0.0
  0
LINE
  5
14C
100
AcDbEntity
  8
Frei
  6
CONTINUOUS
 62
           7
100
AcDbLine
 10
-14149.175362128011
 20
-8152.302729641237
 30
0.0
 11
-14147.299195426847
 21
-8124.866804314952
 31
0.0
  0
LINE
  5
14D
100
AcDbEntity
  8
Frei
  6
CONTINUOUS
 62
           7
100
AcDbLine
 10
-14146.800360420915
 20
-8124.900916436791
 30
0.0
 11
-14147.299195426847
 21
-8124.866804314952
 31
0.0
  0
LINE
  5
14E
100
AcDbEntity
  8
Frei
  6
CONTINUOUS
 62
           7
100
AcDbLine
 10
-14169.765748478811
 20
-8152.398188523464
 30
0.0
 11
-14177.348907313104
 21
-8153.88429585976
 31
0.0
  0
LINE
  5
14F
100
AcDbEntity
  8
Frei
  6
CONTINUOUS
 62
           7
100
AcDbLine
 10
-14150.774203511328
 20
-8153.696898293516
 30
0.0
 11
-14169.765748478811
 21
-8152.398188523464
 31
0.0
  0
LINE
  5
150
100
AcDbEntity
  8
Frei
  6
CONTINUOUS
 62
           7
100
AcDbLine
 10
-14193.217709615947
 20
-8136.761763527384
 30
0.0
 11
-14188.229359556623
 21
-8137.102884745777
 31
0.0
  0
LINE
  5
151
100
AcDbEntity
  8
Frei
  6
CONTINUOUS
 62
           7
100
AcDbLine
 10
-14188.195247434784
 20
-8136.604049739844
 30
0.0
 11
-14188.229359556623
 21
-8137.102884745777
 31
0.0
  0
LINE
  5
152
100
AcDbEntity
  8
Frei
  6
CONTINUOUS
 62
           7
100
AcDbLine
 10
-14194.172849027449
 20
-8150.729143693492
 30
0.0
 11
-14189.184498968125
 21
-8151.070264911885
 31
0.0
  0
LINE
  5
153
100
AcDbEntity
  8
Frei
  6
CONTINUOUS
 62
           7
100
AcDbLine
 10
-14189.116274724445
 20
-8150.072594900021
 30
0.0
 11
-14189.184498968125
 21
-8151.070264911885
 31
0.0
  0
LINE
  5
154
100
AcDbEntity
  8
Frei
  6
CONTINUOUS
 62
           2
100
AcDbLine
 10
-14188.2975838003
 20
-8138.100554757641
 30
0.0
 11
-14193.285933859624
 21
-8137.759433539248
 31
0.0
  0
LINE
  5
155
100
AcDbEntity
  8
Frei
  6
CONTINUOUS
 62
           7
100
AcDbLine
 10
-14188.229359556623
 20
-8137.102884745777
 30
0.0
 11
-14188.2975838003
 21
-8138.100554757641
 31
0.0
  0
LINE
  5
156
100
AcDbEntity
  8
Frei
  6
CONTINUOUS
 62
           2
100
AcDbLine
 10
-14189.116274724445
 20
-8150.072594900021
 30
0.0
 11
-14194.104624783769
 21
-8149.731473681626
 31
0.0
  0
LINE
  5
157
100
AcDbEntity
  8
Frei
  6
CONTINUOUS
 62
           7
100
AcDbLine
 10
-14188.2975838003
 20
-8138.100554757641
 30
0.0
 11
-14189.116274724445
 21
-8150.072594900021
 31
0.0
  0
LINE
  5
158
100
AcDbEntity
  8
Frei
  6
CONTINUOUS
 62
           7
100
AcDbLine
 10
-14145.128866450787
 20
-8100.458001146102
 30
0.0
 11
-14144.374639239524
 21
-8100.509577900377
 31
0.0
  0
LINE
  5
159
100
AcDbEntity
  8
Frei
  6
CONTINUOUS
 62
           7
100
AcDbLine
 10
-14144.753633110553
 20
-8094.970816080844
 30
0.0
 11
-14145.128866450787
 21
-8100.458001146102
 31
0.0
  0
LINE
  5
15A
100
AcDbEntity
  8
Frei
  6
CONTINUOUS
 62
           7
100
AcDbLine
 10
-14145.367651303663
 20
-8103.949846187628
 30
0.0
 11
-14144.6134240924
 21
-8104.001422941905
 31
0.0
  0
LINE
  5
15B
100
AcDbEntity
  8
Frei
  6
CONTINUOUS
 62
           7
100
AcDbLine
 10
-14145.128866450787
 20
-8100.458001146102
 30
0.0
 11
-14145.367651303663
 21
-8103.949846187628
 31
0.0
  0
LINE
  5
15C
100
AcDbEntity
  8
Frei
  6
CONTINUOUS
 62
           7
100
AcDbLine
 10
-14145.845221009413
 20
-8110.933536270683
 30
0.0
 11
-14145.090993798151
 21
-8110.985113024959
 31
0.0
  0
LINE
  5
15D
100
AcDbEntity
  8
Frei
  6
CONTINUOUS
 62
           7
100
AcDbLine
 10
-14145.367651303663
 20
-8103.949846187628
 30
0.0
 11
-14145.845221009413
 21
-8110.933536270683
 31
0.0
  0
LINE
  5
15E
100
AcDbEntity
  8
Frei
  6
CONTINUOUS
 62
           7
100
AcDbLine
 10
-14146.084005862289
 20
-8114.42538131221
 30
0.0
 11
-14145.329778651027
 21
-8114.476958066485
 31
0.0
  0
LINE
  5
15F
100
AcDbEntity
  8
Frei
  6
CONTINUOUS
 62
           7
100
AcDbLine
 10
-14145.845221009413
 20
-8110.933536270683
 30
0.0
 11
-14146.084005862289
 21
-8114.42538131221
 31
0.0
  0
LINE
  5
160
100
AcDbEntity
  8
Frei
  6
CONTINUOUS
 62
           7
100
AcDbLine
 10
-14144.109931138739
 20
-8107.544027594675
 30
0.0
 11
-14143.751753859426
 21
-8102.306260032383
 31
0.0
  0
LINE
  5
161
100
AcDbEntity
  8
Frei
  6
CONTINUOUS
 62
           7
100
AcDbLine
 10
-14193.154383652582
 20
-8135.835722999622
 30
0.0
 11
-14193.065050754447
 21
-8134.529372811836
 31
0.0
  0
LINE
  5
162
100
AcDbEntity
  8
Frei
  6
CONTINUOUS
 62
           7
100
AcDbLine
 10
-14198.5596363157
 20
-8152.671989563431
 30
0.0
 11
-14194.325507888949
 21
-8152.96153440904
 31
0.0
  0
LINE
  5
163
100
AcDbEntity
  8
Frei
  6
CONTINUOUS
 62
           7
100
AcDbLine
 10
-14198.142733711906
 20
-8135.494601781227
 30
0.0
 11
-14193.154383652582
 21
-8135.835722999622
 31
0.0
  0
LINE
  5
164
100
AcDbEntity
  8
Frei
  6
CONTINUOUS
 62
           7
100
AcDbLine
 10
-14193.290832139939
 20
-8137.83106302335
 30
0.0
 11
-14193.154383652582
 21
-8135.835722999622
 31
0.0
  0
LINE
  5
165
100
AcDbEntity
  8
Frei
  6
CONTINUOUS
 62
           7
100
AcDbLine
 10
-14193.290832139939
 20
-8137.83106302335
 30
0.0
 11
-14198.279182199263
 21
-8137.489941804957
 31
0.0
  0
LINE
  5
166
100
AcDbEntity
  8
Frei
  6
CONTINUOUS
 62
           7
100
AcDbLine
 10
-14198.142733711906
 20
-8135.494601781227
 30
0.0
 11
-14198.279182199263
 21
-8137.489941804957
 31
0.0
  0
LINE
  5
167
100
AcDbEntity
  8
Frei
  6
CONTINUOUS
 62
           7
100
AcDbLine
 10
-14193.380165038072
 20
-8139.137413211136
 30
0.0
 11
-14193.290832139939
 21
-8137.83106302335
 31
0.0
  0
LINE
  5
168
100
AcDbEntity
  8
Frei
  6
CONTINUOUS
 62
           7
100
AcDbLine
 10
-14193.558830834339
 20
-8141.750113586708
 30
0.0
 11
-14193.380165038072
 21
-8139.137413211136
 31
0.0
  0
LINE
  5
169
100
AcDbEntity
  8
Frei
  6
CONTINUOUS
 62
           7
100
AcDbLine
 10
-14193.558830834339
 20
-8141.750113586708
 30
0.0
 11
-14198.547180893664
 21
-8141.408992368313
 31
0.0
  0
LINE
  5
16A
100
AcDbEntity
  8
Frei
  6
CONTINUOUS
 62
           7
100
AcDbLine
 10
-14198.279182199263
 20
-8137.489941804957
 30
0.0
 11
-14198.547180893664
 21
-8141.408992368313
 31
0.0
  0
LINE
  5
16B
100
AcDbEntity
  8
Frei
  6
CONTINUOUS
 62
           7
100
AcDbLine
 10
-14193.831727809054
 20
-8145.740793634166
 30
0.0
 11
-14193.558830834339
 21
-8141.750113586708
 31
0.0
  0
LINE
  5
16C
100
AcDbEntity
  8
Frei
  6
CONTINUOUS
 62
           7
100
AcDbLine
 10
-14193.831727809054
 20
-8145.740793634166
 30
0.0
 11
-14198.820077868379
 21
-8145.399672415773
 31
0.0
  0
LINE
  5
16D
100
AcDbEntity
  8
Frei
  6
CONTINUOUS
 62
           7
100
AcDbLine
 10
-14198.547180893664
 20
-8141.408992368313
 30
0.0
 11
-14198.820077868379
 21
-8145.399672415773
 31
0.0
  0
LINE
  5
16E
100
AcDbEntity
  8
Frei
  6
CONTINUOUS
 62
           7
100
AcDbLine
 10
-14194.010393605322
 20
-8148.353494009738
 30
0.0
 11
-14193.831727809054
 21
-8145.740793634166
 31
0.0
  0
LINE
  5
16F
100
AcDbEntity
  8
Frei
  6
CONTINUOUS
 62
           7
100
AcDbLine
 10
-14194.099726503457
 20
-8149.659844197524
 30
0.0
 11
-14194.010393605322
 21
-8148.353494009738
 31
0.0
  0
LINE
  5
170
100
AcDbEntity
  8
Frei
  6
CONTINUOUS
 62
           7
100
AcDbLine
 10
-14194.099726503457
 20
-8149.659844197524
 30
0.0
 11
-14199.088076562781
 21
-8149.318722979131
 31
0.0
  0
LINE
  5
171
100
AcDbEntity
  8
Frei
  6
CONTINUOUS
 62
           7
100
AcDbLine
 10
-14198.820077868379
 20
-8145.399672415773
 30
0.0
 11
-14199.088076562781
 21
-8149.318722979131
 31
0.0
  0
LINE
  5
172
100
AcDbEntity
  8
Frei
  6
CONTINUOUS
 62
           7
100
AcDbLine
 10
-14194.236174990814
 20
-8151.655184221254
 30
0.0
 11
-14194.099726503457
 21
-8149.659844197524
 31
0.0
  0
LINE
  5
173
100
AcDbEntity
  8
Frei
  6
CONTINUOUS
 62
           7
100
AcDbLine
 10
-14194.236174990814
 20
-8151.655184221254
 30
0.0
 11
-14199.224525050138
 21
-8151.314063002861
 31
0.0
  0
LINE
  5
174
100
AcDbEntity
  8
Frei
  6
CONTINUOUS
 62
           7
100
AcDbLine
 10
-14199.088076562781
 20
-8149.318722979131
 30
0.0
 11
-14199.224525050138
 21
-8151.314063002861
 31
0.0
  0
LINE
  5
175
100
AcDbEntity
  8
Frei
  6
CONTINUOUS
 62
           7
100
AcDbLine
 10
-14194.325507888949
 20
-8152.96153440904
 30
0.0
 11
-14194.236174990814
 21
-8151.655184221254
 31
0.0
  0
LINE
  5
176
100
AcDbEntity
  8
Frei
  6
CONTINUOUS
 62
           7
100
AcDbLine
 10
-14198.142733711906
 20
-8135.494601781227
 30
0.0
 11
-14197.299179181198
 21
-8134.239827966227
 31
0.0
  0
LINE
  5
177
100
AcDbEntity
  8
Frei
  6
CONTINUOUS
 62
           7
100
AcDbLine
 10
-14193.065050754447
 20
-8134.529372811836
 30
0.0
 11
-14197.299179181198
 21
-8134.239827966227
 31
0.0
  0
LINE
  5
178
100
AcDbEntity
  8
Frei
  6
CONTINUOUS
 62
           7
100
AcDbLine
 10
-14198.5596363157
 20
-8152.671989563431
 30
0.0
 11
-14199.224525050138
 21
-8151.314063002861
 31
0.0
  0
LINE
  5
179
100
AcDbEntity
  8
Frei
  6
CONTINUOUS
 62
           7
100
AcDbLine
 10
-14197.614293464823
 20
-8138.847868365529
 30
0.0
 11
-14198.279182199263
 21
-8137.489941804957
 31
0.0
  0
LINE
  5
17A
100
AcDbEntity
  8
Frei
  6
CONTINUOUS
 62
           7
100
AcDbLine
 10
-14193.380165038072
 20
-8139.137413211136
 30
0.0
 11
-14197.614293464823
 21
-8138.847868365529
 31
0.0
  0
LINE
  5
17B
100
AcDbEntity
  8
Frei
  6
CONTINUOUS
 62
           7
100
AcDbLine
 10
-14198.547180893664
 20
-8141.408992368313
 30
0.0
 11
-14197.614293464823
 21
-8138.847868365529
 31
0.0
  0
LINE
  5
17C
100
AcDbEntity
  8
Frei
  6
CONTINUOUS
 62
           7
100
AcDbLine
 10
-14198.244522032073
 20
-8148.063949164131
 30
0.0
 11
-14198.820077868379
 21
-8145.399672415773
 31
0.0
  0
LINE
  5
17D
100
AcDbEntity
  8
Frei
  6
CONTINUOUS
 62
           7
100
AcDbLine
 10
-14194.010393605322
 20
-8148.353494009738
 30
0.0
 11
-14198.244522032073
 21
-8148.063949164131
 31
0.0
  0
LINE
  5
17E
100
AcDbEntity
  8
Frei
  6
CONTINUOUS
 62
           7
100
AcDbLine
 10
-14199.088076562781
 20
-8149.318722979131
 30
0.0
 11
-14198.244522032073
 21
-8148.063949164131
 31
0.0
  0
LINE
  5
17F
100
AcDbEntity
  8
Frei
  6
CONTINUOUS
 62
           3
100
AcDbLine
 10
-14153.781656422734
 20
-8146.3746563564
 30
0.0
 11
-14171.739716636303
 21
-8145.146619970183
 31
0.0
  0
LINE
  5
180
100
AcDbEntity
  8
Frei
  6
CONTINUOUS
 62
           3
100
AcDbLine
 10
-14154.42119297606
 20
-8146.932323817311
 30
0.0
 11
-14153.781656422734
 21
-8146.3746563564
 31
0.0
  0
LINE
  5
181
100
AcDbEntity
  8
Frei
  6
CONTINUOUS
 62
           3
100
AcDbLine
 10
-14153.863525515149
 20
-8147.571860370637
 30
0.0
 11
-14154.42119297606
 21
-8146.932323817311
 31
0.0
  0
LINE
  5
182
100
AcDbEntity
  8
Frei
  6
CONTINUOUS
 62
           3
100
AcDbLine
 10
-14171.821585728718
 20
-8146.343823984422
 30
0.0
 11
-14153.863525515149
 21
-8147.571860370637
 31
0.0
  0
LINE
  5
183
100
AcDbEntity
  8
Frei
  6
CONTINUOUS
 62
           3
100
AcDbLine
 10
-14171.182049175392
 20
-8145.786156523509
 30
0.0
 11
-14171.821585728718
 21
-8146.343823984422
 31
0.0
  0
LINE
  5
184
100
AcDbEntity
  8
Frei
  6
CONTINUOUS
 62
           3
100
AcDbLine
 10
-14171.739716636303
 20
-8145.146619970183
 30
0.0
 11
-14171.182049175392
 21
-8145.786156523509
 31
0.0
  0
LINE
  5
185
100
AcDbEntity
  8
Frei
  6
CONTINUOUS
 62
           3
100
AcDbLine
 10
-14154.42119297606
 20
-8146.932323817311
 30
0.0
 11
-14171.182049175392
 21
-8145.786156523509
 31
0.0
  0
LINE
  5
186
100
AcDbEntity
  8
Frei
  6
CONTINUOUS
 62
           3
100
AcDbLine
 10
-14171.68513724136
 20
-8144.348483960692
 30
0.0
 11
-14171.045600688034
 21
-8143.790816499779
 31
0.0
  0
LINE
  5
187
100
AcDbEntity
  8
Frei
  6
CONTINUOUS
 62
           3
100
AcDbLine
 10
-14153.727077027792
 20
-8145.576520346907
 30
0.0
 11
-14171.68513724136
 21
-8144.348483960692
 31
0.0
  0
LINE
  5
188
100
AcDbEntity
  8
Frei
  6
CONTINUOUS
 62
           3
100
AcDbLine
 10
-14154.284744488703
 20
-8144.936983793581
 30
0.0
 11
-14153.727077027792
 21
-8145.576520346907
 31
0.0
  0
LINE
  5
189
100
AcDbEntity
  8
Frei
  6
CONTINUOUS
 62
           3
100
AcDbLine
 10
-14153.645207935377
 20
-8144.37931633267
 30
0.0
 11
-14154.284744488703
 21
-8144.936983793581
 31
0.0
  0
LINE
  5
18A
100
AcDbEntity
  8
Frei
  6
CONTINUOUS
 62
           3
100
AcDbLine
 10
-14171.603268148945
 20
-8143.151279946455
 30
0.0
 11
-14153.645207935377
 21
-8144.37931633267
 31
0.0
  0
LINE
  5
18B
100
AcDbEntity
  8
Frei
  6
CONTINUOUS
 62
           3
100
AcDbLine
 10
-14171.045600688034
 20
-8143.790816499779
 30
0.0
 11
-14171.603268148945
 21
-8143.151279946455
 31
0.0
  0
LINE
  5
18C
100
AcDbEntity
  8
Frei
  6
CONTINUOUS
 62
           3
100
AcDbLine
 10
-14171.045600688034
 20
-8143.790816499779
 30
0.0
 11
-14154.284744488703
 21
-8144.936983793581
 31
0.0
  0
LINE
  5
18D
100
AcDbEntity
  8
Frei
  6
CONTINUOUS
 62
           3
100
AcDbLine
 10
-14171.548688754003
 20
-8142.353143936962
 30
0.0
 11
-14170.909152200677
 21
-8141.795476476049
 31
0.0
  0
LINE
  5
18E
100
AcDbEntity
  8
Frei
  6
CONTINUOUS
 62
           3
100
AcDbLine
 10
-14153.590628540434
 20
-8143.581180323177
 30
0.0
 11
-14171.548688754003
 21
-8142.353143936962
 31
0.0
  0
LINE
  5
18F
100
AcDbEntity
  8
Frei
  6
CONTINUOUS
 62
           3
100
AcDbLine
 10
-14154.148296001345
 20
-8142.941643769851
 30
0.0
 11
-14153.590628540434
 21
-8143.581180323177
 31
0.0
  0
LINE
  5
190
100
AcDbEntity
  8
Frei
  6
CONTINUOUS
 62
           3
100
AcDbLine
 10
-14153.508759448019
 20
-8142.38397630894
 30
0.0
 11
-14154.148296001345
 21
-8142.941643769851
 31
0.0
  0
LINE
  5
191
100
AcDbEntity
  8
Frei
  6
CONTINUOUS
 62
           3
100
AcDbLine
 10
-14171.466819661588
 20
-8141.155939922724
 30
0.0
 11
-14153.508759448019
 21
-8142.38397630894
 31
0.0
  0
LINE
  5
192
100
AcDbEntity
  8
Frei
  6
CONTINUOUS
 62
           3
100
AcDbLine
 10
-14170.909152200677
 20
-8141.795476476049
 30
0.0
 11
-14171.466819661588
 21
-8141.155939922724
 31
0.0
  0
LINE
  5
193
100
AcDbEntity
  8
Frei
  6
CONTINUOUS
 62
           3
100
AcDbLine
 10
-14171.412240266645
 20
-8140.357803913232
 30
0.0
 11
-14170.772703713319
 21
-8139.800136452319
 31
0.0
  0
LINE
  5
194
100
AcDbEntity
  8
Frei
  6
CONTINUOUS
 62
           3
100
AcDbLine
 10
-14165.333517408286
 20
-8140.773488723451
 30
0.0
 11
-14171.412240266645
 21
-8140.357803913232
 31
0.0
  0
LINE
  5
195
100
AcDbEntity
  8
Frei
  6
CONTINUOUS
 62
           3
100
AcDbLine
 10
-14154.011847513988
 20
-8140.946303746121
 30
0.0
 11
-14153.454180053077
 21
-8141.585840299449
 31
0.0
  0
LINE
  5
196
100
AcDbEntity
  8
Frei
  6
CONTINUOUS
 62
           3
100
AcDbLine
 10
-14153.372310960662
 20
-8140.38863628521
 30
0.0
 11
-14154.011847513988
 21
-8140.946303746121
 31
0.0
  0
LINE
  5
197
100
AcDbEntity
  8
Frei
  6
CONTINUOUS
 62
           3
100
AcDbLine
 10
-14159.451033819019
 20
-8139.972951474991
 30
0.0
 11
-14153.372310960662
 21
-8140.38863628521
 31
0.0
  0
LINE
  5
198
100
AcDbEntity
  8
Frei
  6
CONTINUOUS
 62
           3
100
AcDbLine
 10
-14170.772703713319
 20
-8139.800136452319
 30
0.0
 11
-14171.33037117423
 21
-8139.160599898994
 31
0.0
  0
LINE
  5
199
100
AcDbEntity
  8
Frei
  6
CONTINUOUS
 62
           3
100
AcDbLine
 10
-14171.275791779288
 20
-8138.362463889502
 30
0.0
 11
-14170.636255225962
 21
-8137.804796428589
 31
0.0
  0
LINE
  5
19A
100
AcDbEntity
  8
Frei
  6
CONTINUOUS
 62
           3
100
AcDbLine
 10
-14165.941546344558
 20
-8138.727238670796
 30
0.0
 11
-14171.275791779288
 21
-8138.362463889502
 31
0.0
  0
LINE
  5
19B
100
AcDbEntity
  8
Frei
  6
CONTINUOUS
 62
           3
100
AcDbLine
 10
-14153.87539902663
 20
-8138.950963722391
 30
0.0
 11
-14153.317731565719
 21
-8139.590500275719
 31
0.0
  0
LINE
  5
19C
100
AcDbEntity
  8
Frei
  6
CONTINUOUS
 62
           3
100
AcDbLine
 10
-14159.20964446136
 20
-8138.586188941099
 30
0.0
 11
-14153.87539902663
 21
-8138.950963722391
 31
0.0
  0
LINE
  5
19D
100
AcDbEntity
  8
Frei
  6
CONTINUOUS
 62
           3
100
AcDbLine
 10
-14164.693980854961
 20
-8140.21582126254
 30
0.0
 11
-14170.772703713319
 21
-8139.800136452319
 31
0.0
  0
LINE
  5
19E
100
AcDbEntity
  8
Frei
  6
CONTINUOUS
 62
           3
100
AcDbLine
 10
-14154.148296001345
 20
-8142.941643769851
 30
0.0
 11
-14170.909152200677
 21
-8141.795476476049
 31
0.0
  0
LINE
  5
19F
100
AcDbEntity
  8
Frei
  6
CONTINUOUS
 62
           3
100
AcDbLine
 10
-14164.693980854961
 20
-8140.21582126254
 30
0.0
 11
-14165.251648315871
 21
-8139.576284709214
 31
0.0
  0
LINE
  5
1A0
100
AcDbEntity
  8
Frei
  6
CONTINUOUS
 62
           3
100
AcDbLine
 10
-14171.33037117423
 20
-8139.160599898994
 30
0.0
 11
-14165.251648315871
 21
-8139.576284709214
 31
0.0
  0
LINE
  5
1A1
100
AcDbEntity
  8
Frei
  6
CONTINUOUS
 62
           3
100
AcDbLine
 10
-14165.333517408286
 20
-8140.773488723451
 30
0.0
 11
-14164.693980854961
 21
-8140.21582126254
 31
0.0
  0
LINE
  5
1A2
100
AcDbEntity
  8
Frei
  6
CONTINUOUS
 62
           3
100
AcDbLine
 10
-14165.302009791232
 20
-8138.169571209883
 30
0.0
 11
-14165.941546344558
 21
-8138.727238670796
 31
0.0
  0
LINE
  5
1A3
100
AcDbEntity
  8
Frei
  6
CONTINUOUS
 62
           3
100
AcDbLine
 10
-14170.636255225962
 20
-8137.804796428589
 30
0.0
 11
-14165.302009791232
 21
-8138.169571209883
 31
0.0
  0
LINE
  5
1A4
100
AcDbEntity
  8
Frei
  6
CONTINUOUS
 62
           3
100
AcDbLine
 10
-14158.651977000447
 20
-8139.225725494425
 30
0.0
 11
-14159.20964446136
 21
-8138.586188941099
 31
0.0
  0
LINE
  5
1A5
100
AcDbEntity
  8
Frei
  6
CONTINUOUS
 62
           3
100
AcDbLine
 10
-14153.317731565719
 20
-8139.590500275719
 30
0.0
 11
-14158.651977000447
 21
-8139.225725494425
 31
0.0
  0
LINE
  5
1A6
100
AcDbEntity
  8
Frei
  6
CONTINUOUS
 62
           3
100
AcDbLine
 10
-14160.090570372347
 20
-8140.530618935902
 30
0.0
 11
-14159.451033819019
 21
-8139.972951474991
 31
0.0
  0
LINE
  5
1A7
100
AcDbEntity
  8
Frei
  6
CONTINUOUS
 62
           3
100
AcDbLine
 10
-14154.011847513988
 20
-8140.946303746121
 30
0.0
 11
-14160.090570372347
 21
-8140.530618935902
 31
0.0
  0
LINE
  5
1A8
100
AcDbEntity
  8
Frei
  6
CONTINUOUS
 62
           3
100
AcDbLine
 10
-14159.532902911435
 20
-8141.17015548923
 30
0.0
 11
-14160.090570372347
 21
-8140.530618935902
 31
0.0
  0
LINE
  5
1A9
100
AcDbEntity
  8
Frei
  6
CONTINUOUS
 62
           3
100
AcDbLine
 10
-14153.454180053077
 20
-8141.585840299449
 30
0.0
 11
-14159.532902911435
 21
-8141.17015548923
 31
0.0
  0
LINE
  5
1AA
100
AcDbEntity
  8
Frei
  6
CONTINUOUS
 62
           3
100
AcDbLine
 10
-14171.33037117423
 20
-8139.160599898994
 30
0.0
 11
-14171.412240266645
 21
-8140.357803913232
 31
0.0
  0
LINE
  5
1AB
100
AcDbEntity
  8
Frei
  6
CONTINUOUS
 62
           3
100
AcDbLine
 10
-14171.548688754003
 20
-8142.353143936962
 30
0.0
 11
-14171.466819661588
 21
-8141.155939922724
 31
0.0
  0
LINE
  5
1AC
100
AcDbEntity
  8
Frei
  6
CONTINUOUS
 62
           3
100
AcDbLine
 10
-14171.68513724136
 20
-8144.348483960692
 30
0.0
 11
-14171.603268148945
 21
-8143.151279946455
 31
0.0
  0
LINE
  5
1AD
100
AcDbEntity
  8
Frei
  6
CONTINUOUS
 62
           3
100
AcDbLine
 10
-14171.821585728718
 20
-8146.343823984422
 30
0.0
 11
-14171.739716636303
 21
-8145.146619970183
 31
0.0
  0
LINE
  5
1AE
100
AcDbEntity
  8
Frei
  6
CONTINUOUS
 62
           3
100
AcDbLine
 10
-14171.234857233081
 20
-8137.763861882382
 30
0.0
 11
-14171.275791779288
 21
-8138.362463889502
 31
0.0
  0
LINE
  5
1AF
100
AcDbEntity
  8
Frei
  6
CONTINUOUS
 62
           3
100
AcDbLine
 10
-14153.317731565719
 20
-8139.590500275719
 30
0.0
 11
-14153.276797019513
 21
-8138.9918982686
 31
0.0
  0
LINE
  5
1B0
100
AcDbEntity
  8
Frei
  6
CONTINUOUS
 62
           3
100
AcDbLine
 10
-14153.454180053077
 20
-8141.585840299449
 30
0.0
 11
-14153.372310960662
 21
-8140.38863628521
 31
0.0
  0
LINE
  5
1B1
100
AcDbEntity
  8
Frei
  6
CONTINUOUS
 62
           3
100
AcDbLine
 10
-14153.590628540434
 20
-8143.581180323177
 30
0.0
 11
-14153.508759448019
 21
-8142.38397630894
 31
0.0
  0
LINE
  5
1B2
100
AcDbEntity
  8
Frei
  6
CONTINUOUS
 62
           3
100
AcDbLine
 10
-14153.727077027792
 20
-8145.576520346907
 30
0.0
 11
-14153.645207935377
 21
-8144.37931633267
 31
0.0
  0
LINE
  5
1B3
100
AcDbEntity
  8
Frei
  6
CONTINUOUS
 62
           3
100
AcDbLine
 10
-14153.863525515149
 20
-8147.571860370637
 30
0.0
 11
-14153.781656422734
 21
-8146.3746563564
 31
0.0
  0
LINE
  5
1B4
100
AcDbEntity
  8
Frei
  6
CONTINUOUS
 62
           3
100
AcDbLine
 10
-14152.77193761629
 20
-8131.609140180799
 30
0.0
 11
-14152.690068523876
 21
-8130.411936166562
 31
0.0
  0
LINE
  5
1B5
100
AcDbEntity
  8
Frei
  6
CONTINUOUS
 62
           3
100
AcDbLine
 10
-14152.908386103647
 20
-8133.604480204529
 30
0.0
 11
-14152.826517011234
 21
-8132.407276190292
 31
0.0
  0
LINE
  5
1B6
100
AcDbEntity
  8
Frei
  6
CONTINUOUS
 62
           3
100
AcDbLine
 10
-14153.044834591004
 20
-8135.599820228259
 30
0.0
 11
-14152.962965498589
 21
-8134.402616214022
 31
0.0
  0
LINE
  5
1B7
100
AcDbEntity
  8
Frei
  6
CONTINUOUS
 62
           3
100
AcDbLine
 10
-14153.181283078362
 20
-8137.595160251989
 30
0.0
 11
-14153.099413985947
 21
-8136.397956237752
 31
0.0
  0
LINE
  5
1B8
100
AcDbEntity
  8
Frei
  6
CONTINUOUS
 62
           3
100
AcDbLine
 10
-14153.276797019513
 20
-8138.9918982686
 30
0.0
 11
-14153.235862473304
 21
-8138.39329626148
 31
0.0
  0
LINE
  5
1B9
100
AcDbEntity
  8
Frei
  6
CONTINUOUS
 62
           3
100
AcDbLine
 10
-14171.193922686873
 20
-8137.165259875264
 30
0.0
 11
-14171.234857233081
 21
-8137.763861882382
 31
0.0
  0
LINE
  5
1BA
100
AcDbEntity
  8
Frei
  6
CONTINUOUS
 62
           3
100
AcDbLine
 10
-14170.729997829858
 20
-8130.381103794583
 30
0.0
 11
-14170.648128737444
 21
-8129.183899780346
 31
0.0
  0
LINE
  5
1BB
100
AcDbEntity
  8
Frei
  6
CONTINUOUS
 62
           3
100
AcDbLine
 10
-14170.866446317215
 20
-8132.376443818313
 30
0.0
 11
-14170.784577224802
 21
-8131.179239804074
 31
0.0
  0
LINE
  5
1BC
100
AcDbEntity
  8
Frei
  6
CONTINUOUS
 62
           3
100
AcDbLine
 10
-14171.002894804573
 20
-8134.371783842042
 30
0.0
 11
-14170.921025712158
 21
-8133.174579827804
 31
0.0
  0
LINE
  5
1BD
100
AcDbEntity
  8
Frei
  6
CONTINUOUS
 62
           3
100
AcDbLine
 10
-14171.057474199515
 20
-8135.169919851534
 30
0.0
 11
-14171.13934329193
 21
-8136.367123865772
 31
0.0
  0
LINE
  5
1BE
100
AcDbEntity
  8
Frei
  6
CONTINUOUS
 62
           3
100
AcDbLine
 10
-14159.178136844304
 20
-8135.982271427532
 30
0.0
 11
-14153.099413985947
 21
-8136.397956237752
 31
0.0
  0
LINE
  5
1BF
100
AcDbEntity
  8
Frei
  6
CONTINUOUS
 62
           3
100
AcDbLine
 10
-14159.817673397632
 20
-8136.539938888442
 30
0.0
 11
-14159.178136844304
 21
-8135.982271427532
 31
0.0
  0
LINE
  5
1C0
100
AcDbEntity
  8
Frei
  6
CONTINUOUS
 62
           3
100
AcDbLine
 10
-14159.817673397632
 20
-8136.539938888442
 30
0.0
 11
-14153.738950539273
 21
-8136.955623698661
 31
0.0
  0
LINE
  5
1C1
100
AcDbEntity
  8
Frei
  6
CONTINUOUS
 62
           3
100
AcDbLine
 10
-14159.26000593672
 20
-8137.17947544177
 30
0.0
 11
-14159.817673397632
 21
-8136.539938888442
 31
0.0
  0
LINE
  5
1C2
100
AcDbEntity
  8
Frei
  6
CONTINUOUS
 62
           3
100
AcDbLine
 10
-14158.570107908032
 20
-8138.028521480188
 30
0.0
 11
-14153.235862473304
 21
-8138.39329626148
 31
0.0
  0
LINE
  5
1C3
100
AcDbEntity
  8
Frei
  6
CONTINUOUS
 62
           3
100
AcDbLine
 10
-14159.20964446136
 20
-8138.586188941099
 30
0.0
 11
-14158.570107908032
 21
-8138.028521480188
 31
0.0
  0
LINE
  5
1C4
100
AcDbEntity
  8
Frei
  6
CONTINUOUS
 62
           3
100
AcDbLine
 10
-14165.859677252143
 20
-8137.530034656556
 30
0.0
 11
-14165.302009791232
 21
-8138.169571209883
 31
0.0
  0
LINE
  5
1C5
100
AcDbEntity
  8
Frei
  6
CONTINUOUS
 62
           3
100
AcDbLine
 10
-14164.421083880246
 20
-8136.22514121508
 30
0.0
 11
-14164.978751341156
 21
-8135.585604661754
 31
0.0
  0
LINE
  5
1C6
100
AcDbEntity
  8
Frei
  6
CONTINUOUS
 62
           3
100
AcDbLine
 10
-14165.060620433571
 20
-8136.782808675991
 30
0.0
 11
-14171.13934329193
 21
-8136.367123865772
 31
0.0
  0
LINE
  5
1C7
100
AcDbEntity
  8
Frei
  6
CONTINUOUS
 62
           3
100
AcDbLine
 10
-14165.060620433571
 20
-8136.782808675991
 30
0.0
 11
-14164.421083880246
 21
-8136.22514121508
 31
0.0
  0
LINE
  5
1C8
100
AcDbEntity
  8
Frei
  6
CONTINUOUS
 62
           3
100
AcDbLine
 10
-14170.363358251247
 20
-8133.814116381131
 30
0.0
 11
-14153.602502051916
 21
-8134.960283674933
 31
0.0
  0
LINE
  5
1C9
100
AcDbEntity
  8
Frei
  6
CONTINUOUS
 62
           3
100
AcDbLine
 10
-14170.499806738604
 20
-8135.809456404859
 30
0.0
 11
-14164.421083880246
 21
-8136.22514121508
 31
0.0
  0
LINE
  5
1CA
100
AcDbEntity
  8
Frei
  6
CONTINUOUS
 62
           3
100
AcDbLine
 10
-14153.235862473304
 20
-8138.39329626148
 30
0.0
 11
-14153.87539902663
 21
-8138.950963722391
 31
0.0
  0
LINE
  5
1CB
100
AcDbEntity
  8
Frei
  6
CONTINUOUS
 62
           3
100
AcDbLine
 10
-14171.193922686873
 20
-8137.165259875264
 30
0.0
 11
-14165.859677252143
 21
-8137.530034656556
 31
0.0
  0
LINE
  5
1CC
100
AcDbEntity
  8
Frei
  6
CONTINUOUS
 62
           3
100
AcDbLine
 10
-14170.636255225962
 20
-8137.804796428589
 30
0.0
 11
-14171.193922686873
 21
-8137.165259875264
 31
0.0
  0
LINE
  5
1CD
100
AcDbEntity
  8
Frei
  6
CONTINUOUS
 62
           3
100
AcDbLine
 10
-14171.13934329193
 20
-8136.367123865772
 30
0.0
 11
-14170.499806738604
 21
-8135.809456404859
 31
0.0
  0
LINE
  5
1CE
100
AcDbEntity
  8
Frei
  6
CONTINUOUS
 62
           3
100
AcDbLine
 10
-14153.181283078362
 20
-8137.595160251989
 30
0.0
 11
-14159.26000593672
 21
-8137.17947544177
 31
0.0
  0
LINE
  5
1CF
100
AcDbEntity
  8
Frei
  6
CONTINUOUS
 62
           3
100
AcDbLine
 10
-14153.738950539273
 20
-8136.955623698661
 30
0.0
 11
-14153.181283078362
 21
-8137.595160251989
 31
0.0
  0
LINE
  5
1D0
100
AcDbEntity
  8
Frei
  6
CONTINUOUS
 62
           3
100
AcDbLine
 10
-14153.099413985947
 20
-8136.397956237752
 30
0.0
 11
-14153.738950539273
 21
-8136.955623698661
 31
0.0
  0
LINE
  5
1D1
100
AcDbEntity
  8
Frei
  6
CONTINUOUS
 62
           3
100
AcDbLine
 10
-14171.057474199515
 20
-8135.169919851534
 30
0.0
 11
-14164.978751341156
 21
-8135.585604661754
 31
0.0
  0
LINE
  5
1D2
100
AcDbEntity
  8
Frei
  6
CONTINUOUS
 62
           3
100
AcDbLine
 10
-14170.499806738604
 20
-8135.809456404859
 30
0.0
 11
-14171.057474199515
 21
-8135.169919851534
 31
0.0
  0
LINE
  5
1D3
100
AcDbEntity
  8
Frei
  6
CONTINUOUS
 62
           3
100
AcDbLine
 10
-14171.002894804573
 20
-8134.371783842042
 30
0.0
 11
-14170.363358251247
 21
-8133.814116381131
 31
0.0
  0
LINE
  5
1D4
100
AcDbEntity
  8
Frei
  6
CONTINUOUS
 62
           3
100
AcDbLine
 10
-14153.044834591004
 20
-8135.599820228259
 30
0.0
 11
-14171.002894804573
 21
-8134.371783842042
 31
0.0
  0
LINE
  5
1D5
100
AcDbEntity
  8
Frei
  6
CONTINUOUS
 62
           3
100
AcDbLine
 10
-14153.602502051916
 20
-8134.960283674933
 30
0.0
 11
-14153.044834591004
 21
-8135.599820228259
 31
0.0
  0
LINE
  5
1D6
100
AcDbEntity
  8
Frei
  6
CONTINUOUS
 62
           3
100
AcDbLine
 10
-14152.962965498589
 20
-8134.402616214022
 30
0.0
 11
-14153.602502051916
 21
-8134.960283674933
 31
0.0
  0
LINE
  5
1D7
100
AcDbEntity
  8
Frei
  6
CONTINUOUS
 62
           3
100
AcDbLine
 10
-14170.921025712158
 20
-8133.174579827804
 30
0.0
 11
-14152.962965498589
 21
-8134.402616214022
 31
0.0
  0
LINE
  5
1D8
100
AcDbEntity
  8
Frei
  6
CONTINUOUS
 62
           3
100
AcDbLine
 10
-14170.363358251247
 20
-8133.814116381131
 30
0.0
 11
-14170.921025712158
 21
-8133.174579827804
 31
0.0
  0
LINE
  5
1D9
100
AcDbEntity
  8
Frei
  6
CONTINUOUS
 62
           3
100
AcDbLine
 10
-14153.466053564558
 20
-8132.964943651203
 30
0.0
 11
-14170.226909763889
 21
-8131.818776357401
 31
0.0
  0
LINE
  5
1DA
100
AcDbEntity
  8
Frei
  6
CONTINUOUS
 62
           3
100
AcDbLine
 10
-14170.866446317215
 20
-8132.376443818313
 30
0.0
 11
-14170.226909763889
 21
-8131.818776357401
 31
0.0
  0
LINE
  5
1DB
100
AcDbEntity
  8
Frei
  6
CONTINUOUS
 62
           3
100
AcDbLine
 10
-14152.908386103647
 20
-8133.604480204529
 30
0.0
 11
-14170.866446317215
 21
-8132.376443818313
 31
0.0
  0
LINE
  5
1DC
100
AcDbEntity
  8
Frei
  6
CONTINUOUS
 62
           3
100
AcDbLine
 10
-14153.466053564558
 20
-8132.964943651203
 30
0.0
 11
-14152.908386103647
 21
-8133.604480204529
 31
0.0
  0
LINE
  5
1DD
100
AcDbEntity
  8
Frei
  6
CONTINUOUS
 62
           3
100
AcDbLine
 10
-14152.826517011234
 20
-8132.407276190292
 30
0.0
 11
-14153.466053564558
 21
-8132.964943651203
 31
0.0
  0
LINE
  5
1DE
100
AcDbEntity
  8
Frei
  6
CONTINUOUS
 62
           3
100
AcDbLine
 10
-14170.784577224802
 20
-8131.179239804074
 30
0.0
 11
-14152.826517011234
 21
-8132.407276190292
 31
0.0
  0
LINE
  5
1DF
100
AcDbEntity
  8
Frei
  6
CONTINUOUS
 62
           3
100
AcDbLine
 10
-14170.226909763889
 20
-8131.818776357401
 30
0.0
 11
-14170.784577224802
 21
-8131.179239804074
 31
0.0
  0
LINE
  5
1E0
100
AcDbEntity
  8
Frei
  6
CONTINUOUS
 62
           3
100
AcDbLine
 10
-14170.090461276532
 20
-8129.823436333671
 30
0.0
 11
-14153.329605077201
 21
-8130.969603627473
 31
0.0
  0
LINE
  5
1E1
100
AcDbEntity
  8
Frei
  6
CONTINUOUS
 62
           3
100
AcDbLine
 10
-14170.090461276532
 20
-8129.823436333671
 30
0.0
 11
-14170.729997829858
 21
-8130.381103794583
 31
0.0
  0
LINE
  5
1E2
100
AcDbEntity
  8
Frei
  6
CONTINUOUS
 62
           3
100
AcDbLine
 10
-14170.648128737444
 20
-8129.183899780346
 30
0.0
 11
-14170.090461276532
 21
-8129.823436333671
 31
0.0
  0
LINE
  5
1E3
100
AcDbEntity
  8
Frei
  6
CONTINUOUS
 62
           3
100
AcDbLine
 10
-14152.690068523876
 20
-8130.411936166562
 30
0.0
 11
-14170.648128737444
 21
-8129.183899780346
 31
0.0
  0
LINE
  5
1E4
100
AcDbEntity
  8
Frei
  6
CONTINUOUS
 62
           3
100
AcDbLine
 10
-14153.329605077201
 20
-8130.969603627473
 30
0.0
 11
-14152.690068523876
 21
-8130.411936166562
 31
0.0
  0
LINE
  5
1E5
100
AcDbEntity
  8
Frei
  6
CONTINUOUS
 62
           3
100
AcDbLine
 10
-14152.77193761629
 20
-8131.609140180799
 30
0.0
 11
-14153.329605077201
 21
-8130.969603627473
 31
0.0
  0
LINE
  5
1E6
100
AcDbEntity
  8
Frei
  6
CONTINUOUS
 62
           3
100
AcDbLine
 10
-14170.729997829858
 20
-8130.381103794583
 30
0.0
 11
-14152.77193761629
 21
-8131.609140180799
 31
0.0
  0
LINE
  5
1E7
100
AcDbEntity
  8
Frei
  6
CONTINUOUS
 62
           3
100
AcDbLine
 10
-13980.175025563663
 20
-8143.411934337217
 30
0.0
 11
-13962.216965350095
 21
-8144.639970723434
 31
0.0
  0
LINE
  5
1E8
100
AcDbEntity
  8
Frei
  6
CONTINUOUS
 62
           3
100
AcDbLine
 10
-13979.535489010339
 20
-8142.854266876304
 30
0.0
 11
-13980.175025563663
 21
-8143.411934337217
 31
0.0
  0
LINE
  5
1E9
100
AcDbEntity
  8
Frei
  6
CONTINUOUS
 62
           3
100
AcDbLine
 10
-13980.09315647125
 20
-8142.214730322979
 30
0.0
 11
-13979.535489010339
 21
-8142.854266876304
 31
0.0
  0
LINE
  5
1EA
100
AcDbEntity
  8
Frei
  6
CONTINUOUS
 62
           3
100
AcDbLine
 10
-13962.135096257682
 20
-8143.442766709197
 30
0.0
 11
-13980.09315647125
 21
-8142.214730322979
 31
0.0
  0
LINE
  5
1EB
100
AcDbEntity
  8
Frei
  6
CONTINUOUS
 62
           3
100
AcDbLine
 10
-13962.774632811008
 20
-8144.000434170106
 30
0.0
 11
-13962.135096257682
 21
-8143.442766709197
 31
0.0
  0
LINE
  5
1EC
100
AcDbEntity
  8
Frei
  6
CONTINUOUS
 62
           3
100
AcDbLine
 10
-13962.216965350095
 20
-8144.639970723434
 30
0.0
 11
-13962.774632811008
 21
-8144.000434170106
 31
0.0
  0
LINE
  5
1ED
100
AcDbEntity
  8
Frei
  6
CONTINUOUS
 62
           3
100
AcDbLine
 10
-13979.535489010339
 20
-8142.854266876304
 30
0.0
 11
-13962.774632811008
 21
-8144.000434170106
 31
0.0
  0
LINE
  5
1EE
100
AcDbEntity
  8
Frei
  6
CONTINUOUS
 62
           3
100
AcDbLine
 10
-13962.271544745037
 20
-8145.438106732925
 30
0.0
 11
-13962.911081298365
 21
-8145.995774193836
 31
0.0
  0
LINE
  5
1EF
100
AcDbEntity
  8
Frei
  6
CONTINUOUS
 62
           3
100
AcDbLine
 10
-13980.229604958606
 20
-8144.210070346708
 30
0.0
 11
-13962.271544745037
 21
-8145.438106732925
 31
0.0
  0
LINE
  5
1F0
100
AcDbEntity
  8
Frei
  6
CONTINUOUS
 62
           3
100
AcDbLine
 10
-13979.671937497696
 20
-8144.849606900034
 30
0.0
 11
-13980.229604958606
 21
-8144.210070346708
 31
0.0
  0
LINE
  5
1F1
100
AcDbEntity
  8
Frei
  6
CONTINUOUS
 62
           3
100
AcDbLine
 10
-13980.311474051021
 20
-8145.407274360947
 30
0.0
 11
-13979.671937497696
 21
-8144.849606900034
 31
0.0
  0
LINE
  5
1F2
100
AcDbEntity
  8
Frei
  6
CONTINUOUS
 62
           3
100
AcDbLine
 10
-13962.353413837453
 20
-8146.635310747164
 30
0.0
 11
-13980.311474051021
 21
-8145.407274360947
 31
0.0
  0
LINE
  5
1F3
100
AcDbEntity
  8
Frei
  6
CONTINUOUS
 62
           3
100
AcDbLine
 10
-13962.911081298365
 20
-8145.995774193836
 30
0.0
 11
-13962.353413837453
 21
-8146.635310747164
 31
0.0
  0
LINE
  5
1F4
100
AcDbEntity
  8
Frei
  6
CONTINUOUS
 62
           3
100
AcDbLine
 10
-13962.911081298365
 20
-8145.995774193836
 30
0.0
 11
-13979.671937497696
 21
-8144.849606900034
 31
0.0
  0
LINE
  5
1F5
100
AcDbEntity
  8
Frei
  6
CONTINUOUS
 62
           3
100
AcDbLine
 10
-13962.407993232395
 20
-8147.433446756655
 30
0.0
 11
-13963.047529785723
 21
-8147.991114217566
 31
0.0
  0
LINE
  5
1F6
100
AcDbEntity
  8
Frei
  6
CONTINUOUS
 62
           3
100
AcDbLine
 10
-13980.366053445963
 20
-8146.205410370438
 30
0.0
 11
-13962.407993232395
 21
-8147.433446756655
 31
0.0
  0
LINE
  5
1F7
100
AcDbEntity
  8
Frei
  6
CONTINUOUS
 62
           3
100
AcDbLine
 10
-13979.808385985054
 20
-8146.844946923764
 30
0.0
 11
-13980.366053445963
 21
-8146.205410370438
 31
0.0
  0
LINE
  5
1F8
100
AcDbEntity
  8
Frei
  6
CONTINUOUS
 62
           3
100
AcDbLine
 10
-13980.447922538378
 20
-8147.402614384675
 30
0.0
 11
-13979.808385985054
 21
-8146.844946923764
 31
0.0
  0
LINE
  5
1F9
100
AcDbEntity
  8
Frei
  6
CONTINUOUS
 62
           3
100
AcDbLine
 10
-13962.48986232481
 20
-8148.630650770892
 30
0.0
 11
-13980.447922538378
 21
-8147.402614384675
 31
0.0
  0
LINE
  5
1FA
100
AcDbEntity
  8
Frei
  6
CONTINUOUS
 62
           3
100
AcDbLine
 10
-13963.047529785723
 20
-8147.991114217566
 30
0.0
 11
-13962.48986232481
 21
-8148.630650770892
 31
0.0
  0
LINE
  5
1FB
100
AcDbEntity
  8
Frei
  6
CONTINUOUS
 62
           3
100
AcDbLine
 10
-13962.544441719752
 20
-8149.428786780385
 30
0.0
 11
-13963.18397827308
 21
-8149.986454241296
 31
0.0
  0
LINE
  5
1FC
100
AcDbEntity
  8
Frei
  6
CONTINUOUS
 62
           3
100
AcDbLine
 10
-13968.623164578112
 20
-8149.013101970166
 30
0.0
 11
-13962.544441719752
 21
-8149.428786780385
 31
0.0
  0
LINE
  5
1FD
100
AcDbEntity
  8
Frei
  6
CONTINUOUS
 62
           3
100
AcDbLine
 10
-13979.944834472411
 20
-8148.840286947494
 30
0.0
 11
-13980.502501933321
 21
-8148.200750394168
 31
0.0
  0
LINE
  5
1FE
100
AcDbEntity
  8
Frei
  6
CONTINUOUS
 62
           3
100
AcDbLine
 10
-13980.584371025736
 20
-8149.397954408405
 30
0.0
 11
-13979.944834472411
 21
-8148.840286947494
 31
0.0
  0
LINE
  5
1FF
100
AcDbEntity
  8
Frei
  6
CONTINUOUS
 62
           3
100
AcDbLine
 10
-13974.505648167378
 20
-8149.813639218626
 30
0.0
 11
-13980.584371025736
 21
-8149.397954408405
 31
0.0
  0
LINE
  5
200
100
AcDbEntity
  8
Frei
  6
CONTINUOUS
 62
           3
100
AcDbLine
 10
-13963.18397827308
 20
-8149.986454241296
 30
0.0
 11
-13962.626310812168
 21
-8150.625990794622
 31
0.0
  0
LINE
  5
201
100
AcDbEntity
  8
Frei
  6
CONTINUOUS
 62
           3
100
AcDbLine
 10
-13962.68089020711
 20
-8151.424126804115
 30
0.0
 11
-13963.320426760438
 21
-8151.981794265026
 31
0.0
  0
LINE
  5
202
100
AcDbEntity
  8
Frei
  6
CONTINUOUS
 62
           3
100
AcDbLine
 10
-13968.015135641841
 20
-8151.059352022821
 30
0.0
 11
-13962.68089020711
 21
-8151.424126804115
 31
0.0
  0
LINE
  5
203
100
AcDbEntity
  8
Frei
  6
CONTINUOUS
 62
           3
100
AcDbLine
 10
-13980.081282959769
 20
-8150.835626971224
 30
0.0
 11
-13980.638950420678
 21
-8150.196090417898
 31
0.0
  0
LINE
  5
204
100
AcDbEntity
  8
Frei
  6
CONTINUOUS
 62
           3
100
AcDbLine
 10
-13969.262701131438
 20
-8149.570769431077
 30
0.0
 11
-13963.18397827308
 21
-8149.986454241296
 31
0.0
  0
LINE
  5
205
100
AcDbEntity
  8
Frei
  6
CONTINUOUS
 62
           3
100
AcDbLine
 10
-13979.808385985054
 20
-8146.844946923764
 30
0.0
 11
-13963.047529785723
 21
-8147.991114217566
 31
0.0
  0
LINE
  5
206
100
AcDbEntity
  8
Frei
  6
CONTINUOUS
 62
           3
100
AcDbLine
 10
-13969.262701131438
 20
-8149.570769431077
 30
0.0
 11
-13968.705033670527
 21
-8150.210305984403
 31
0.0
  0
LINE
  5
207
100
AcDbEntity
  8
Frei
  6
CONTINUOUS
 62
           3
100
AcDbLine
 10
-13962.626310812168
 20
-8150.625990794622
 30
0.0
 11
-13968.705033670527
 21
-8150.210305984403
 31
0.0
  0
LINE
  5
208
100
AcDbEntity
  8
Frei
  6
CONTINUOUS
 62
           3
100
AcDbLine
 10
-13968.623164578112
 20
-8149.013101970166
 30
0.0
 11
-13969.262701131438
 21
-8149.570769431077
 31
0.0
  0
LINE
  5
209
100
AcDbEntity
  8
Frei
  6
CONTINUOUS
 62
           3
100
AcDbLine
 10
-13968.654672195167
 20
-8151.617019483732
 30
0.0
 11
-13968.015135641841
 21
-8151.059352022821
 31
0.0
  0
LINE
  5
20A
100
AcDbEntity
  8
Frei
  6
CONTINUOUS
 62
           3
100
AcDbLine
 10
-13975.304704985951
 20
-8150.560865199192
 30
0.0
 11
-13974.74703752504
 21
-8151.200401752516
 31
0.0
  0
LINE
  5
20B
100
AcDbEntity
  8
Frei
  6
CONTINUOUS
 62
           3
100
AcDbLine
 10
-13980.638950420678
 20
-8150.196090417898
 30
0.0
 11
-13975.304704985951
 21
-8150.560865199192
 31
0.0
  0
LINE
  5
20C
100
AcDbEntity
  8
Frei
  6
CONTINUOUS
 62
           3
100
AcDbLine
 10
-13973.866111614052
 20
-8149.255971757713
 30
0.0
 11
-13974.505648167378
 21
-8149.813639218626
 31
0.0
  0
LINE
  5
20D
100
AcDbEntity
  8
Frei
  6
CONTINUOUS
 62
           3
100
AcDbLine
 10
-13979.944834472411
 20
-8148.840286947494
 30
0.0
 11
-13973.866111614052
 21
-8149.255971757713
 31
0.0
  0
LINE
  5
20E
100
AcDbEntity
  8
Frei
  6
CONTINUOUS
 62
           3
100
AcDbLine
 10
-13974.423779074963
 20
-8148.616435204389
 30
0.0
 11
-13973.866111614052
 21
-8149.255971757713
 31
0.0
  0
LINE
  5
20F
100
AcDbEntity
  8
Frei
  6
CONTINUOUS
 62
           3
100
AcDbLine
 10
-13980.502501933321
 20
-8148.200750394168
 30
0.0
 11
-13974.423779074963
 21
-8148.616435204389
 31
0.0
  0
LINE
  5
210
100
AcDbEntity
  8
Frei
  6
CONTINUOUS
 62
           3
100
AcDbLine
 10
-13962.626310812168
 20
-8150.625990794622
 30
0.0
 11
-13962.544441719752
 21
-8149.428786780385
 31
0.0
  0
LINE
  5
211
100
AcDbEntity
  8
Frei
  6
CONTINUOUS
 62
           3
100
AcDbLine
 10
-13962.407993232395
 20
-8147.433446756655
 30
0.0
 11
-13962.48986232481
 21
-8148.630650770892
 31
0.0
  0
LINE
  5
212
100
AcDbEntity
  8
Frei
  6
CONTINUOUS
 62
           3
100
AcDbLine
 10
-13962.271544745037
 20
-8145.438106732925
 30
0.0
 11
-13962.353413837453
 21
-8146.635310747164
 31
0.0
  0
LINE
  5
213
100
AcDbEntity
  8
Frei
  6
CONTINUOUS
 62
           3
100
AcDbLine
 10
-13962.135096257682
 20
-8143.442766709197
 30
0.0
 11
-13962.216965350095
 21
-8144.639970723434
 31
0.0
  0
LINE
  5
214
100
AcDbEntity
  8
Frei
  6
CONTINUOUS
 62
           3
100
AcDbLine
 10
-13962.721824753318
 20
-8152.022728811233
 30
0.0
 11
-13962.68089020711
 21
-8151.424126804115
 31
0.0
  0
LINE
  5
215
100
AcDbEntity
  8
Frei
  6
CONTINUOUS
 62
           3
100
AcDbLine
 10
-13980.638950420678
 20
-8150.196090417898
 30
0.0
 11
-13980.679884966887
 21
-8150.794692425016
 31
0.0
  0
LINE
  5
216
100
AcDbEntity
  8
Frei
  6
CONTINUOUS
 62
           3
100
AcDbLine
 10
-13980.502501933321
 20
-8148.200750394168
 30
0.0
 11
-13980.584371025736
 21
-8149.397954408405
 31
0.0
  0
LINE
  5
217
100
AcDbEntity
  8
Frei
  6
CONTINUOUS
 62
           3
100
AcDbLine
 10
-13980.366053445963
 20
-8146.205410370438
 30
0.0
 11
-13980.447922538378
 21
-8147.402614384675
 31
0.0
  0
LINE
  5
218
100
AcDbEntity
  8
Frei
  6
CONTINUOUS
 62
           3
100
AcDbLine
 10
-13980.229604958606
 20
-8144.210070346708
 30
0.0
 11
-13980.311474051021
 21
-8145.407274360947
 31
0.0
  0
LINE
  5
219
100
AcDbEntity
  8
Frei
  6
CONTINUOUS
 62
           3
100
AcDbLine
 10
-13980.09315647125
 20
-8142.214730322979
 30
0.0
 11
-13980.175025563663
 21
-8143.411934337217
 31
0.0
  0
LINE
  5
21A
100
AcDbEntity
  8
Frei
  6
CONTINUOUS
 62
           3
100
AcDbLine
 10
-13981.184744370108
 20
-8158.177450512816
 30
0.0
 11
-13981.266613462523
 21
-8159.374654527055
 31
0.0
  0
LINE
  5
21B
100
AcDbEntity
  8
Frei
  6
CONTINUOUS
 62
           3
100
AcDbLine
 10
-13981.048295882751
 20
-8156.182110489088
 30
0.0
 11
-13981.130164975166
 21
-8157.379314503325
 31
0.0
  0
LINE
  5
21C
100
AcDbEntity
  8
Frei
  6
CONTINUOUS
 62
           3
100
AcDbLine
 10
-13980.911847395393
 20
-8154.186770465358
 30
0.0
 11
-13980.993716487808
 21
-8155.383974479595
 31
0.0
  0
LINE
  5
21D
100
AcDbEntity
  8
Frei
  6
CONTINUOUS
 62
           3
100
AcDbLine
 10
-13980.775398908036
 20
-8152.191430441628
 30
0.0
 11
-13980.857268000451
 21
-8153.388634455865
 31
0.0
  0
LINE
  5
21E
100
AcDbEntity
  8
Frei
  6
CONTINUOUS
 62
           3
100
AcDbLine
 10
-13980.679884966887
 20
-8150.794692425016
 30
0.0
 11
-13980.720819513093
 21
-8151.393294432135
 31
0.0
  0
LINE
  5
21F
100
AcDbEntity
  8
Frei
  6
CONTINUOUS
 62
           3
100
AcDbLine
 10
-13962.762759299525
 20
-8152.621330818352
 30
0.0
 11
-13962.721824753318
 21
-8152.022728811233
 31
0.0
  0
LINE
  5
220
100
AcDbEntity
  8
Frei
  6
CONTINUOUS
 62
           3
100
AcDbLine
 10
-13963.22668415654
 20
-8159.405486899033
 30
0.0
 11
-13963.308553248955
 21
-8160.602690913273
 31
0.0
  0
LINE
  5
221
100
AcDbEntity
  8
Frei
  6
CONTINUOUS
 62
           3
100
AcDbLine
 10
-13963.090235669182
 20
-8157.410146875305
 30
0.0
 11
-13963.172104761597
 21
-8158.607350889542
 31
0.0
  0
LINE
  5
222
100
AcDbEntity
  8
Frei
  6
CONTINUOUS
 62
           3
100
AcDbLine
 10
-13962.953787181825
 20
-8155.414806851575
 30
0.0
 11
-13963.03565627424
 21
-8156.612010865812
 31
0.0
  0
LINE
  5
223
100
AcDbEntity
  8
Frei
  6
CONTINUOUS
 62
           3
100
AcDbLine
 10
-13962.899207786882
 20
-8154.616670842082
 30
0.0
 11
-13962.817338694467
 21
-8153.419466827845
 31
0.0
  0
LINE
  5
224
100
AcDbEntity
  8
Frei
  6
CONTINUOUS
 62
           3
100
AcDbLine
 10
-13974.778545142093
 20
-8153.804319266086
 30
0.0
 11
-13980.857268000451
 21
-8153.388634455865
 31
0.0
  0
LINE
  5
225
100
AcDbEntity
  8
Frei
  6
CONTINUOUS
 62
           3
100
AcDbLine
 10
-13974.139008588767
 20
-8153.246651805173
 30
0.0
 11
-13974.778545142093
 21
-8153.804319266086
 31
0.0
  0
LINE
  5
226
100
AcDbEntity
  8
Frei
  6
CONTINUOUS
 62
           3
100
AcDbLine
 10
-13974.139008588767
 20
-8153.246651805173
 30
0.0
 11
-13980.217731447126
 21
-8152.830966994954
 31
0.0
  0
LINE
  5
227
100
AcDbEntity
  8
Frei
  6
CONTINUOUS
 62
           3
100
AcDbLine
 10
-13974.696676049678
 20
-8152.607115251847
 30
0.0
 11
-13974.139008588767
 21
-8153.246651805173
 31
0.0
  0
LINE
  5
228
100
AcDbEntity
  8
Frei
  6
CONTINUOUS
 62
           3
100
AcDbLine
 10
-13975.386574078366
 20
-8151.758069213429
 30
0.0
 11
-13980.720819513093
 21
-8151.393294432135
 31
0.0
  0
LINE
  5
229
100
AcDbEntity
  8
Frei
  6
CONTINUOUS
 62
           3
100
AcDbLine
 10
-13974.74703752504
 20
-8151.200401752516
 30
0.0
 11
-13975.386574078366
 21
-8151.758069213429
 31
0.0
  0
LINE
  5
22A
100
AcDbEntity
  8
Frei
  6
CONTINUOUS
 62
           3
100
AcDbLine
 10
-13968.654672195167
 20
-8151.617019483732
 30
0.0
 11
-13963.320426760438
 21
-8151.981794265026
 31
0.0
  0
LINE
  5
22B
100
AcDbEntity
  8
Frei
  6
CONTINUOUS
 62
           3
100
AcDbLine
 10
-13968.097004734256
 20
-8152.256556037059
 30
0.0
 11
-13968.654672195167
 21
-8151.617019483732
 31
0.0
  0
LINE
  5
22C
100
AcDbEntity
  8
Frei
  6
CONTINUOUS
 62
           3
100
AcDbLine
 10
-13969.535598106153
 20
-8153.561449478537
 30
0.0
 11
-13968.977930645242
 21
-8154.200986031863
 31
0.0
  0
LINE
  5
22D
100
AcDbEntity
  8
Frei
  6
CONTINUOUS
 62
           3
100
AcDbLine
 10
-13968.896061552827
 20
-8153.003782017624
 30
0.0
 11
-13962.817338694467
 21
-8153.419466827845
 31
0.0
  0
LINE
  5
22E
100
AcDbEntity
  8
Frei
  6
CONTINUOUS
 62
           3
100
AcDbLine
 10
-13968.896061552827
 20
-8153.003782017624
 30
0.0
 11
-13969.535598106153
 21
-8153.561449478537
 31
0.0
  0
LINE
  5
22F
100
AcDbEntity
  8
Frei
  6
CONTINUOUS
 62
           3
100
AcDbLine
 10
-13963.593323735153
 20
-8155.972474312486
 30
0.0
 11
-13980.354179934484
 21
-8154.826307018684
 31
0.0
  0
LINE
  5
230
100
AcDbEntity
  8
Frei
  6
CONTINUOUS
 62
           3
100
AcDbLine
 10
-13963.456875247795
 20
-8153.977134288756
 30
0.0
 11
-13969.535598106153
 21
-8153.561449478537
 31
0.0
  0
LINE
  5
231
100
AcDbEntity
  8
Frei
  6
CONTINUOUS
 62
           3
100
AcDbLine
 10
-13980.081282959769
 20
-8150.835626971224
 30
0.0
 11
-13974.74703752504
 21
-8151.200401752516
 31
0.0
  0
LINE
  5
232
100
AcDbEntity
  8
Frei
  6
CONTINUOUS
 62
           3
100
AcDbLine
 10
-13980.720819513093
 20
-8151.393294432135
 30
0.0
 11
-13980.081282959769
 21
-8150.835626971224
 31
0.0
  0
LINE
  5
233
100
AcDbEntity
  8
Frei
  6
CONTINUOUS
 62
           3
100
AcDbLine
 10
-13962.762759299525
 20
-8152.621330818352
 30
0.0
 11
-13968.097004734256
 21
-8152.256556037059
 31
0.0
  0
LINE
  5
234
100
AcDbEntity
  8
Frei
  6
CONTINUOUS
 62
           3
100
AcDbLine
 10
-13963.320426760438
 20
-8151.981794265026
 30
0.0
 11
-13962.762759299525
 21
-8152.621330818352
 31
0.0
  0
LINE
  5
235
100
AcDbEntity
  8
Frei
  6
CONTINUOUS
 62
           3
100
AcDbLine
 10
-13962.817338694467
 20
-8153.419466827845
 30
0.0
 11
-13963.456875247795
 21
-8153.977134288756
 31
0.0
  0
LINE
  5
236
100
AcDbEntity
  8
Frei
  6
CONTINUOUS
 62
           3
100
AcDbLine
 10
-13980.775398908036
 20
-8152.191430441628
 30
0.0
 11
-13974.696676049678
 21
-8152.607115251847
 31
0.0
  0
LINE
  5
237
100
AcDbEntity
  8
Frei
  6
CONTINUOUS
 62
           3
100
AcDbLine
 10
-13980.217731447126
 20
-8152.830966994954
 30
0.0
 11
-13980.775398908036
 21
-8152.191430441628
 31
0.0
  0
LINE
  5
238
100
AcDbEntity
  8
Frei
  6
CONTINUOUS
 62
           3
100
AcDbLine
 10
-13980.857268000451
 20
-8153.388634455865
 30
0.0
 11
-13980.217731447126
 21
-8152.830966994954
 31
0.0
  0
LINE
  5
239
100
AcDbEntity
  8
Frei
  6
CONTINUOUS
 62
           3
100
AcDbLine
 10
-13962.899207786882
 20
-8154.616670842082
 30
0.0
 11
-13968.977930645242
 21
-8154.200986031863
 31
0.0
  0
LINE
  5
23A
100
AcDbEntity
  8
Frei
  6
CONTINUOUS
 62
           3
100
AcDbLine
 10
-13963.456875247795
 20
-8153.977134288756
 30
0.0
 11
-13962.899207786882
 21
-8154.616670842082
 31
0.0
  0
LINE
  5
23B
100
AcDbEntity
  8
Frei
  6
CONTINUOUS
 62
           3
100
AcDbLine
 10
-13962.953787181825
 20
-8155.414806851575
 30
0.0
 11
-13963.593323735153
 21
-8155.972474312486
 31
0.0
  0
LINE
  5
23C
100
AcDbEntity
  8
Frei
  6
CONTINUOUS
 62
           3
100
AcDbLine
 10
-13980.911847395393
 20
-8154.186770465358
 30
0.0
 11
-13962.953787181825
 21
-8155.414806851575
 31
0.0
  0
LINE
  5
23D
100
AcDbEntity
  8
Frei
  6
CONTINUOUS
 62
           3
100
AcDbLine
 10
-13980.354179934484
 20
-8154.826307018684
 30
0.0
 11
-13980.911847395393
 21
-8154.186770465358
 31
0.0
  0
LINE
  5
23E
100
AcDbEntity
  8
Frei
  6
CONTINUOUS
 62
           3
100
AcDbLine
 10
-13980.993716487808
 20
-8155.383974479595
 30
0.0
 11
-13980.354179934484
 21
-8154.826307018684
 31
0.0
  0
LINE
  5
23F
100
AcDbEntity
  8
Frei
  6
CONTINUOUS
 62
           3
100
AcDbLine
 10
-13963.03565627424
 20
-8156.612010865812
 30
0.0
 11
-13980.993716487808
 21
-8155.383974479595
 31
0.0
  0
LINE
  5
240
100
AcDbEntity
  8
Frei
  6
CONTINUOUS
 62
           3
100
AcDbLine
 10
-13963.593323735153
 20
-8155.972474312486
 30
0.0
 11
-13963.03565627424
 21
-8156.612010865812
 31
0.0
  0
LINE
  5
241
100
AcDbEntity
  8
Frei
  6
CONTINUOUS
 62
           3
100
AcDbLine
 10
-13980.490628421841
 20
-8156.821647042412
 30
0.0
 11
-13963.72977222251
 21
-8157.967814336214
 31
0.0
  0
LINE
  5
242
100
AcDbEntity
  8
Frei
  6
CONTINUOUS
 62
           3
100
AcDbLine
 10
-13963.090235669182
 20
-8157.410146875305
 30
0.0
 11
-13963.72977222251
 21
-8157.967814336214
 31
0.0
  0
LINE
  5
243
100
AcDbEntity
  8
Frei
  6
CONTINUOUS
 62
           3
100
AcDbLine
 10
-13981.048295882751
 20
-8156.182110489088
 30
0.0
 11
-13963.090235669182
 21
-8157.410146875305
 31
0.0
  0
LINE
  5
244
100
AcDbEntity
  8
Frei
  6
CONTINUOUS
 62
           3
100
AcDbLine
 10
-13980.490628421841
 20
-8156.821647042412
 30
0.0
 11
-13981.048295882751
 21
-8156.182110489088
 31
0.0
  0
LINE
  5
245
100
AcDbEntity
  8
Frei
  6
CONTINUOUS
 62
           3
100
AcDbLine
 10
-13981.130164975166
 20
-8157.379314503325
 30
0.0
 11
-13980.490628421841
 21
-8156.821647042412
 31
0.0
  0
LINE
  5
246
100
AcDbEntity
  8
Frei
  6
CONTINUOUS
 62
           3
100
AcDbLine
 10
-13963.172104761597
 20
-8158.607350889542
 30
0.0
 11
-13981.130164975166
 21
-8157.379314503325
 31
0.0
  0
LINE
  5
247
100
AcDbEntity
  8
Frei
  6
CONTINUOUS
 62
           3
100
AcDbLine
 10
-13963.72977222251
 20
-8157.967814336214
 30
0.0
 11
-13963.172104761597
 21
-8158.607350889542
 31
0.0
  0
LINE
  5
248
100
AcDbEntity
  8
Frei
  6
CONTINUOUS
 62
           3
100
AcDbLine
 10
-13963.866220709868
 20
-8159.963154359944
 30
0.0
 11
-13980.627076909199
 21
-8158.816987066142
 31
0.0
  0
LINE
  5
249
100
AcDbEntity
  8
Frei
  6
CONTINUOUS
 62
           3
100
AcDbLine
 10
-13963.866220709868
 20
-8159.963154359944
 30
0.0
 11
-13963.22668415654
 21
-8159.405486899033
 31
0.0
  0
LINE
  5
24A
100
AcDbEntity
  8
Frei
  6
CONTINUOUS
 62
           3
100
AcDbLine
 10
-13963.308553248955
 20
-8160.602690913273
 30
0.0
 11
-13963.866220709868
 21
-8159.963154359944
 31
0.0
  0
LINE
  5
24B
100
AcDbEntity
  8
Frei
  6
CONTINUOUS
 62
           3
100
AcDbLine
 10
-13981.266613462523
 20
-8159.374654527055
 30
0.0
 11
-13963.308553248955
 21
-8160.602690913273
 31
0.0
  0
LINE
  5
24C
100
AcDbEntity
  8
Frei
  6
CONTINUOUS
 62
           3
100
AcDbLine
 10
-13980.627076909199
 20
-8158.816987066142
 30
0.0
 11
-13981.266613462523
 21
-8159.374654527055
 31
0.0
  0
LINE
  5
24D
100
AcDbEntity
  8
Frei
  6
CONTINUOUS
 62
           3
100
AcDbLine
 10
-13981.184744370108
 20
-8158.177450512816
 30
0.0
 11
-13980.627076909199
 21
-8158.816987066142
 31
0.0
  0
LINE
  5
24E
100
AcDbEntity
  8
Frei
  6
CONTINUOUS
 62
           3
100
AcDbLine
 10
-13963.22668415654
 20
-8159.405486899033
 30
0.0
 11
-13981.184744370108
 21
-8158.177450512816
 31
0.0
  0
LINE
  5
24F
100
AcDbEntity
  8
Frei
  6
CONTINUOUS
 62
           7
100
AcDbLine
 10
-13937.365752176756
 20
-8165.903772506061
 30
0.0
 11
-13936.700863442316
 21
-8167.261699066632
 31
0.0
  0
LINE
  5
250
100
AcDbEntity
  8
Frei
  6
CONTINUOUS
 62
           7
100
AcDbLine
 10
-13937.365752176756
 20
-8165.903772506061
 30
0.0
 11
-13941.599880603506
 21
-8165.614227660453
 31
0.0
  0
LINE
  5
251
100
AcDbEntity
  8
Frei
  6
CONTINUOUS
 62
           7
100
AcDbLine
 10
-13936.432864747914
 20
-8163.342648503274
 30
0.0
 11
-13937.365752176756
 21
-8165.903772506061
 31
0.0
  0
LINE
  5
252
100
AcDbEntity
  8
Frei
  6
CONTINUOUS
 62
           7
100
AcDbLine
 10
-13936.735523609506
 20
-8156.687691707459
 30
0.0
 11
-13936.159967773199
 21
-8159.351968455816
 31
0.0
  0
LINE
  5
253
100
AcDbEntity
  8
Frei
  6
CONTINUOUS
 62
           7
100
AcDbLine
 10
-13936.735523609506
 20
-8156.687691707459
 30
0.0
 11
-13940.969652036256
 21
-8156.398146861851
 31
0.0
  0
LINE
  5
254
100
AcDbEntity
  8
Frei
  6
CONTINUOUS
 62
           7
100
AcDbLine
 10
-13935.891969078799
 20
-8155.432917892458
 30
0.0
 11
-13936.735523609506
 21
-8156.687691707459
 31
0.0
  0
LINE
  5
255
100
AcDbEntity
  8
Frei
  6
CONTINUOUS
 62
           7
100
AcDbLine
 10
-13936.837311929674
 20
-8169.257039090362
 30
0.0
 11
-13937.680866460383
 21
-8170.511812905363
 31
0.0
  0
LINE
  5
256
100
AcDbEntity
  8
Frei
  6
CONTINUOUS
 62
           7
100
AcDbLine
 10
-13936.420409325881
 20
-8152.079651308159
 30
0.0
 11
-13940.654537752631
 21
-8151.790106462549
 31
0.0
  0
LINE
  5
257
100
AcDbEntity
  8
Frei
  6
CONTINUOUS
 62
           7
100
AcDbLine
 10
-13936.420409325881
 20
-8152.079651308159
 30
0.0
 11
-13935.755520591441
 21
-8153.43757786873
 31
0.0
  0
LINE
  5
258
100
AcDbEntity
  8
Frei
  6
CONTINUOUS
 62
           7
100
AcDbLine
 10
-13941.825661988998
 20
-8168.915917871969
 30
0.0
 11
-13941.914994887133
 21
-8170.222268059753
 31
0.0
  0
LINE
  5
259
100
AcDbEntity
  8
Frei
  6
CONTINUOUS
 62
           7
100
AcDbLine
 10
-13936.837311929674
 20
-8169.257039090362
 30
0.0
 11
-13936.700863442316
 21
-8167.261699066632
 31
0.0
  0
LINE
  5
25A
100
AcDbEntity
  8
Frei
  6
CONTINUOUS
 62
           7
100
AcDbLine
 10
-13936.837311929674
 20
-8169.257039090362
 30
0.0
 11
-13941.825661988998
 21
-8168.915917871969
 31
0.0
  0
LINE
  5
25B
100
AcDbEntity
  8
Frei
  6
CONTINUOUS
 62
           7
100
AcDbLine
 10
-13941.689213501641
 20
-8166.920577848239
 30
0.0
 11
-13941.825661988998
 21
-8168.915917871969
 31
0.0
  0
LINE
  5
25C
100
AcDbEntity
  8
Frei
  6
CONTINUOUS
 62
           7
100
AcDbLine
 10
-13936.700863442316
 20
-8167.261699066632
 30
0.0
 11
-13936.432864747914
 21
-8163.342648503274
 31
0.0
  0
LINE
  5
25D
100
AcDbEntity
  8
Frei
  6
CONTINUOUS
 62
           7
100
AcDbLine
 10
-13936.700863442316
 20
-8167.261699066632
 30
0.0
 11
-13941.689213501641
 21
-8166.920577848239
 31
0.0
  0
LINE
  5
25E
100
AcDbEntity
  8
Frei
  6
CONTINUOUS
 62
           7
100
AcDbLine
 10
-13941.599880603506
 20
-8165.614227660453
 30
0.0
 11
-13941.689213501641
 21
-8166.920577848239
 31
0.0
  0
LINE
  5
25F
100
AcDbEntity
  8
Frei
  6
CONTINUOUS
 62
           7
100
AcDbLine
 10
-13941.421214807238
 20
-8163.001527284881
 30
0.0
 11
-13941.599880603506
 21
-8165.614227660453
 31
0.0
  0
LINE
  5
260
100
AcDbEntity
  8
Frei
  6
CONTINUOUS
 62
           7
100
AcDbLine
 10
-13936.432864747914
 20
-8163.342648503274
 30
0.0
 11
-13936.159967773199
 21
-8159.351968455816
 31
0.0
  0
LINE
  5
261
100
AcDbEntity
  8
Frei
  6
CONTINUOUS
 62
           7
100
AcDbLine
 10
-13936.432864747914
 20
-8163.342648503274
 30
0.0
 11
-13941.421214807238
 21
-8163.001527284881
 31
0.0
  0
LINE
  5
262
100
AcDbEntity
  8
Frei
  6
CONTINUOUS
 62
           7
100
AcDbLine
 10
-13941.148317832523
 20
-8159.010847237421
 30
0.0
 11
-13941.421214807238
 21
-8163.001527284881
 31
0.0
  0
LINE
  5
263
100
AcDbEntity
  8
Frei
  6
CONTINUOUS
 62
           7
100
AcDbLine
 10
-13936.159967773199
 20
-8159.351968455816
 30
0.0
 11
-13935.891969078799
 21
-8155.432917892458
 31
0.0
  0
LINE
  5
264
100
AcDbEntity
  8
Frei
  6
CONTINUOUS
 62
           7
100
AcDbLine
 10
-13936.159967773199
 20
-8159.351968455816
 30
0.0
 11
-13941.148317832523
 21
-8159.010847237421
 31
0.0
  0
LINE
  5
265
100
AcDbEntity
  8
Frei
  6
CONTINUOUS
 62
           7
100
AcDbLine
 10
-13940.969652036256
 20
-8156.398146861851
 30
0.0
 11
-13941.148317832523
 21
-8159.010847237421
 31
0.0
  0
LINE
  5
266
100
AcDbEntity
  8
Frei
  6
CONTINUOUS
 62
           7
100
AcDbLine
 10
-13940.880319138123
 20
-8155.091796674065
 30
0.0
 11
-13940.969652036256
 21
-8156.398146861851
 31
0.0
  0
LINE
  5
267
100
AcDbEntity
  8
Frei
  6
CONTINUOUS
 62
           7
100
AcDbLine
 10
-13935.891969078799
 20
-8155.432917892458
 30
0.0
 11
-13935.755520591441
 21
-8153.43757786873
 31
0.0
  0
LINE
  5
268
100
AcDbEntity
  8
Frei
  6
CONTINUOUS
 62
           7
100
AcDbLine
 10
-13935.891969078799
 20
-8155.432917892458
 30
0.0
 11
-13940.880319138123
 21
-8155.091796674065
 31
0.0
  0
LINE
  5
269
100
AcDbEntity
  8
Frei
  6
CONTINUOUS
 62
           7
100
AcDbLine
 10
-13940.743870650766
 20
-8153.096456650335
 30
0.0
 11
-13940.880319138123
 21
-8155.091796674065
 31
0.0
  0
LINE
  5
26A
100
AcDbEntity
  8
Frei
  6
CONTINUOUS
 62
           7
100
AcDbLine
 10
-13940.743870650766
 20
-8153.096456650335
 30
0.0
 11
-13935.755520591441
 21
-8153.43757786873
 31
0.0
  0
LINE
  5
26B
100
AcDbEntity
  8
Frei
  6
CONTINUOUS
 62
           7
100
AcDbLine
 10
-13941.914994887133
 20
-8170.222268059753
 30
0.0
 11
-13937.680866460383
 21
-8170.511812905363
 31
0.0
  0
LINE
  5
26C
100
AcDbEntity
  8
Frei
  6
CONTINUOUS
 62
           7
100
AcDbLine
 10
-13940.654537752631
 20
-8151.790106462549
 30
0.0
 11
-13940.743870650766
 21
-8153.096456650335
 31
0.0
  0
LINE
  5
26D
100
AcDbEntity
  8
Frei
  6
CONTINUOUS
 62
           7
100
AcDbLine
 10
-13985.480399252221
 20
-8118.391682339588
 30
0.0
 11
-13985.838576531534
 21
-8123.629449901879
 31
0.0
  0
LINE
  5
26E
100
AcDbEntity
  8
Frei
  6
CONTINUOUS
 62
           7
100
AcDbLine
 10
-13984.461463940177
 20
-8125.477708788161
 30
0.0
 11
-13984.222679087301
 21
-8121.985863746635
 31
0.0
  0
LINE
  5
26F
100
AcDbEntity
  8
Frei
  6
CONTINUOUS
 62
           7
100
AcDbLine
 10
-13985.215691151438
 20
-8125.426132033887
 30
0.0
 11
-13984.461463940177
 21
-8125.477708788161
 31
0.0
  0
LINE
  5
270
100
AcDbEntity
  8
Frei
  6
CONTINUOUS
 62
           7
100
AcDbLine
 10
-13984.222679087301
 20
-8121.985863746635
 30
0.0
 11
-13983.745109381551
 21
-8115.002173663581
 31
0.0
  0
LINE
  5
271
100
AcDbEntity
  8
Frei
  6
CONTINUOUS
 62
           7
100
AcDbLine
 10
-13984.976906298562
 20
-8121.934286992359
 30
0.0
 11
-13984.222679087301
 21
-8121.985863746635
 31
0.0
  0
LINE
  5
272
100
AcDbEntity
  8
Frei
  6
CONTINUOUS
 62
           7
100
AcDbLine
 10
-13983.745109381551
 20
-8115.002173663581
 30
0.0
 11
-13983.506324528675
 21
-8111.510328622053
 31
0.0
  0
LINE
  5
273
100
AcDbEntity
  8
Frei
  6
CONTINUOUS
 62
           7
100
AcDbLine
 10
-13984.499336592811
 20
-8114.950596909304
 30
0.0
 11
-13983.745109381551
 21
-8115.002173663581
 31
0.0
  0
LINE
  5
274
100
AcDbEntity
  8
Frei
  6
CONTINUOUS
 62
           7
100
AcDbLine
 10
-13983.506324528675
 20
-8111.510328622053
 30
0.0
 11
-13983.131091188441
 21
-8106.023143556797
 31
0.0
  0
LINE
  5
275
100
AcDbEntity
  8
Frei
  6
CONTINUOUS
 62
           7
100
AcDbLine
 10
-13984.260551739935
 20
-8111.458751867778
 30
0.0
 11
-13983.506324528675
 21
-8111.510328622053
 31
0.0
  0
LINE
  5
276
100
AcDbEntity
  8
Frei
  6
CONTINUOUS
 62
           7
100
AcDbLine
 10
-13946.682461841277
 20
-8166.651086113947
 30
0.0
 11
-13945.863770917133
 21
-8154.679045971569
 31
0.0
  0
LINE
  5
277
100
AcDbEntity
  8
Frei
  6
CONTINUOUS
 62
           2
100
AcDbLine
 10
-13941.694111781953
 20
-8166.992207332341
 30
0.0
 11
-13946.682461841277
 21
-8166.651086113947
 31
0.0
  0
LINE
  5
278
100
AcDbEntity
  8
Frei
  6
CONTINUOUS
 62
           7
100
AcDbLine
 10
-13945.863770917133
 20
-8154.679045971569
 30
0.0
 11
-13945.795546673455
 21
-8153.681375959704
 31
0.0
  0
LINE
  5
279
100
AcDbEntity
  8
Frei
  6
CONTINUOUS
 62
           2
100
AcDbLine
 10
-13940.875420857808
 20
-8155.020167189961
 30
0.0
 11
-13945.863770917133
 21
-8154.679045971569
 31
0.0
  0
LINE
  5
27A
100
AcDbEntity
  8
Frei
  6
CONTINUOUS
 62
           7
100
AcDbLine
 10
-13946.750686084957
 20
-8167.648756125813
 30
0.0
 11
-13946.682461841277
 21
-8166.651086113947
 31
0.0
  0
LINE
  5
27B
100
AcDbEntity
  8
Frei
  6
CONTINUOUS
 62
           7
100
AcDbLine
 10
-13946.750686084957
 20
-8167.648756125813
 30
0.0
 11
-13941.762336025633
 21
-8167.989877344206
 31
0.0
  0
LINE
  5
27C
100
AcDbEntity
  8
Frei
  6
CONTINUOUS
 62
           7
100
AcDbLine
 10
-13945.795546673455
 20
-8153.681375959704
 30
0.0
 11
-13945.761434551616
 21
-8153.182540953771
 31
0.0
  0
LINE
  5
27D
100
AcDbEntity
  8
Frei
  6
CONTINUOUS
 62
           7
100
AcDbLine
 10
-13945.795546673455
 20
-8153.681375959704
 30
0.0
 11
-13940.807196614131
 21
-8154.022497178097
 31
0.0
  0
LINE
  5
27E
100
AcDbEntity
  8
Frei
  6
CONTINUOUS
 62
           7
100
AcDbLine
 10
-13966.169436574271
 20
-8166.320832514233
 30
0.0
 11
-13985.160981541756
 21
-8165.022122744182
 31
0.0
  0
LINE
  5
27F
100
AcDbEntity
  8
Frei
  6
CONTINUOUS
 62
           7
100
AcDbLine
 10
-13958.859174714693
 20
-8168.825405225396
 30
0.0
 11
-13966.169436574271
 21
-8166.320832514233
 31
0.0
  0
LINE
  5
280
100
AcDbEntity
  8
Frei
  6
CONTINUOUS
 62
           7
100
AcDbLine
 10
-13984.67898349287
 20
-8135.987356034582
 30
0.0
 11
-13985.177818498803
 21
-8135.953243912743
 31
0.0
  0
LINE
  5
281
100
AcDbEntity
  8
Frei
  6
CONTINUOUS
 62
           7
100
AcDbLine
 10
-13984.67898349287
 20
-8135.987356034582
 30
0.0
 11
-13986.555150194034
 21
-8163.423281360865
 31
0.0
  0
LINE
  5
282
100
AcDbEntity
  8
Frei
  6
CONTINUOUS
 62
           7
100
AcDbLine
 10
-13966.169436574271
 20
-8166.320832514233
 30
0.0
 11
-13960.219231245133
 21
-8166.727728836149
 31
0.0
  0
LINE
  5
283
100
AcDbEntity
  8
Frei
  6
CONTINUOUS
 62
           7
100
AcDbLine
 10
-13956.744223160653
 20
-8137.897634857585
 30
0.0
 11
-13984.67898349287
 21
-8135.987356034582
 31
0.0
  0
LINE
  5
284
100
AcDbEntity
  8
Frei
  6
CONTINUOUS
 62
           7
100
AcDbLine
 10
-13956.744223160653
 20
-8137.897634857585
 30
0.0
 11
-13958.620389861817
 21
-8165.33356018387
 31
0.0
  0
LINE
  5
285
100
AcDbEntity
  8
Frei
  6
CONTINUOUS
 62
           7
100
AcDbLine
 10
-13958.859174714693
 20
-8168.825405225396
 30
0.0
 11
-13948.383639590113
 21
-8169.541759784024
 31
0.0
  0
LINE
  5
286
100
AcDbEntity
  8
Frei
  6
CONTINUOUS
 62
           7
100
AcDbLine
 10
-13946.784798206796
 20
-8168.147591131745
 30
0.0
 11
-13946.750686084957
 21
-8167.648756125813
 31
0.0
  0
LINE
  5
287
100
AcDbEntity
  8
Frei
  6
CONTINUOUS
 62
           7
100
AcDbLine
 10
-13957.631138328476
 20
-8150.86734501183
 30
0.0
 11
-13947.155603203895
 21
-8151.583699570456
 31
0.0
  0
LINE
  5
288
100
AcDbEntity
  8
Frei
  6
CONTINUOUS
 62
           7
100
AcDbLine
 10
-13985.177818498803
 20
-8135.953243912743
 30
0.0
 11
-13985.109594255124
 21
-8134.955573900877
 31
0.0
  0
LINE
  5
289
100
AcDbEntity
  8
Frei
  6
CONTINUOUS
 62
           7
100
AcDbLine
 10
-13956.245388154721
 20
-8137.931746979426
 30
0.0
 11
-13956.744223160653
 21
-8137.897634857585
 31
0.0
  0
LINE
  5
28A
100
AcDbEntity
  8
Frei
  6
CONTINUOUS
 62
           7
100
AcDbLine
 10
-13956.177163911041
 20
-8136.93407696756
 30
0.0
 11
-13956.245388154721
 21
-8137.931746979426
 31
0.0
  0
LINE
  5
28B
100
AcDbEntity
  8
Frei
  6
CONTINUOUS
 62
           7
100
AcDbLine
 10
-13956.177163911041
 20
-8136.93407696756
 30
0.0
 11
-13985.109594255124
 21
-8134.955573900877
 31
0.0
  0
LINE
  5
28C
100
AcDbEntity
  8
Frei
  6
CONTINUOUS
 62
           7
100
AcDbLine
 10
-13954.437445697235
 20
-8111.493491665005
 30
0.0
 11
-13954.399518466469
 21
-8110.9388668172
 31
0.0
  0
LINE
  5
28D
100
AcDbEntity
  8
Frei
  6
CONTINUOUS
 62
           7
100
AcDbLine
 10
-13983.131091188441
 20
-8106.023143556797
 30
0.0
 11
-13956.188856760995
 21
-8108.813055796878
 31
0.0
  0
LINE
  5
28E
100
AcDbEntity
  8
Frei
  6
CONTINUOUS
 62
           7
100
AcDbLine
 10
-13950.199562318376
 20
-8122.808983013914
 30
0.0
 11
-13950.233674440215
 21
-8123.307818019846
 31
0.0
  0
LINE
  5
28F
100
AcDbEntity
  8
Frei
  6
CONTINUOUS
 62
           1
100
AcDbLine
 10
-13950.199562318376
 20
-8122.808983013914
 30
0.0
 11
-13952.682115433117
 21
-8122.639217152826
 31
0.0
  0
LINE
  5
290
100
AcDbEntity
  8
Frei
  6
CONTINUOUS
 62
           7
100
AcDbLine
 10
-13949.926665343661
 20
-8118.818302966454
 30
0.0
 11
-13950.199562318376
 21
-8122.808983013914
 31
0.0
  0
LINE
  5
291
100
AcDbEntity
  8
Frei
  6
CONTINUOUS
 62
           1
100
AcDbLine
 10
-13949.926665343661
 20
-8118.818302966454
 30
0.0
 11
-13952.409218458402
 21
-8118.648537105366
 31
0.0
  0
LINE
  5
292
100
AcDbEntity
  8
Frei
  6
CONTINUOUS
 62
           7
100
AcDbLine
 10
-13950.233674440215
 20
-8123.307818019846
 30
0.0
 11
-13950.267786562055
 21
-8123.806653025778
 31
0.0
  0
LINE
  5
293
100
AcDbEntity
  8
Frei
  6
CONTINUOUS
 62
           1
100
AcDbLine
 10
-13950.233674440215
 20
-8123.307818019846
 30
0.0
 11
-13952.716227554956
 21
-8123.138052158758
 31
0.0
  0
LINE
  5
294
100
AcDbEntity
  8
Frei
  6
CONTINUOUS
 62
           7
100
AcDbLine
 10
-13949.892553221822
 20
-8118.319467960522
 30
0.0
 11
-13949.926665343661
 21
-8118.818302966454
 31
0.0
  0
LINE
  5
295
100
AcDbEntity
  8
Frei
  6
CONTINUOUS
 62
           1
100
AcDbLine
 10
-13949.892553221822
 20
-8118.319467960522
 30
0.0
 11
-13952.375106336563
 21
-8118.149702099434
 31
0.0
  0
LINE
  5
296
100
AcDbEntity
  8
Frei
  6
CONTINUOUS
 62
           7
100
AcDbLine
 10
-13951.265456573919
 20
-8123.738428782099
 30
0.0
 11
-13950.856111111847
 21
-8117.752408710911
 31
0.0
  0
LINE
  5
297
100
AcDbEntity
  8
Frei
  6
CONTINUOUS
 62
           2
100
AcDbLine
 10
-13950.267786562055
 20
-8123.806653025778
 30
0.0
 11
-13951.265456573919
 21
-8123.738428782099
 31
0.0
  0
LINE
  5
298
100
AcDbEntity
  8
Frei
  6
CONTINUOUS
 62
           7
100
AcDbLine
 10
-13950.856111111847
 20
-8117.752408710911
 30
0.0
 11
-13950.787886868167
 21
-8116.754738699045
 31
0.0
  0
LINE
  5
299
100
AcDbEntity
  8
Frei
  6
CONTINUOUS
 62
           2
100
AcDbLine
 10
-13949.858441099983
 20
-8117.820632954588
 30
0.0
 11
-13950.856111111847
 21
-8117.752408710911
 31
0.0
  0
LINE
  5
29A
100
AcDbEntity
  8
Frei
  6
CONTINUOUS
 62
           7
100
AcDbLine
 10
-13951.333680817597
 20
-8124.736098793965
 30
0.0
 11
-13951.265456573919
 21
-8123.738428782099
 31
0.0
  0
LINE
  5
29B
100
AcDbEntity
  8
Frei
  6
CONTINUOUS
 62
           7
100
AcDbLine
 10
-13950.267786562055
 20
-8123.806653025778
 30
0.0
 11
-13951.333680817597
 21
-8124.736098793965
 31
0.0
  0
LINE
  5
29C
100
AcDbEntity
  8
Frei
  6
CONTINUOUS
 62
           7
100
AcDbLine
 10
-13949.858441099983
 20
-8117.820632954588
 30
0.0
 11
-13949.892553221822
 21
-8118.319467960522
 31
0.0
  0
LINE
  5
29D
100
AcDbEntity
  8
Frei
  6
CONTINUOUS
 62
           7
100
AcDbLine
 10
-13950.787886868167
 20
-8116.754738699045
 30
0.0
 11
-13950.446765649775
 21
-8111.76638863972
 31
0.0
  0
LINE
  5
29E
100
AcDbEntity
  8
Frei
  6
CONTINUOUS
 62
           7
100
AcDbLine
 10
-13950.787886868167
 20
-8116.754738699045
 30
0.0
 11
-13949.858441099983
 21
-8117.820632954588
 31
0.0
  0
LINE
  5
29F
100
AcDbEntity
  8
Frei
  6
CONTINUOUS
 62
           7
100
AcDbLine
 10
-13985.109594255124
 20
-8134.955573900877
 30
0.0
 11
-13984.461463940177
 21
-8125.477708788161
 31
0.0
  0
LINE
  5
2A0
100
AcDbEntity
  8
Frei
  6
CONTINUOUS
 62
           7
100
AcDbLine
 10
-13955.665482083452
 20
-8129.451551878574
 30
0.0
 11
-13956.177163911041
 21
-8136.93407696756
 31
0.0
  0
LINE
  5
2A1
100
AcDbEntity
  8
Frei
  6
CONTINUOUS
 62
           7
100
AcDbLine
 10
-13953.371551441691
 20
-8110.564045896819
 30
0.0
 11
-13954.736036315266
 21
-8130.517446134118
 31
0.0
  0
LINE
  5
2A2
100
AcDbEntity
  8
Frei
  6
CONTINUOUS
 62
           7
100
AcDbLine
 10
-13951.376211417961
 20
-8110.700494384177
 30
0.0
 11
-13952.740696291536
 21
-8130.653894621475
 31
0.0
  0
LINE
  5
2A3
100
AcDbEntity
  8
Frei
  6
CONTINUOUS
 62
           7
100
AcDbLine
 10
-13951.674802035992
 20
-8129.724448853289
 30
0.0
 11
-13952.740696291536
 21
-8130.653894621475
 31
0.0
  0
LINE
  5
2A4
100
AcDbEntity
  8
Frei
  6
CONTINUOUS
 62
           7
100
AcDbLine
 10
-13954.736036315266
 20
-8130.517446134118
 30
0.0
 11
-13955.665482083452
 21
-8129.451551878574
 31
0.0
  0
LINE
  5
2A5
100
AcDbEntity
  8
Frei
  6
CONTINUOUS
 62
           7
100
AcDbLine
 10
-13954.437445697235
 20
-8111.493491665005
 30
0.0
 11
-13953.371551441691
 21
-8110.564045896819
 31
0.0
  0
LINE
  5
2A6
100
AcDbEntity
  8
Frei
  6
CONTINUOUS
 62
           7
100
AcDbLine
 10
-13950.446765649775
 20
-8111.76638863972
 30
0.0
 11
-13951.376211417961
 21
-8110.700494384177
 31
0.0
  0
LINE
  5
2A7
100
AcDbEntity
  8
Frei
  6
CONTINUOUS
 62
           7
100
AcDbLine
 10
-13951.674802035992
 20
-8129.724448853289
 30
0.0
 11
-13951.333680817597
 21
-8124.736098793965
 31
0.0
  0
LINE
  5
2A8
100
AcDbEntity
  8
Frei
  6
CONTINUOUS
 62
           7
100
AcDbLine
 10
-13954.736036315266
 20
-8130.517446134118
 30
0.0
 11
-13952.740696291536
 21
-8130.653894621475
 31
0.0
  0
LINE
  5
2A9
100
AcDbEntity
  8
Frei
  6
CONTINUOUS
 62
           7
100
AcDbLine
 10
-13954.437445697235
 20
-8111.493491665005
 30
0.0
 11
-13955.665482083452
 21
-8129.451551878574
 31
0.0
  0
LINE
  5
2AA
100
AcDbEntity
  8
Frei
  6
CONTINUOUS
 62
           7
100
AcDbLine
 10
-13951.376211417961
 20
-8110.700494384177
 30
0.0
 11
-13953.371551441691
 21
-8110.564045896819
 31
0.0
  0
LINE
  5
2AB
100
AcDbEntity
  8
Frei
  6
CONTINUOUS
 62
           7
100
AcDbLine
 10
-14001.571149450894
 20
-8133.829873880179
 30
0.0
 11
-13991.095614326312
 21
-8134.546228438805
 31
0.0
  0
LINE
  5
2AC
100
AcDbEntity
  8
Frei
  6
CONTINUOUS
 62
           7
100
AcDbLine
 10
-13985.352369243388
 20
-8101.86190290014
 30
0.0
 11
-13999.319749409497
 21
-8100.906763488638
 31
0.0
  0
LINE
  5
2AD
100
AcDbEntity
  8
Frei
  6
CONTINUOUS
 62
           7
100
AcDbLine
 10
-13984.422923475202
 20
-8102.927797155684
 30
0.0
 11
-13985.957968957973
 21
-8125.375372422643
 31
0.0
  0
LINE
  5
2AE
100
AcDbEntity
  8
Frei
  6
CONTINUOUS
 62
           7
100
AcDbLine
 10
-14145.16740691576
 20
-8123.007912778579
 30
0.0
 11
-14143.632361432989
 21
-8100.560337511621
 31
0.0
  0
LINE
  5
2AF
100
AcDbEntity
  8
Frei
  6
CONTINUOUS
 62
           7
100
AcDbLine
 10
-14144.468108418052
 20
-8112.781795156965
 30
0.0
 11
-14144.109931138739
 21
-8107.544027594675
 31
0.0
  0
LINE
  5
2B0
100
AcDbEntity
  8
Frei
  6
CONTINUOUS
 62
           7
100
AcDbLine
 10
-13985.122221972908
 20
-8113.153914777298
 30
0.0
 11
-13985.480399252221
 21
-8118.391682339588
 31
0.0
  0
ARC
  5
2B1
100
AcDbEntity
  8
Frei
  6
CONTINUOUS
 62
           7
100
AcDbCircle
 10
-14152.694290002692
 20
-8106.956998432732
 30
0.0
 40
8.604407030244
100
AcDbArc
 50
332.086014671726
 51
356.087999999999
  0
ARC
  5
2B2
100
AcDbEntity
  8
Frei
  6
CONTINUOUS
 62
           7
100
AcDbCircle
 10
-14146.176197752864
 20
-8102.140467887683
 30
0.0
 40
2.430106011614
100
AcDbArc
 50
310.022521857266
 51
356.087999999999
  0
ARC
  5
2B3
100
AcDbEntity
  8
Frei
  6
CONTINUOUS
 62
           7
100
AcDbCircle
 10
-14146.89255231149
 20
-8112.616003012263
 30
0.0
 40
2.430106011614
100
AcDbArc
 50
310.022521857266
 51
356.087999999999
  0
ARC
  5
2B4
100
AcDbEntity
  8
Frei
  6
CONTINUOUS
 62
           7
100
AcDbCircle
 10
-14146.176197752864
 20
-8102.140467887683
 30
0.0
 40
2.430106011614
100
AcDbArc
 50
356.087999999999
 51
42.153478142733
  0
ARC
  5
2B5
100
AcDbEntity
  8
Frei
  6
CONTINUOUS
 62
           7
100
AcDbCircle
 10
-14146.89255231149
 20
-8112.616003012263
 30
0.0
 40
2.430106011614
100
AcDbArc
 50
356.087999999999
 51
42.153478142733
  0
ARC
  5
2B6
100
AcDbEntity
  8
Frei
  6
CONTINUOUS
 62
           7
100
AcDbCircle
 10
-13983.414132638094
 20
-8123.795242046581
 30
0.0
 40
2.430106011614
100
AcDbArc
 50
130.022521857263
 51
176.088
  0
ARC
  5
2B7
100
AcDbEntity
  8
Frei
  6
CONTINUOUS
 62
           7
100
AcDbCircle
 10
-13982.697778079468
 20
-8113.319706922001
 30
0.0
 40
2.430106011614
100
AcDbArc
 50
130.022521857263
 51
176.088
  0
ARC
  5
2B8
100
AcDbEntity
  8
Frei
  6
CONTINUOUS
 62
           7
100
AcDbCircle
 10
-13983.414132638094
 20
-8123.795242046581
 30
0.0
 40
2.430106011614
100
AcDbArc
 50
176.088
 51
222.153478142737
  0
ARC
  5
2B9
100
AcDbEntity
  8
Frei
  6
CONTINUOUS
 62
           7
100
AcDbCircle
 10
-13982.697778079468
 20
-8113.319706922001
 30
0.0
 40
2.430106011614
100
AcDbArc
 50
176.088
 51
222.153478142737
  0
ARC
  5
2BA
100
AcDbEntity
  8
Frei
  6
CONTINUOUS
 62
           7
100
AcDbCircle
 10
-13976.896040388268
 20
-8118.978711501532
 30
0.0
 40
8.604407030244
100
AcDbArc
 50
152.086014671724
 51
176.088
  0
ARC
  5
2BB
100
AcDbEntity
  8
Frei
  6
CONTINUOUS
 62
           7
100
AcDbCircle
 10
-14121.345831503053
 20
-8116.8817641473
 30
0.0
 40
4.481959213903
100
AcDbArc
 50
184.466955885586
 51
347.709044114414
  0
ARC
  5
2BC
100
AcDbEntity
  8
Frei
  6
CONTINUOUS
 62
           7
100
AcDbCircle
 10
-14152.694290002692
 20
-8106.956998432732
 30
0.0
 40
8.604407030244
100
AcDbArc
 50
356.087999999999
 51
20.089985328274
  0
ARC
  5
2BD
100
AcDbEntity
  8
Frei
  6
CONTINUOUS
 62
           7
100
AcDbCircle
 10
-13976.896040388268
 20
-8118.978711501532
 30
0.0
 40
8.604407030244
100
AcDbArc
 50
176.088
 51
200.089985328276
  0
POLYLINE
  5
2BE
100
AcDbEntity
  8
Frei
  6
CONTINUOUS
 62
           7
100
AcDb2dPolyline
 66
           1
 10
0.0
 20
0.0
 30
0.0
  0
VERTEX
  5
2BF
100
AcDbEntity
  8
Frei
  6
CONTINUOUS
 62
           7
100
AcDbVertex
100
AcDb2dVertex
 10
-14125.506651638229
 20
-8116.898260828937
 30
0.0
 42
0.046286845788
  0
VERTEX
  5
2C0
100
AcDbEntity
  8
Frei
  6
CONTINUOUS
 62
           7
100
AcDbVertex
100
AcDb2dVertex
 10
-14125.489950809386
 20
-8117.578164429016
 30
0.0
  0
VERTEX
  5
2C1
100
AcDbEntity
  8
Frei
  6
CONTINUOUS
 62
           7
100
AcDbVertex
100
AcDb2dVertex
 10
-14125.434317651438
 20
-8117.915353321976
 30
0.0
  0
VERTEX
  5
2C2
100
AcDbEntity
  8
Frei
  6
CONTINUOUS
 62
           7
100
AcDbVertex
100
AcDb2dVertex
 10
-14125.347955578147
 20
-8118.246012282609
 30
0.0
 42
0.045273723548
  0
VERTEX
  5
2C3
100
AcDbEntity
  8
Frei
  6
CONTINUOUS
 62
           7
100
AcDbVertex
100
AcDb2dVertex
 10
-14125.084980397758
 20
-8118.881512170627
 30
0.0
  0
VERTEX
  5
2C4
100
AcDbEntity
  8
Frei
  6
CONTINUOUS
 62
           7
100
AcDbVertex
100
AcDb2dVertex
 10
-14124.909987364656
 20
-8119.181794539061
 30
0.0
  0
VERTEX
  5
2C5
100
AcDbEntity
  8
Frei
  6
CONTINUOUS
 62
           7
100
AcDbVertex
100
AcDb2dVertex
 10
-14124.709015636005
 20
-8119.465354750553
 30
0.0
 42
0.04348253534
  0
VERTEX
  5
2C6
100
AcDbEntity
  8
Frei
  6
CONTINUOUS
 62
           7
100
AcDbVertex
100
AcDb2dVertex
 10
-14124.231484791924
 20
-8119.979800261037
 30
0.0
  0
VERTEX
  5
2C7
100
AcDbEntity
  8
Frei
  6
CONTINUOUS
 62
           7
100
AcDbVertex
100
AcDb2dVertex
 10
-14123.958350216593
 20
-8120.206547044518
 30
0.0
  0
VERTEX
  5
2C8
100
AcDbEntity
  8
Frei
  6
CONTINUOUS
 62
           7
100
AcDbVertex
100
AcDb2dVertex
 10
-14123.666897398576
 20
-8120.409217535562
 30
0.0
 42
0.041825507476
  0
VERTEX
  5
2C9
100
AcDbEntity
  8
Frei
  6
CONTINUOUS
 62
           7
100
AcDbVertex
100
AcDb2dVertex
 10
-14123.032408158208
 20
-8120.74055894754
 30
0.0
  0
VERTEX
  5
2CA
100
AcDbEntity
  8
Frei
  6
CONTINUOUS
 62
           7
100
AcDbVertex
100
AcDb2dVertex
 10
-14122.694466246652
 20
-8120.866317906421
 30
0.0
  0
VERTEX
  5
2CB
100
AcDbEntity
  8
Frei
  6
CONTINUOUS
 62
           7
100
AcDbVertex
100
AcDb2dVertex
 10
-14122.34729570532
 20
-8120.963756855832
 30
0.0
 42
0.040993490696
  0
VERTEX
  5
2CC
100
AcDbEntity
  8
Frei
  6
CONTINUOUS
 62
           7
100
AcDbVertex
100
AcDb2dVertex
 10
-14121.632376835116
 20
-8121.07202950494
 30
0.0
  0
VERTEX
  5
2CD
100
AcDbEntity
  8
Frei
  6
CONTINUOUS
 62
           7
100
AcDbVertex
100
AcDb2dVertex
 10
-14121.270670946611
 20
-8121.081898273407
 30
0.0
  0
VERTEX
  5
2CE
100
AcDbEntity
  8
Frei
  6
CONTINUOUS
 62
           7
100
AcDbVertex
100
AcDb2dVertex
 10
-14120.909373995693
 20
-8121.062087085207
 30
0.0
 42
0.041278481646
  0
VERTEX
  5
2CF
100
AcDbEntity
  8
Frei
  6
CONTINUOUS
 62
           7
100
AcDbVertex
100
AcDb2dVertex
 10
-14120.200255262474
 20
-8120.93423169203
 30
0.0
  0
VERTEX
  5
2D0
100
AcDbEntity
  8
Frei
  6
CONTINUOUS
 62
           7
100
AcDbVertex
100
AcDb2dVertex
 10
-14119.858343479202
 20
-8120.827398474965
 30
0.0
  0
VERTEX
  5
2D1
100
AcDbEntity
  8
Frei
  6
CONTINUOUS
 62
           7
100
AcDbVertex
100
AcDb2dVertex
 10
-14119.526566849336
 20
-8120.692348146829
 30
0.0
 42
0.042584509173
  0
VERTEX
  5
2D2
100
AcDbEntity
  8
Frei
  6
CONTINUOUS
 62
           7
100
AcDbVertex
100
AcDb2dVertex
 10
-14118.90877843781
 20
-8120.343785958727
 30
0.0
  0
VERTEX
  5
2D3
100
AcDbEntity
  8
Frei
  6
CONTINUOUS
 62
           7
100
AcDbVertex
100
AcDb2dVertex
 10
-14118.627535210553
 20
-8120.133285816241
 30
0.0
  0
VERTEX
  5
2D4
100
AcDbEntity
  8
Frei
  6
CONTINUOUS
 62
           7
100
AcDbVertex
100
AcDb2dVertex
 10
-14118.365661216165
 20
-8119.89913601343
 30
0.0
 42
0.044417198743
  0
VERTEX
  5
2D5
100
AcDbEntity
  8
Frei
  6
CONTINUOUS
 62
           7
100
AcDbVertex
100
AcDb2dVertex
 10
-14117.913717526344
 20
-8119.371908774519
 30
0.0
  0
VERTEX
  5
2D6
100
AcDbEntity
  8
Frei
  6
CONTINUOUS
 62
           7
100
AcDbVertex
100
AcDb2dVertex
 10
-14117.726732877349
 20
-8119.082883361458
 30
0.0
  0
VERTEX
  5
2D7
100
AcDbEntity
  8
Frei
  6
CONTINUOUS
 62
           7
100
AcDbVertex
100
AcDb2dVertex
 10
-14117.566679448677
 20
-8118.77812377486
 30
0.0
 42
0.045929593742
  0
VERTEX
  5
2D8
100
AcDbEntity
  8
Frei
  6
CONTINUOUS
 62
           7
100
AcDbVertex
100
AcDb2dVertex
 10
-14117.335091559537
 20
-8118.135822871198
 30
0.0
  0
VERTEX
  5
2D9
100
AcDbEntity
  8
Frei
  6
CONTINUOUS
 62
           7
100
AcDbVertex
100
AcDb2dVertex
 10
-14117.264976969669
 20
-8117.802701337414
 30
0.0
  0
VERTEX
  5
2DA
100
AcDbEntity
  8
Frei
  6
CONTINUOUS
 62
           7
100
AcDbVertex
100
AcDb2dVertex
 10
-14117.22599053975
 20
-8117.46452205147
 30
0.0
 42
0.046286845788
  0
VERTEX
  5
2DB
100
AcDbEntity
  8
Frei
  6
CONTINUOUS
 62
           7
100
AcDbVertex
100
AcDb2dVertex
 10
-14117.24269136859
 20
-8116.784618451393
 30
0.0
  0
VERTEX
  5
2DC
100
AcDbEntity
  8
Frei
  6
CONTINUOUS
 62
           7
100
AcDbVertex
100
AcDb2dVertex
 10
-14117.298324526542
 20
-8116.447429558433
 30
0.0
  0
VERTEX
  5
2DD
100
AcDbEntity
  8
Frei
  6
CONTINUOUS
 62
           7
100
AcDbVertex
100
AcDb2dVertex
 10
-14117.384686599831
 20
-8116.116770597802
 30
0.0
 42
0.045273723548
  0
VERTEX
  5
2DE
100
AcDbEntity
  8
Frei
  6
CONTINUOUS
 62
           7
100
AcDbVertex
100
AcDb2dVertex
 10
-14117.647661780218
 20
-8115.481270709783
 30
0.0
  0
VERTEX
  5
2DF
100
AcDbEntity
  8
Frei
  6
CONTINUOUS
 62
           7
100
AcDbVertex
100
AcDb2dVertex
 10
-14117.822654813321
 20
-8115.180988341348
 30
0.0
  0
VERTEX
  5
2E0
100
AcDbEntity
  8
Frei
  6
CONTINUOUS
 62
           7
100
AcDbVertex
100
AcDb2dVertex
 10
-14118.023626541973
 20
-8114.897428129856
 30
0.0
 42
0.04348253534
  0
VERTEX
  5
2E1
100
AcDbEntity
  8
Frei
  6
CONTINUOUS
 62
           7
100
AcDbVertex
100
AcDb2dVertex
 10
-14118.501157386052
 20
-8114.382982619374
 30
0.0
  0
VERTEX
  5
2E2
100
AcDbEntity
  8
Frei
  6
CONTINUOUS
 62
           7
100
AcDbVertex
100
AcDb2dVertex
 10
-14118.774291961383
 20
-8114.156235835892
 30
0.0
  0
VERTEX
  5
2E3
100
AcDbEntity
  8
Frei
  6
CONTINUOUS
 62
           7
100
AcDbVertex
100
AcDb2dVertex
 10
-14119.0657447794
 20
-8113.953565344847
 30
0.0
 42
0.041825507476
  0
VERTEX
  5
2E4
100
AcDbEntity
  8
Frei
  6
CONTINUOUS
 62
           7
100
AcDbVertex
100
AcDb2dVertex
 10
-14119.700234019769
 20
-8113.622223932871
 30
0.0
  0
VERTEX
  5
2E5
100
AcDbEntity
  8
Frei
  6
CONTINUOUS
 62
           7
100
AcDbVertex
100
AcDb2dVertex
 10
-14120.038175931326
 20
-8113.496464973989
 30
0.0
  0
VERTEX
  5
2E6
100
AcDbEntity
  8
Frei
  6
CONTINUOUS
 62
           7
100
AcDbVertex
100
AcDb2dVertex
 10
-14120.385346472656
 20
-8113.399026024579
 30
0.0
 42
0.040993490695
  0
VERTEX
  5
2E7
100
AcDbEntity
  8
Frei
  6
CONTINUOUS
 62
           7
100
AcDbVertex
100
AcDb2dVertex
 10
-14121.100265342864
 20
-8113.290753375472
 30
0.0
  0
VERTEX
  5
2E8
100
AcDbEntity
  8
Frei
  6
CONTINUOUS
 62
           7
100
AcDbVertex
100
AcDb2dVertex
 10
-14121.461971231365
 20
-8113.280884607004
 30
0.0
  0
VERTEX
  5
2E9
100
AcDbEntity
  8
Frei
  6
CONTINUOUS
 62
           7
100
AcDbVertex
100
AcDb2dVertex
 10
-14121.823268182283
 20
-8113.300695795202
 30
0.0
 42
0.041278481646
  0
VERTEX
  5
2EA
100
AcDbEntity
  8
Frei
  6
CONTINUOUS
 62
           7
100
AcDbVertex
100
AcDb2dVertex
 10
-14122.532386915502
 20
-8113.428551188379
 30
0.0
  0
VERTEX
  5
2EB
100
AcDbEntity
  8
Frei
  6
CONTINUOUS
 62
           7
100
AcDbVertex
100
AcDb2dVertex
 10
-14122.874298698775
 20
-8113.535384405444
 30
0.0
  0
VERTEX
  5
2EC
100
AcDbEntity
  8
Frei
  6
CONTINUOUS
 62
           7
100
AcDbVertex
100
AcDb2dVertex
 10
-14123.206075328641
 20
-8113.670434733582
 30
0.0
 42
0.042584509172
  0
VERTEX
  5
2ED
100
AcDbEntity
  8
Frei
  6
CONTINUOUS
 62
           7
100
AcDbVertex
100
AcDb2dVertex
 10
-14123.823863740166
 20
-8114.018996921684
 30
0.0
  0
VERTEX
  5
2EE
100
AcDbEntity
  8
Frei
  6
CONTINUOUS
 62
           7
100
AcDbVertex
100
AcDb2dVertex
 10
-14124.105106967423
 20
-8114.229497064169
 30
0.0
  0
VERTEX
  5
2EF
100
AcDbEntity
  8
Frei
  6
CONTINUOUS
 62
           7
100
AcDbVertex
100
AcDb2dVertex
 10
-14124.366980961813
 20
-8114.463646866981
 30
0.0
 42
0.044417198743
  0
VERTEX
  5
2F0
100
AcDbEntity
  8
Frei
  6
CONTINUOUS
 62
           7
100
AcDbVertex
100
AcDb2dVertex
 10
-14124.818924651632
 20
-8114.990874105892
 30
0.0
  0
VERTEX
  5
2F1
100
AcDbEntity
  8
Frei
  6
CONTINUOUS
 62
           7
100
AcDbVertex
100
AcDb2dVertex
 10
-14125.005909300628
 20
-8115.279899518951
 30
0.0
  0
VERTEX
  5
2F2
100
AcDbEntity
  8
Frei
  6
CONTINUOUS
 62
           7
100
AcDbVertex
100
AcDb2dVertex
 10
-14125.165962729301
 20
-8115.584659105551
 30
0.0
 42
0.045929593742
  0
VERTEX
  5
2F3
100
AcDbEntity
  8
Frei
  6
CONTINUOUS
 62
           7
100
AcDbVertex
100
AcDb2dVertex
 10
-14125.39755061844
 20
-8116.226960009211
 30
0.0
  0
VERTEX
  5
2F4
100
AcDbEntity
  8
Frei
  6
CONTINUOUS
 62
           7
100
AcDbVertex
100
AcDb2dVertex
 10
-14125.467665208307
 20
-8116.560081542995
 30
0.0
  0
VERTEX
  5
2F5
100
AcDbEntity
  8
Frei
  6
CONTINUOUS
 62
           7
100
AcDbVertex
100
AcDb2dVertex
 10
-14125.506651638229
 20
-8116.898260828937
 30
0.0
  0
SEQEND
  5
2F6
100
AcDbEntity
  8
Frei
  6
CONTINUOUS
 62
           7
  0
POLYLINE
  5
2F7
100
AcDbEntity
  8
Frei
  6
CONTINUOUS
 62
           7
100
AcDb2dPolyline
 66
           1
 10
0.0
 20
0.0
 30
0.0
  0
VERTEX
  5
2F8
100
AcDbEntity
  8
Frei
  6
CONTINUOUS
 62
           7
100
AcDbVertex
100
AcDb2dVertex
 10
-14121.094573912995
 20
-8113.207525352722
 30
0.0
 42
0.046286845788
  0
VERTEX
  5
2F9
100
AcDbEntity
  8
Frei
  6
CONTINUOUS
 62
           7
100
AcDbVertex
100
AcDb2dVertex
 10
-14121.870416185018
 20
-8113.226582773499
 30
0.0
  0
VERTEX
  5
2FA
100
AcDbEntity
  8
Frei
  6
CONTINUOUS
 62
           7
100
AcDbVertex
100
AcDb2dVertex
 10
-14122.255184550393
 20
-8113.290066119753
 30
0.0
  0
VERTEX
  5
2FB
100
AcDbEntity
  8
Frei
  6
CONTINUOUS
 62
           7
100
AcDbVertex
100
AcDb2dVertex
 10
-14122.632501568942
 20
-8113.38861442447
 30
0.0
 42
0.045273723548
  0
VERTEX
  5
2FC
100
AcDbEntity
  8
Frei
  6
CONTINUOUS
 62
           7
100
AcDbVertex
100
AcDb2dVertex
 10
-14123.357674486007
 20
-8113.688697055914
 30
0.0
  0
VERTEX
  5
2FD
100
AcDbEntity
  8
Frei
  6
CONTINUOUS
 62
           7
100
AcDbVertex
100
AcDb2dVertex
 10
-14123.700328584247
 20
-8113.888382706015
 30
0.0
  0
VERTEX
  5
2FE
100
AcDbEntity
  8
Frei
  6
CONTINUOUS
 62
           7
100
AcDbVertex
100
AcDb2dVertex
 10
-14124.023900924085
 20
-8114.117712808918
 30
0.0
 42
0.04348253534
  0
VERTEX
  5
2FF
100
AcDbEntity
  8
Frei
  6
CONTINUOUS
 62
           7
100
AcDbVertex
100
AcDb2dVertex
 10
-14124.610937929978
 20
-8114.662626256928
 30
0.0
  0
VERTEX
  5
300
100
AcDbEntity
  8
Frei
  6
CONTINUOUS
 62
           7
100
AcDbVertex
100
AcDb2dVertex
 10
-14124.869680109972
 20
-8114.974301837803
 30
0.0
  0
VERTEX
  5
301
100
AcDbEntity
  8
Frei
  6
CONTINUOUS
 62
           7
100
AcDbVertex
100
AcDb2dVertex
 10
-14125.10094868132
 20
-8115.306880480559
 30
0.0
 42
0.041825507476
  0
VERTEX
  5
302
100
AcDbEntity
  8
Frei
  6
CONTINUOUS
 62
           7
100
AcDbVertex
100
AcDb2dVertex
 10
-14125.479044449388
 20
-8116.030900141237
 30
0.0
  0
VERTEX
  5
303
100
AcDbEntity
  8
Frei
  6
CONTINUOUS
 62
           7
100
AcDbVertex
100
AcDb2dVertex
 10
-14125.622548787909
 20
-8116.416527780866
 30
0.0
  0
VERTEX
  5
304
100
AcDbEntity
  8
Frei
  6
CONTINUOUS
 62
           7
100
AcDbVertex
100
AcDb2dVertex
 10
-14125.733736985594
 20
-8116.812686267944
 30
0.0
 42
0.040993490695
  0
VERTEX
  5
305
100
AcDbEntity
  8
Frei
  6
CONTINUOUS
 62
           7
100
AcDbVertex
100
AcDb2dVertex
 10
-14125.857287586112
 20
-8117.628484684825
 30
0.0
  0
VERTEX
  5
306
100
AcDbEntity
  8
Frei
  6
CONTINUOUS
 62
           7
100
AcDbVertex
100
AcDb2dVertex
 10
-14125.868548899844
 20
-8118.041229547933
 30
0.0
  0
VERTEX
  5
307
100
AcDbEntity
  8
Frei
  6
CONTINUOUS
 62
           7
100
AcDbVertex
100
AcDb2dVertex
 10
-14125.845942228454
 20
-8118.453507769791
 30
0.0
 42
0.041278481646
  0
VERTEX
  5
308
100
AcDbEntity
  8
Frei
  6
CONTINUOUS
 62
           7
100
AcDbVertex
100
AcDb2dVertex
 10
-14125.700045635582
 20
-8119.262687613893
 30
0.0
  0
VERTEX
  5
309
100
AcDbEntity
  8
Frei
  6
CONTINUOUS
 62
           7
100
AcDbVertex
100
AcDb2dVertex
 10
-14125.57813758002
 20
-8119.652845299093
 30
0.0
  0
VERTEX
  5
30A
100
AcDbEntity
  8
Frei
  6
CONTINUOUS
 62
           7
100
AcDbVertex
100
AcDb2dVertex
 10
-14125.424030801638
 20
-8120.031437697031
 30
0.0
 42
0.042584509173
  0
VERTEX
  5
30B
100
AcDbEntity
  8
Frei
  6
CONTINUOUS
 62
           7
100
AcDbVertex
100
AcDb2dVertex
 10
-14125.026284297681
 20
-8120.736399936932
 30
0.0
  0
VERTEX
  5
30C
100
AcDbEntity
  8
Frei
  6
CONTINUOUS
 62
           7
100
AcDbVertex
100
AcDb2dVertex
 10
-14124.786081261855
 20
-8121.057328351491
 30
0.0
  0
VERTEX
  5
30D
100
AcDbEntity
  8
Frei
  6
CONTINUOUS
 62
           7
100
AcDbVertex
100
AcDb2dVertex
 10
-14124.518891449965
 20
-8121.35615441267
 30
0.0
 42
0.044417198743
  0
VERTEX
  5
30E
100
AcDbEntity
  8
Frei
  6
CONTINUOUS
 62
           7
100
AcDbVertex
100
AcDb2dVertex
 10
-14123.917269133415
 20
-8121.871870198107
 30
0.0
  0
VERTEX
  5
30F
100
AcDbEntity
  8
Frei
  6
CONTINUOUS
 62
           7
100
AcDbVertex
100
AcDb2dVertex
 10
-14123.587460417715
 20
-8122.085239556489
 30
0.0
  0
VERTEX
  5
310
100
AcDbEntity
  8
Frei
  6
CONTINUOUS
 62
           7
100
AcDbVertex
100
AcDb2dVertex
 10
-14123.239697337682
 20
-8122.267877530067
 30
0.0
 42
0.045929593742
  0
VERTEX
  5
311
100
AcDbEntity
  8
Frei
  6
CONTINUOUS
 62
           7
100
AcDbVertex
100
AcDb2dVertex
 10
-14122.506763738915
 20
-8122.532143926161
 30
0.0
  0
VERTEX
  5
312
100
AcDbEntity
  8
Frei
  6
CONTINUOUS
 62
           7
100
AcDbVertex
100
AcDb2dVertex
 10
-14122.126636662662
 20
-8122.612152125408
 30
0.0
  0
VERTEX
  5
313
100
AcDbEntity
  8
Frei
  6
CONTINUOUS
 62
           7
100
AcDbVertex
100
AcDb2dVertex
 10
-14121.74073815363
 20
-8122.656639785664
 30
0.0
 42
0.046286845788
  0
VERTEX
  5
314
100
AcDbEntity
  8
Frei
  6
CONTINUOUS
 62
           7
100
AcDbVertex
100
AcDb2dVertex
 10
-14120.964895881605
 20
-8122.637582364891
 30
0.0
  0
VERTEX
  5
315
100
AcDbEntity
  8
Frei
  6
CONTINUOUS
 62
           7
100
AcDbVertex
100
AcDb2dVertex
 10
-14120.580127516228
 20
-8122.574099018635
 30
0.0
  0
VERTEX
  5
316
100
AcDbEntity
  8
Frei
  6
CONTINUOUS
 62
           7
100
AcDbVertex
100
AcDb2dVertex
 10
-14120.20281049768
 20
-8122.475550713918
 30
0.0
 42
0.045273723548
  0
VERTEX
  5
317
100
AcDbEntity
  8
Frei
  6
CONTINUOUS
 62
           7
100
AcDbVertex
100
AcDb2dVertex
 10
-14119.477637580614
 20
-8122.175468082476
 30
0.0
  0
VERTEX
  5
318
100
AcDbEntity
  8
Frei
  6
CONTINUOUS
 62
           7
100
AcDbVertex
100
AcDb2dVertex
 10
-14119.134983482374
 20
-8121.975782432373
 30
0.0
  0
VERTEX
  5
319
100
AcDbEntity
  8
Frei
  6
CONTINUOUS
 62
           7
100
AcDbVertex
100
AcDb2dVertex
 10
-14118.81141114254
 20
-8121.746452329469
 30
0.0
 42
0.04348253534
  0
VERTEX
  5
31A
100
AcDbEntity
  8
Frei
  6
CONTINUOUS
 62
           7
100
AcDbVertex
100
AcDb2dVertex
 10
-14118.224374136646
 20
-8121.201538881462
 30
0.0
  0
VERTEX
  5
31B
100
AcDbEntity
  8
Frei
  6
CONTINUOUS
 62
           7
100
AcDbVertex
100
AcDb2dVertex
 10
-14117.965631956651
 20
-8120.889863300587
 30
0.0
  0
VERTEX
  5
31C
100
AcDbEntity
  8
Frei
  6
CONTINUOUS
 62
           7
100
AcDbVertex
100
AcDb2dVertex
 10
-14117.734363385305
 20
-8120.557284657831
 30
0.0
 42
0.041825507476
  0
VERTEX
  5
31D
100
AcDbEntity
  8
Frei
  6
CONTINUOUS
 62
           7
100
AcDbVertex
100
AcDb2dVertex
 10
-14117.356267617235
 20
-8119.833264997151
 30
0.0
  0
VERTEX
  5
31E
100
AcDbEntity
  8
Frei
  6
CONTINUOUS
 62
           7
100
AcDbVertex
100
AcDb2dVertex
 10
-14117.212763278716
 20
-8119.447637357522
 30
0.0
  0
VERTEX
  5
31F
100
AcDbEntity
  8
Frei
  6
CONTINUOUS
 62
           7
100
AcDbVertex
100
AcDb2dVertex
 10
-14117.101575081027
 20
-8119.051478870444
 30
0.0
 42
0.040993490695
  0
VERTEX
  5
320
100
AcDbEntity
  8
Frei
  6
CONTINUOUS
 62
           7
100
AcDbVertex
100
AcDb2dVertex
 10
-14116.978024480512
 20
-8118.235680453565
 30
0.0
  0
VERTEX
  5
321
100
AcDbEntity
  8
Frei
  6
CONTINUOUS
 62
           7
100
AcDbVertex
100
AcDb2dVertex
 10
-14116.96676316678
 20
-8117.822935590455
 30
0.0
  0
VERTEX
  5
322
100
AcDbEntity
  8
Frei
  6
CONTINUOUS
 62
           7
100
AcDbVertex
100
AcDb2dVertex
 10
-14116.989369838167
 20
-8117.410657368597
 30
0.0
 42
0.041278481646
  0
VERTEX
  5
323
100
AcDbEntity
  8
Frei
  6
CONTINUOUS
 62
           7
100
AcDbVertex
100
AcDb2dVertex
 10
-14117.135266431042
 20
-8116.601477524495
 30
0.0
  0
VERTEX
  5
324
100
AcDbEntity
  8
Frei
  6
CONTINUOUS
 62
           7
100
AcDbVertex
100
AcDb2dVertex
 10
-14117.257174486602
 20
-8116.211319839294
 30
0.0
  0
VERTEX
  5
325
100
AcDbEntity
  8
Frei
  6
CONTINUOUS
 62
           7
100
AcDbVertex
100
AcDb2dVertex
 10
-14117.411281264987
 20
-8115.832727441359
 30
0.0
 42
0.042584509173
  0
VERTEX
  5
326
100
AcDbEntity
  8
Frei
  6
CONTINUOUS
 62
           7
100
AcDbVertex
100
AcDb2dVertex
 10
-14117.809027768943
 20
-8115.127765201456
 30
0.0
  0
VERTEX
  5
327
100
AcDbEntity
  8
Frei
  6
CONTINUOUS
 62
           7
100
AcDbVertex
100
AcDb2dVertex
 10
-14118.049230804769
 20
-8114.806836786896
 30
0.0
  0
VERTEX
  5
328
100
AcDbEntity
  8
Frei
  6
CONTINUOUS
 62
           7
100
AcDbVertex
100
AcDb2dVertex
 10
-14118.31642061666
 20
-8114.50801072572
 30
0.0
 42
0.044417198743
  0
VERTEX
  5
329
100
AcDbEntity
  8
Frei
  6
CONTINUOUS
 62
           7
100
AcDbVertex
100
AcDb2dVertex
 10
-14118.918042933206
 20
-8113.992294940283
 30
0.0
  0
VERTEX
  5
32A
100
AcDbEntity
  8
Frei
  6
CONTINUOUS
 62
           7
100
AcDbVertex
100
AcDb2dVertex
 10
-14119.247851648908
 20
-8113.778925581899
 30
0.0
  0
VERTEX
  5
32B
100
AcDbEntity
  8
Frei
  6
CONTINUOUS
 62
           7
100
AcDbVertex
100
AcDb2dVertex
 10
-14119.59561472894
 20
-8113.596287608321
 30
0.0
 42
0.045929593741
  0
VERTEX
  5
32C
100
AcDbEntity
  8
Frei
  6
CONTINUOUS
 62
           7
100
AcDbVertex
100
AcDb2dVertex
 10
-14120.328548327709
 20
-8113.332021212229
 30
0.0
  0
VERTEX
  5
32D
100
AcDbEntity
  8
Frei
  6
CONTINUOUS
 62
           7
100
AcDbVertex
100
AcDb2dVertex
 10
-14120.708675403959
 20
-8113.25201301298
 30
0.0
  0
VERTEX
  5
32E
100
AcDbEntity
  8
Frei
  6
CONTINUOUS
 62
           7
100
AcDbVertex
100
AcDb2dVertex
 10
-14121.094573912995
 20
-8113.207525352722
 30
0.0
  0
SEQEND
  5
32F
100
AcDbEntity
  8
Frei
  6
CONTINUOUS
 62
           7
  0
ARC
  5
330
100
AcDbEntity
  8
Frei
  6
CONTINUOUS
 62
           7
100
AcDbCircle
 10
-13987.417097551079
 20
-8131.849711047074
 30
0.0
 40
0.5
100
AcDbArc
 50
273.237821982568
 51
356.087999999999
  0
ARC
  5
331
100
AcDbEntity
  8
Frei
  6
CONTINUOUS
 62
           7
100
AcDbCircle
 10
-13987.067952965559
 20
-8126.744032127155
 30
0.0
 40
0.5
100
AcDbArc
 50
356.087999999999
 51
78.938178017423
  0
ARC
  5
332
100
AcDbEntity
  8
Frei
  6
CONTINUOUS
 62
           7
100
AcDbCircle
 10
-14141.674397833949
 20
-8094.120111009028
 30
0.0
 40
0.5
100
AcDbArc
 50
93.237821982565
 51
176.088
  0
ARC
  5
333
100
AcDbEntity
  8
Frei
  6
CONTINUOUS
 62
           7
100
AcDbCircle
 10
-14142.023542419469
 20
-8099.225789928947
 30
0.0
 40
0.5
100
AcDbArc
 50
176.088
 51
258.938178017419
  0
ARC
  5
334
100
AcDbEntity
  8
Frei
  6
CONTINUOUS
 62
           7
100
AcDbCircle
 10
-14171.891581053014
 20
-8096.065981695241
 30
0.0
 40
2.0
100
AcDbArc
 50
88.088
 51
176.088
  0
ARC
  5
335
100
AcDbEntity
  8
Frei
  6
CONTINUOUS
 62
           7
100
AcDbCircle
 10
-14187.722106072166
 20
-8151.671436283335
 30
0.0
 40
1.5
100
AcDbArc
 50
176.088
 51
266.088
  0
ARC
  5
336
100
AcDbEntity
  8
Frei
  6
CONTINUOUS
 62
           7
100
AcDbCircle
 10
-14186.698742416986
 20
-8136.706386105363
 30
0.0
 40
1.5
100
AcDbArc
 50
86.088
 51
176.088
  0
ARC
  5
337
100
AcDbEntity
  8
Frei
  6
CONTINUOUS
 62
           7
100
AcDbCircle
 10
-14175.61361744243
 20
-8150.49478718375
 30
0.0
 40
1.5
100
AcDbArc
 50
176.088
 51
266.088
  0
ARC
  5
338
100
AcDbEntity
  8
Frei
  6
CONTINUOUS
 62
           7
100
AcDbCircle
 10
-14150.671867145809
 20
-8152.200393275718
 30
0.0
 40
1.5
100
AcDbArc
 50
266.088
 51
356.087999999999
  0
ARC
  5
339
100
AcDbEntity
  8
Frei
  6
CONTINUOUS
 62
           7
100
AcDbCircle
 10
-13985.058645176237
 20
-8163.525617726384
 30
0.0
 40
1.5
100
AcDbArc
 50
176.088
 51
266.088
  0
ARC
  5
33A
100
AcDbEntity
  8
Frei
  6
CONTINUOUS
 62
           7
100
AcDbCircle
 10
-13960.116894879615
 20
-8165.231223818351
 30
0.0
 40
1.5
100
AcDbArc
 50
266.088
 51
356.087999999999
  0
ARC
  5
33B
100
AcDbEntity
  8
Frei
  6
CONTINUOUS
 62
           7
100
AcDbCircle
 10
-13947.257939569414
 20
-8153.080204588254
 30
0.0
 40
1.5
100
AcDbArc
 50
356.087999999999
 51
86.088
  0
ARC
  5
33C
100
AcDbEntity
  8
Frei
  6
CONTINUOUS
 62
           7
100
AcDbCircle
 10
-13948.281303224594
 20
-8168.045254766226
 30
0.0
 40
1.5
100
AcDbArc
 50
266.088
 51
356.087999999999
  0
ARC
  5
33D
100
AcDbEntity
  8
Frei
  6
CONTINUOUS
 62
           7
100
AcDbCircle
 10
-13956.394858490199
 20
-8110.802418329842
 30
0.0
 40
2.0
100
AcDbArc
 50
356.087999999999
 51
84.088
  0
ARC
  5
33E
100
AcDbEntity
  8
Frei
  6
CONTINUOUS
 62
           7
100
AcDbCircle
 10
-13985.420593487068
 20
-8102.859572912004
 30
0.0
 40
1.0
100
AcDbArc
 50
356.087999999999
 51
86.088
  0
ARC
  5
33F
100
AcDbEntity
  8
Frei
  6
CONTINUOUS
 62
           7
100
AcDbCircle
 10
-13987.535545041108
 20
-8133.787343279815
 30
0.0
 40
1.0
100
AcDbArc
 50
266.087999999999
 51
356.087999999999
  0
ARC
  5
340
100
AcDbEntity
  8
Frei
  6
CONTINUOUS
 62
           7
100
AcDbCircle
 10
-14144.169736903896
 20
-8123.076137022259
 30
0.0
 40
1.0
100
AcDbArc
 50
176.088
 51
266.088
  0
ARC
  5
341
100
AcDbEntity
  8
Frei
  6
CONTINUOUS
 62
           7
100
AcDbCircle
 10
-14142.054785349856
 20
-8092.148366654448
 30
0.0
 40
1.0
100
AcDbArc
 50
86.088
 51
176.088
  0
LINE
  5
342
100
AcDbEntity
  8
Frei
  6
CONTINUOUS
 62
           7
100
AcDbLine
 10
-14397.464179754035
 20
-8076.058891814931
 30
0.0
 11
-14397.464179754037
 21
-8146.058891814931
 31
0.0
  0
LINE
  5
343
100
AcDbEntity
  8
Frei
  6
CONTINUOUS
 62
           7
100
AcDbLine
 10
-13879.575294754037
 20
-8146.058891814942
 30
0.0
 11
-13879.575294754035
 21
-8076.058891814942
 31
0.0
  0
LINE
  5
344
100
AcDbEntity
  8
Frei
  6
CONTINUOUS
 62
          15
100
AcDbLine
 10
-14206.393979485383
 20
-8076.058891814934
 30
0.0
 11
-14397.464179754035
 21
-8076.058891814931
 31
0.0
  0
LINE
  5
345
100
AcDbEntity
  8
Frei
  6
GESTRICHELT
 62
          15
100
AcDbLine
 10
-14169.202827272324
 20
-8076.058891814935
 30
0.0
 11
-14206.393979485383
 21
-8076.058891814934
 31
0.0
  0
LINE
  5
346
100
AcDbEntity
  8
Frei
  6
CONTINUOUS
 62
          15
100
AcDbLine
 10
-13879.575232754036
 20
-8076.058891814942
 30
0.0
 11
-14169.202827272326
 21
-8076.058891814935
 31
0.0
  0
LINE
  5
347
100
AcDbEntity
  8
Frei
  6
CONTINUOUS
 62
          15
100
AcDbLine
 10
-14198.865157648657
 20
-8146.058891814935
 30
0.0
 11
-14397.464179754037
 21
-8146.058891814931
 31
0.0
  0
LINE
  5
348
100
AcDbEntity
  8
Frei
  6
GESTRICHELT
 62
          15
100
AcDbLine
 10
-14148.748386165733
 20
-8146.058891814936
 30
0.0
 11
-14198.865157648657
 21
-8146.058891814935
 31
0.0
  0
LINE
  5
349
100
AcDbEntity
  8
Frei
  6
CONTINUOUS
 62
          15
100
AcDbLine
 10
-13985.367711131394
 20
-8146.05889181494
 30
0.0
 11
-14148.748386165733
 21
-8146.058891814936
 31
0.0
  0
LINE
  5
34A
100
AcDbEntity
  8
Frei
  6
GESTRICHELT
 62
          15
100
AcDbLine
 10
-13957.302319100954
 20
-8146.058891814941
 30
0.0
 11
-13985.367711131394
 21
-8146.05889181494
 31
0.0
  0
LINE
  5
34B
100
AcDbEntity
  8
Frei
  6
CONTINUOUS
 62
          15
100
AcDbLine
 10
-13929.738849079309
 20
-8146.058891814941
 30
0.0
 11
-13957.302319100954
 21
-8146.058891814941
 31
0.0
  0
LINE
  5
34C
100
AcDbEntity
  8
Frei
  6
GESTRICHELT
 62
          15
100
AcDbLine
 10
-13922.935267449686
 20
-8146.058891814941
 30
0.0
 11
-13929.738849079309
 21
-8146.058891814941
 31
0.0
  0
LINE
  5
34D
100
AcDbEntity
  8
Frei
  6
CONTINUOUS
 62
          15
100
AcDbLine
 10
-13879.575232754038
 20
-8146.058891814942
 30
0.0
 11
-13922.935267449686
 21
-8146.058891814941
 31
0.0
  0
TEXT
  5
34E
100
AcDbEntity
  8
FREI
  6
CONTINUOUS
 62
          15
100
AcDbText
 10
-14486.626004233944
 20
-8212.87280307654
 30
0.0
 40
3.527777671814
  1
150-701
 41
0.899999979725
  7
GOTHICG
100
AcDbText
  0
ENDSEC
  0
SECTION
  2
OBJECTS
  0
DICTIONARY
  5
19
100
AcDbDictionary
  3
ACAD_GROUP
350
1A
  3
ACAD_MLINESTYLE
350
1B
  0
DICTIONARY
  5
1A
102
{ACAD_REACTORS
330
19
102
}
100
AcDbDictionary
  0
DICTIONARY
  5
1B
102
{ACAD_REACTORS
330
19
102
}
100
AcDbDictionary
  3
STANDARD
350
1C
  0
MLINESTYLE
  5
1C
102
{ACAD_REACTORS
330
1B
102
}
100
AcDbMlineStyle
  2
STANDARD
 70
           0
  3

 62
           0
 51
90.0
 52
90.0
 71
           2
 49
0.5
 62
         256
  6
BYLAYER
 49
-0.5
 62
         256
  6
BYLAYER
  0
ENDSEC
  0
EOF
