  0
SECTION
  2
HEADER
  9
$ACADVER
  1
AC1012
  9
$DWGCODEPAGE
  3
dos850
  9
$INSBASE
 10
0.0
 20
0.0
 30
0.0
  9
$EXTMIN
 10
-14998.292174282211
 20
-14448.400880594456
 30
0.0
  9
$EXTMAX
 10
-14160.18329063507
 20
-13785.855339150889
 30
0.0
  9
$LIMMIN
 10
-14998.292174282211
 20
-14448.400880594456
  9
$LIMMAX
 10
-14160.18329063507
 20
-13785.855339150889
  9
$ORTHOMODE
 70
           0
  9
$REGENMODE
 70
           1
  9
$FILLMODE
 70
           1
  9
$QTEXTMODE
 70
           0
  9
$MIRRTEXT
 70
           1
  9
$DRAGMODE
 70
           2
  9
$LTSCALE
 40
5.0
  9
$OSMODE
 70
           0
  9
$ATTMODE
 70
           1
  9
$TEXTSIZE
 40
0.2
  9
$TRACEWID
 40
0.05
  9
$TEXTSTYLE
  7
TXT
  9
$CLAYER
  8
0
  9
$CELTYPE
  6
CONTINUOUS
  9
$CECOLOR
 62
         256
  9
$CELTSCALE
 40
1.0
  9
$DELOBJ
 70
           1
  9
$DISPSILH
 70
           0
  9
$DIMSCALE
 40
1.0
  9
$DIMASZ
 40
3.5
  9
$DIMEXO
 40
0.0625
  9
$DIMDLI
 40
0.38
  9
$DIMRND
 40
0.0
  9
$DIMDLE
 40
0.0
  9
$DIMEXE
 40
0.18
  9
$DIMTP
 40
0.0
  9
$DIMTM
 40
0.0
  9
$DIMTXT
 40
3.5
  9
$DIMCEN
 40
0.09
  9
$DIMTSZ
 40
0.0
  9
$DIMTOL
 70
           0
  9
$DIMLIM
 70
           0
  9
$DIMTIH
 70
           1
  9
$DIMTOH
 70
           1
  9
$DIMSE1
 70
           0
  9
$DIMSE2
 70
           0
  9
$DIMTAD
 70
           0
  9
$DIMZIN
 70
           0
  9
$DIMBLK
  1

  9
$DIMASO
 70
           1
  9
$DIMSHO
 70
           1
  9
$DIMPOST
  1

  9
$DIMAPOST
  1

  9
$DIMALT
 70
           0
  9
$DIMALTD
 70
           2
  9
$DIMALTF
 40
25.4
  9
$DIMLFAC
 40
1.0
  9
$DIMTOFL
 70
           0
  9
$DIMTVP
 40
0.0
  9
$DIMTIX
 70
           0
  9
$DIMSOXD
 70
           0
  9
$DIMSAH
 70
           0
  9
$DIMBLK1
  1

  9
$DIMBLK2
  1

  9
$DIMSTYLE
  2
STANDARD
  9
$DIMCLRD
 70
           0
  9
$DIMCLRE
 70
           0
  9
$DIMCLRT
 70
           0
  9
$DIMTFAC
 40
1.0
  9
$DIMGAP
 40
0.09
  9
$DIMJUST
 70
           0
  9
$DIMSD1
 70
           0
  9
$DIMSD2
 70
           0
  9
$DIMTOLJ
 70
           1
  9
$DIMTZIN
 70
           0
  9
$DIMALTZ
 70
           0
  9
$DIMALTTZ
 70
           0
  9
$DIMFIT
 70
           3
  9
$DIMUPT
 70
           0
  9
$DIMUNIT
 70
           2
  9
$DIMDEC
 70
           4
  9
$DIMTDEC
 70
           4
  9
$DIMALTU
 70
           2
  9
$DIMALTTD
 70
           2
  9
$DIMTXSTY
  7
TXT
  9
$DIMAUNIT
 70
           0
  9
$LUNITS
 70
           2
  9
$LUPREC
 70
           3
  9
$SKETCHINC
 40
0.1
  9
$FILLETRAD
 40
0.0
  9
$AUNITS
 70
           0
  9
$AUPREC
 70
           3
  9
$MENU
  1
acad
  9
$ELEVATION
 40
0.0
  9
$PELEVATION
 40
0.0
  9
$THICKNESS
 40
0.0
  9
$LIMCHECK
 70
           0
  9
$BLIPMODE
 70
           1
  9
$CHAMFERA
 40
0.0
  9
$CHAMFERB
 40
0.0
  9
$CHAMFERC
 40
0.0
  9
$CHAMFERD
 40
0.0
  9
$SKPOLY
 70
           0
  9
$TDCREATE
 40
0.000000000
  9
$TDUPDATE
 40
0.000000000
  9
$TDINDWG
 40
0.0000000000
  9
$TDUSRTIMER
 40
0.0000000000
  9
$USRTIMER
 70
           1
  9
$ANGBASE
 50
0.0
  9
$ANGDIR
 70
           0
  9
$PDMODE
 70
           2
  9
$PDSIZE
 40
0.5
  9
$PLINEWID
 40
0.0
  9
$COORDS
 70
           0
  9
$SPLFRAME
 70
           0
  9
$SPLINETYPE
 70
           6
  9
$SPLINESEGS
 70
           8
  9
$ATTDIA
 70
           0
  9
$ATTREQ
 70
           1
  9
$HANDLING
 70
           1
  9
$HANDSEED
  5
3A4
  9
$SURFTAB1
 70
           6
  9
$SURFTAB2
 70
           6
  9
$SURFTYPE
 70
           6
  9
$SURFU
 70
           6
  9
$SURFV
 70
           6
  9
$UCSNAME
  2

  9
$UCSORG
 10
0.0
 20
0.0
 30
0.0
  9
$UCSXDIR
 10
1.0
 20
0.0
 30
0.0
  9
$UCSYDIR
 10
0.0
 20
1.0
 30
0.0
  9
$PUCSNAME
  2

  9
$PUCSORG
 10
0.0
 20
0.0
 30
0.0
  9
$PUCSXDIR
 10
1.0
 20
0.0
 30
0.0
  9
$PUCSYDIR
 10
0.0
 20
1.0
 30
0.0
  9
$USERI1
 70
           0
  9
$USERI2
 70
           0
  9
$USERI3
 70
           0
  9
$USERI4
 70
           0
  9
$USERI5
 70
           0
  9
$USERR1
 40
0.0
  9
$USERR2
 40
0.0
  9
$USERR3
 40
0.0
  9
$USERR4
 40
0.0
  9
$USERR5
 40
0.0
  9
$WORLDVIEW
 70
           1
  9
$SHADEDGE
 70
           3
  9
$SHADEDIF
 70
          70
  9
$TILEMODE
 70
           1
  9
$MAXACTVP
 70
          16
  9
$PINSBASE
 10
0.0
 20
0.0
 30
0.0
  9
$PLIMCHECK
 70
           0
  9
$PEXTMIN
 10
1.000000000000E+20
 20
1.000000000000E+20
 30
1.000000000000E+20
  9
$PEXTMAX
 10
-1.000000000000E+20
 20
-1.000000000000E+20
 30
-1.000000000000E+20
  9
$PLIMMIN
 10
0.0
 20
0.0
  9
$PLIMMAX
 10
12.0
 20
9.0
  9
$UNITMODE
 70
           0
  9
$VISRETAIN
 70
           0
  9
$PLINEGEN
 70
           1
  9
$PSLTSCALE
 70
           0
  9
$TREEDEPTH
 70
        3020
  9
$PICKSTYLE
 70
           1
  9
$CMLSTYLE
  2
STANDARD
  9
$CMLJUST
 70
           0
  9
$CMLSCALE
 40
1.0
  9
$SAVEIMAGES
 70
           0
  0
ENDSEC
  0
SECTION
  2
CLASSES
  0
CLASS
  1
LWPOLYLINE
  2
AcDbPolyline
  3
"AutoCAD"
 90
        0
280
           0
281
           1
  0
CLASS
  1
IMAGE
  2
AcDbRasterImage
  3
ISM
 90
      127
280
           0
281
           1
  0
CLASS
  1
OLE2FRAME
  2
AcDbOle2Frame
  3
""
 90
        0
280
           0
281
           1
  0
CLASS
  1
HATCH
  2
AcDbHatch
  3
"ACAD_SEDONA"
 90
        0
280
           0
281
           1
  0
CLASS
  1
DICTIONARYVAR
  2
AcDbDictionaryVar
  3
"AutoCAD"
 90
        0
280
           0
281
           0
  0
CLASS
  1
RASTERVARIABLES
  2
AcDbRasterVariables
  3
ISM
 90
        0
280
           0
281
           0
  0
CLASS
  1
IMAGEDEF
  2
AcDbRasterImageDef
  3
ISM
 90
        0
280
           0
281
           0
  0
CLASS
  1
IMAGEDEF_REACTOR
  2
AcDbRasterImageDefReactor
  3
ISM
 90
        1
280
           0
281
           0
  0
CLASS
  1
IDBUFFER
  2
AcDbIdBuffer
  3
"Acad"
 90
        0
280
           0
281
           0
  0
CLASS
  1
SPATIAL_FILTER
  2
AcDbSpatialFilter
  3
"Acad"
 90
        0
280
           0
281
           0
  0
CLASS
  1
XRECORD
  2
AcDbXrecord
  3
"<Built In>"
 90
        0
280
           0
281
           0
  0
ENDSEC
  0
SECTION
  2
TABLES
  0
TABLE
  2
VPORT
  5
7
100
AcDbSymbolTable
 70
           1
  0
VPORT
  5
15
100
AcDbSymbolTableRecord
100
AcDbViewportTableRecord
  2
*ACTIVE
 70
           0
 10
0.0
 20
0.0
 11
1.0
 21
1.0
 12
6.591288
 22
4.579184
 13
0.0
 23
0.0
 14
1.0
 24
1.0
 15
0.0
 25
0.0
 16
0.0
 26
0.0
 36
1.0
 17
0.0
 27
0.0
 37
0.0
 40
9.158369
 41
0.688564
 42
50.0
 43
0.0
 44
0.0
 50
0.0
 51
0.0
 71
           0
 72
         100
 73
           1
 74
           1
 75
           0
 76
           0
 77
           0
 78
           0
  0
ENDTAB
  0
TABLE
  2
LTYPE
  5
4
100
AcDbSymbolTable
 70
           5
  0
LTYPE
  5
11
100
AcDbSymbolTableRecord
100
AcDbLinetypeTableRecord
  2
BYBLOCK
 70
           0
  3

 72
          65
 73
           0
 40
0.0
  0
LTYPE
  5
12
100
AcDbSymbolTableRecord
100
AcDbLinetypeTableRecord
  2
BYLAYER
 70
           0
  3

 72
          65
 73
           0
 40
0.0
  0
LTYPE
  5
13
100
AcDbSymbolTableRecord
100
AcDbLinetypeTableRecord
  2
CONTINUOUS
 70
           0
  3
Solid line
 72
          65
 73
           0
 40
0.0
  0
LTYPE
  5
1D
100
AcDbSymbolTableRecord
100
AcDbLinetypeTableRecord
  2
GESTRICHELT
 70
           0
  3

 72
          65
 73
           2
 40
0.75
 49
0.5
 74
           0
 49
-0.25
 74
           0
  0
LTYPE
  5
1E
100
AcDbSymbolTableRecord
100
AcDbLinetypeTableRecord
  2
STRICHPUNKT
 70
           0
  3

 72
          65
 73
           4
 40
1.0
 49
0.5
 74
           0
 49
-0.25
 74
           0
 49
0.0
 74
           0
 49
-0.25
 74
           0
  0
ENDTAB
  0
TABLE
  2
LAYER
  5
2
100
AcDbSymbolTable
 70
           3
  0
LAYER
  5
14
100
AcDbSymbolTableRecord
100
AcDbLayerTableRecord
  2
0
 70
           0
 62
           7
  6
CONTINUOUS
  0
LAYER
  5
20
100
AcDbSymbolTableRecord
100
AcDbLayerTableRecord
  2
FREI
 70
           0
 62
           7
  6
CONTINUOUS
  0
LAYER
  5
21
100
AcDbSymbolTableRecord
100
AcDbLayerTableRecord
  2
Frei
 70
           0
 62
           7
  6
CONTINUOUS
  0
ENDTAB
  0
TABLE
  2
STYLE
  5
3
100
AcDbSymbolTable
 70
           2
  0
STYLE
  5
17
100
AcDbSymbolTableRecord
100
AcDbTextStyleTableRecord
  2
TXT
 70
           0
 40
3.5
 41
1.0
 50
0.0
 71
           0
 42
3.5
  3
TXT
  4

  0
STYLE
  5
1F
100
AcDbSymbolTableRecord
100
AcDbTextStyleTableRecord
  2
GOTHICG
 70
           0
 40
3.5
 41
1.0
 50
0.0
 71
           0
 42
3.5
  3
GOTHICG
  4

  0
ENDTAB
  0
TABLE
  2
VIEW
  5
5
100
AcDbSymbolTable
 70
           0
  0
ENDTAB
  0
TABLE
  2
UCS
  5
6
100
AcDbSymbolTable
 70
           0
  0
ENDTAB
  0
TABLE
  2
APPID
  5
8
100
AcDbSymbolTable
 70
           2
  0
APPID
  5
16
100
AcDbSymbolTableRecord
100
AcDbRegAppTableRecord
  2
ACAD
 70
           0
  0
APPID
  5
22
100
AcDbSymbolTableRecord
100
AcDbRegAppTableRecord
  2
MegaCADPntStyle
 70
           0
  0
ENDTAB
  0
TABLE
  2
DIMSTYLE
  5
9
100
AcDbSymbolTable
 70
           1
  0
DIMSTYLE
105
18
100
AcDbSymbolTableRecord
100
AcDbDimStyleTableRecord
  2
STANDARD
 70
           0
  3

  4

  5

  6

  7

 40
1.0
 41
0.18
 42
0.0625
 43
0.38
 44
0.18
 45
0.0
 46
0.0
 47
0.0
 48
0.0
140
0.18
141
0.09
142
0.0
143
25.4
144
1.0
145
0.0
146
1.0
147
0.09
 71
           0
 72
           0
 73
           1
 74
           1
 75
           0
 76
           0
 77
           0
 78
           0
170
           0
171
           2
172
           0
173
           0
174
           0
175
           0
176
           0
177
           0
178
           0
270
           2
271
           4
272
           4
273
           2
274
           2
340
17
275
           0
280
           0
281
           0
282
           0
283
           1
284
           0
285
           0
286
           0
287
           0
288
           0
  0
ENDTAB
  0
TABLE
  2
BLOCK_RECORD
  5
1
100
AcDbSymbolTable
 70
           3
  0
BLOCK_RECORD
  5
A
100
AcDbSymbolTableRecord
100
AcDbBlockTableRecord
  2
*MODEL_SPACE
  0
BLOCK_RECORD
  5
B
100
AcDbSymbolTableRecord
100
AcDbBlockTableRecord
  2
*PAPER_SPACE
  0
BLOCK_RECORD
  5
23
100
AcDbSymbolTableRecord
100
AcDbBlockTableRecord
  2
ELIPPSE
  0
BLOCK_RECORD
  5
24
100
AcDbSymbolTableRecord
100
AcDbBlockTableRecord
  2
MAK1
  0
BLOCK_RECORD
  5
25
100
AcDbSymbolTableRecord
100
AcDbBlockTableRecord
  2
MAK2
  0
ENDTAB
  0
ENDSEC
  0
SECTION
  2
BLOCKS
  0
BLOCK
  5
D
100
AcDbEntity
  8
0
100
AcDbBlockBegin
  2
*MODEL_SPACE
 70
           0
 10
0.0
 20
0.0
 30
0.0
  3
*MODEL_SPACE
  1

  0
ENDBLK
  5
E
100
AcDbEntity
  8
0
100
AcDbBlockEnd
  0
BLOCK
  5
F
100
AcDbEntity
 67
           1
  8
0
100
AcDbBlockBegin
  2
*PAPER_SPACE
 70
           0
 10
0.0
 20
0.0
 30
0.0
  3
*PAPER_SPACE
  1

  0
ENDBLK
  5
10
100
AcDbEntity
 67
           1
  8
0
100
AcDbBlockEnd
  0
BLOCK
  5
348
100
AcDbEntity
  8
0
100
AcDbBlockBegin
  2
ELIPPSE
 70
          64
 10
0.0
 20
0.0
 30
0.0
  3
ELIPPSE
  1

  0
CIRCLE
  5
349
100
AcDbEntity
  8
0
  6
BYBLOCK
 62
           0
100
AcDbCircle
 10
0.0
 20
0.0
 30
0.0
 40
1.0
  0
ENDBLK
  5
34A
100
AcDbEntity
  8
0
  6
BYBLOCK
 62
           0
100
AcDbBlockEnd
  0
BLOCK
  5
34B
100
AcDbEntity
  8
0
100
AcDbBlockBegin
  2
MAK1
 70
          64
 10
0.0
 20
0.0
 30
0.0
  3
MAK1
  1

  0
LINE
  5
34C
100
AcDbEntity
  8
Frei
  6
CONTINUOUS
 62
           2
100
AcDbLine
 10
191.903508353413
 20
615.106916893559
 30
0.0
 11
192.293358480831
 21
615.496767020979
 31
0.0
  0
LINE
  5
34D
100
AcDbEntity
  8
Frei
  6
CONTINUOUS
 62
           2
100
AcDbLine
 10
191.903508353415
 20
614.04625672178
 30
0.0
 11
193.354018652612
 21
615.496767020977
 31
0.0
  0
LINE
  5
34E
100
AcDbEntity
  8
Frei
  6
CONTINUOUS
 62
           2
100
AcDbLine
 10
191.903508353413
 20
612.985596549999
 30
0.0
 11
193.903508353413
 21
614.985596549999
 31
0.0
  0
LINE
  5
34F
100
AcDbEntity
  8
Frei
  6
CONTINUOUS
 62
           2
100
AcDbLine
 10
191.903508353413
 20
611.92493637822
 30
0.0
 11
193.903508353413
 21
613.92493637822
 31
0.0
  0
LINE
  5
350
100
AcDbEntity
  8
Frei
  6
CONTINUOUS
 62
           2
100
AcDbLine
 10
191.903508353413
 20
610.864276206439
 30
0.0
 11
193.903508353413
 21
612.864276206439
 31
0.0
  0
LINE
  5
351
100
AcDbEntity
  8
Frei
  6
CONTINUOUS
 62
           2
100
AcDbLine
 10
191.903508353415
 20
609.80361603466
 30
0.0
 11
193.903508353413
 21
611.80361603466
 31
0.0
  0
LINE
  5
352
100
AcDbEntity
  8
Frei
  6
CONTINUOUS
 62
           2
100
AcDbLine
 10
191.903508353413
 20
608.742955862881
 30
0.0
 11
193.903508353413
 21
610.742955862881
 31
0.0
  0
LINE
  5
353
100
AcDbEntity
  8
Frei
  6
CONTINUOUS
 62
           2
100
AcDbLine
 10
191.903508353413
 20
607.682295691102
 30
0.0
 11
193.903508353413
 21
609.6822956911
 31
0.0
  0
LINE
  5
354
100
AcDbEntity
  8
Frei
  6
CONTINUOUS
 62
           2
100
AcDbLine
 10
191.903508353413
 20
606.621635519321
 30
0.0
 11
193.903508353413
 21
608.621635519319
 31
0.0
  0
LINE
  5
355
100
AcDbEntity
  8
Frei
  6
CONTINUOUS
 62
           2
100
AcDbLine
 10
191.903508353415
 20
605.560975347542
 30
0.0
 11
193.903508353413
 21
607.56097534754
 31
0.0
  0
LINE
  5
356
100
AcDbEntity
  8
Frei
  6
CONTINUOUS
 62
           2
100
AcDbLine
 10
191.903508353413
 20
604.500315175761
 30
0.0
 11
193.903508353415
 21
606.500315175763
 31
0.0
  0
LINE
  5
357
100
AcDbEntity
  8
Frei
  6
CONTINUOUS
 62
           2
100
AcDbLine
 10
191.903508353413
 20
603.439655003982
 30
0.0
 11
193.903508353413
 21
605.439655003982
 31
0.0
  0
LINE
  5
358
100
AcDbEntity
  8
Frei
  6
CONTINUOUS
 62
           2
100
AcDbLine
 10
191.903508353413
 20
602.378994832203
 30
0.0
 11
193.903508353415
 21
604.378994832203
 31
0.0
  0
LINE
  5
359
100
AcDbEntity
  8
Frei
  6
CONTINUOUS
 62
           2
100
AcDbLine
 10
191.903508353415
 20
601.318334660422
 30
0.0
 11
193.903508353413
 21
603.318334660422
 31
0.0
  0
LINE
  5
35A
100
AcDbEntity
  8
Frei
  6
CONTINUOUS
 62
           2
100
AcDbLine
 10
191.903508353413
 20
600.257674488643
 30
0.0
 11
193.903508353415
 21
602.257674488643
 31
0.0
  0
LINE
  5
35B
100
AcDbEntity
  8
Frei
  6
CONTINUOUS
 62
           2
100
AcDbLine
 10
191.903508353413
 20
599.197014316862
 30
0.0
 11
193.903508353413
 21
601.197014316862
 31
0.0
  0
LINE
  5
35C
100
AcDbEntity
  8
Frei
  6
CONTINUOUS
 62
           2
100
AcDbLine
 10
191.903508353413
 20
598.136354145081
 30
0.0
 11
193.903508353415
 21
600.136354145085
 31
0.0
  0
LINE
  5
35D
100
AcDbEntity
  8
Frei
  6
CONTINUOUS
 62
           2
100
AcDbLine
 10
191.903508353415
 20
597.075693973302
 30
0.0
 11
193.903508353413
 21
599.075693973304
 31
0.0
  0
LINE
  5
35E
100
AcDbEntity
  8
Frei
  6
CONTINUOUS
 62
           2
100
AcDbLine
 10
191.903508353413
 20
596.015033801525
 30
0.0
 11
193.903508353415
 21
598.015033801523
 31
0.0
  0
LINE
  5
35F
100
AcDbEntity
  8
Frei
  6
CONTINUOUS
 62
           2
100
AcDbLine
 10
192.445901744646
 20
595.496767020977
 30
0.0
 11
193.903508353413
 21
596.954373629744
 31
0.0
  0
LINE
  5
360
100
AcDbEntity
  8
Frei
  6
CONTINUOUS
 62
           2
100
AcDbLine
 10
193.506561916425
 20
595.496767020977
 30
0.0
 11
193.903508353415
 21
595.893713457963
 31
0.0
  0
LINE
  5
361
100
AcDbEntity
  8
Frei
  6
CONTINUOUS
 62
           2
100
AcDbLine
 10
192.573740611429
 20
595.496767020977
 30
0.0
 11
191.903508353413
 21
596.166999278998
 31
0.0
  0
LINE
  5
362
100
AcDbEntity
  8
Frei
  6
CONTINUOUS
 62
           2
100
AcDbLine
 10
193.634400783209
 20
595.496767020977
 30
0.0
 11
191.903508353415
 21
597.227659450777
 31
0.0
  0
LINE
  5
363
100
AcDbEntity
  8
Frei
  6
CONTINUOUS
 62
           2
100
AcDbLine
 10
193.903508353415
 20
596.288319622556
 30
0.0
 11
191.903508353415
 21
598.288319622554
 31
0.0
  0
LINE
  5
364
100
AcDbEntity
  8
Frei
  6
CONTINUOUS
 62
           2
100
AcDbLine
 10
193.903508353415
 20
597.348979794335
 30
0.0
 11
191.903508353413
 21
599.348979794335
 31
0.0
  0
LINE
  5
365
100
AcDbEntity
  8
Frei
  6
CONTINUOUS
 62
           2
100
AcDbLine
 10
193.903508353415
 20
598.409639966114
 30
0.0
 11
191.903508353413
 21
600.409639966114
 31
0.0
  0
LINE
  5
366
100
AcDbEntity
  8
Frei
  6
CONTINUOUS
 62
           2
100
AcDbLine
 10
193.903508353413
 20
599.470300137895
 30
0.0
 11
191.903508353415
 21
601.470300137895
 31
0.0
  0
LINE
  5
367
100
AcDbEntity
  8
Frei
  6
CONTINUOUS
 62
           2
100
AcDbLine
 10
193.903508353415
 20
600.530960309674
 30
0.0
 11
191.903508353415
 21
602.530960309674
 31
0.0
  0
LINE
  5
368
100
AcDbEntity
  8
Frei
  6
CONTINUOUS
 62
           2
100
AcDbLine
 10
193.903508353415
 20
601.591620481455
 30
0.0
 11
191.903508353413
 21
603.591620481457
 31
0.0
  0
LINE
  5
369
100
AcDbEntity
  8
Frei
  6
CONTINUOUS
 62
           2
100
AcDbLine
 10
193.903508353415
 20
602.652280653234
 30
0.0
 11
191.903508353413
 21
604.652280653234
 31
0.0
  0
LINE
  5
36A
100
AcDbEntity
  8
Frei
  6
CONTINUOUS
 62
           2
100
AcDbLine
 10
193.903508353413
 20
603.712940825015
 30
0.0
 11
191.903508353415
 21
605.712940825015
 31
0.0
  0
LINE
  5
36B
100
AcDbEntity
  8
Frei
  6
CONTINUOUS
 62
           2
100
AcDbLine
 10
193.903508353413
 20
604.773600996794
 30
0.0
 11
191.903508353415
 21
606.773600996794
 31
0.0
  0
LINE
  5
36C
100
AcDbEntity
  8
Frei
  6
CONTINUOUS
 62
           2
100
AcDbLine
 10
193.903508353415
 20
605.834261168575
 30
0.0
 11
191.903508353413
 21
607.834261168573
 31
0.0
  0
LINE
  5
36D
100
AcDbEntity
  8
Frei
  6
CONTINUOUS
 62
           2
100
AcDbLine
 10
193.903508353411
 20
606.894921340354
 30
0.0
 11
191.903508353413
 21
608.894921340354
 31
0.0
  0
LINE
  5
36E
100
AcDbEntity
  8
Frei
  6
CONTINUOUS
 62
           2
100
AcDbLine
 10
193.903508353413
 20
607.955581512135
 30
0.0
 11
191.903508353415
 21
609.955581512133
 31
0.0
  0
LINE
  5
36F
100
AcDbEntity
  8
Frei
  6
CONTINUOUS
 62
           2
100
AcDbLine
 10
193.903508353413
 20
609.016241683914
 30
0.0
 11
191.903508353415
 21
611.016241683912
 31
0.0
  0
LINE
  5
370
100
AcDbEntity
  8
Frei
  6
CONTINUOUS
 62
           2
100
AcDbLine
 10
193.903508353415
 20
610.076901855691
 30
0.0
 11
191.903508353413
 21
612.076901855691
 31
0.0
  0
LINE
  5
371
100
AcDbEntity
  8
Frei
  6
CONTINUOUS
 62
           2
100
AcDbLine
 10
193.903508353411
 20
611.137562027472
 30
0.0
 11
191.903508353413
 21
613.137562027472
 31
0.0
  0
LINE
  5
372
100
AcDbEntity
  8
Frei
  6
CONTINUOUS
 62
           2
100
AcDbLine
 10
193.903508353413
 20
612.198222199251
 30
0.0
 11
191.903508353415
 21
614.198222199253
 31
0.0
  0
LINE
  5
373
100
AcDbEntity
  8
Frei
  6
CONTINUOUS
 62
           2
100
AcDbLine
 10
193.903508353413
 20
613.258882371032
 30
0.0
 11
191.903508353415
 21
615.258882371032
 31
0.0
  0
LINE
  5
374
100
AcDbEntity
  8
Frei
  6
CONTINUOUS
 62
           2
100
AcDbLine
 10
193.903508353415
 20
614.319542542811
 30
0.0
 11
192.726283875247
 21
615.496767020979
 31
0.0
  0
LINE
  5
375
100
AcDbEntity
  8
Frei
  6
CONTINUOUS
 62
           2
100
AcDbLine
 10
193.903508353413
 20
615.380202714592
 30
0.0
 11
193.786944047026
 21
615.496767020977
 31
0.0
  0
ENDBLK
  5
376
100
AcDbEntity
  8
0
  6
BYBLOCK
 62
           0
100
AcDbBlockEnd
  0
BLOCK
  5
377
100
AcDbEntity
  8
0
100
AcDbBlockBegin
  2
MAK2
 70
          64
 10
0.0
 20
0.0
 30
0.0
  3
MAK2
  1

  0
LINE
  5
378
100
AcDbEntity
  8
Frei
  6
CONTINUOUS
 62
           2
100
AcDbLine
 10
-32.096491646587
 20
614.906213139102
 30
0.0
 11
-31.505937764712
 21
615.496767020979
 31
0.0
  0
LINE
  5
379
100
AcDbEntity
  8
Frei
  6
CONTINUOUS
 62
           2
100
AcDbLine
 10
-32.096491646587
 20
613.845552967323
 30
0.0
 11
-30.445277592933
 21
615.496767020979
 31
0.0
  0
LINE
  5
37A
100
AcDbEntity
  8
Frei
  6
CONTINUOUS
 62
           2
100
AcDbLine
 10
-32.096491646589
 20
612.784892795542
 30
0.0
 11
-30.096491646589
 21
614.78489279554
 31
0.0
  0
LINE
  5
37B
100
AcDbEntity
  8
Frei
  6
CONTINUOUS
 62
           2
100
AcDbLine
 10
-32.096491646589
 20
611.724232623761
 30
0.0
 11
-30.096491646589
 21
613.724232623763
 31
0.0
  0
LINE
  5
37C
100
AcDbEntity
  8
Frei
  6
CONTINUOUS
 62
           2
100
AcDbLine
 10
-32.096491646587
 20
610.663572451982
 30
0.0
 11
-30.096491646589
 21
612.663572451982
 31
0.0
  0
LINE
  5
37D
100
AcDbEntity
  8
Frei
  6
CONTINUOUS
 62
           2
100
AcDbLine
 10
-32.096491646587
 20
609.602912280203
 30
0.0
 11
-30.096491646587
 21
611.602912280203
 31
0.0
  0
LINE
  5
37E
100
AcDbEntity
  8
Frei
  6
CONTINUOUS
 62
           2
100
AcDbLine
 10
-32.096491646589
 20
608.542252108422
 30
0.0
 11
-30.096491646589
 21
610.542252108424
 31
0.0
  0
LINE
  5
37F
100
AcDbEntity
  8
Frei
  6
CONTINUOUS
 62
           2
100
AcDbLine
 10
-32.096491646589
 20
607.481591936643
 30
0.0
 11
-30.096491646589
 21
609.481591936643
 31
0.0
  0
LINE
  5
380
100
AcDbEntity
  8
Frei
  6
CONTINUOUS
 62
           2
100
AcDbLine
 10
-32.096491646589
 20
606.420931764864
 30
0.0
 11
-30.096491646589
 21
608.420931764864
 31
0.0
  0
LINE
  5
381
100
AcDbEntity
  8
Frei
  6
CONTINUOUS
 62
           2
100
AcDbLine
 10
-32.096491646587
 20
605.360271593083
 30
0.0
 11
-30.096491646587
 21
607.360271593083
 31
0.0
  0
LINE
  5
382
100
AcDbEntity
  8
Frei
  6
CONTINUOUS
 62
           2
100
AcDbLine
 10
-32.096491646589
 20
604.299611421304
 30
0.0
 11
-30.096491646589
 21
606.299611421304
 31
0.0
  0
LINE
  5
383
100
AcDbEntity
  8
Frei
  6
CONTINUOUS
 62
           2
100
AcDbLine
 10
-32.096491646589
 20
603.238951249525
 30
0.0
 11
-30.096491646589
 21
605.238951249523
 31
0.0
  0
LINE
  5
384
100
AcDbEntity
  8
Frei
  6
CONTINUOUS
 62
           2
100
AcDbLine
 10
-32.096491646587
 20
602.178291077744
 30
0.0
 11
-30.096491646589
 21
604.178291077742
 31
0.0
  0
LINE
  5
385
100
AcDbEntity
  8
Frei
  6
CONTINUOUS
 62
           2
100
AcDbLine
 10
-32.096491646587
 20
601.117630905965
 30
0.0
 11
-30.096491646587
 21
603.117630905963
 31
0.0
  0
LINE
  5
386
100
AcDbEntity
  8
Frei
  6
CONTINUOUS
 62
           2
100
AcDbLine
 10
-32.096491646589
 20
600.056970734184
 30
0.0
 11
-30.096491646589
 21
602.056970734184
 31
0.0
  0
LINE
  5
387
100
AcDbEntity
  8
Frei
  6
CONTINUOUS
 62
           2
100
AcDbLine
 10
-32.096491646589
 20
598.996310562405
 30
0.0
 11
-30.096491646589
 21
600.996310562405
 31
0.0
  0
LINE
  5
388
100
AcDbEntity
  8
Frei
  6
CONTINUOUS
 62
           2
100
AcDbLine
 10
-32.096491646589
 20
597.935650390626
 30
0.0
 11
-30.096491646589
 21
599.935650390626
 31
0.0
  0
LINE
  5
389
100
AcDbEntity
  8
Frei
  6
CONTINUOUS
 62
           2
100
AcDbLine
 10
-32.096491646587
 20
596.874990218845
 30
0.0
 11
-30.096491646587
 21
598.874990218847
 31
0.0
  0
LINE
  5
38A
100
AcDbEntity
  8
Frei
  6
CONTINUOUS
 62
           2
100
AcDbLine
 10
-32.096491646589
 20
595.814330047066
 30
0.0
 11
-30.096491646589
 21
597.814330047066
 31
0.0
  0
LINE
  5
38B
100
AcDbEntity
  8
Frei
  6
CONTINUOUS
 62
           2
100
AcDbLine
 10
-31.353394500895
 20
595.496767020979
 30
0.0
 11
-30.096491646589
 21
596.753669875285
 31
0.0
  0
LINE
  5
38C
100
AcDbEntity
  8
Frei
  6
CONTINUOUS
 62
           2
100
AcDbLine
 10
-30.292734329114
 20
595.496767020977
 30
0.0
 11
-30.096491646589
 21
595.693009703506
 31
0.0
  0
LINE
  5
38D
100
AcDbEntity
  8
Frei
  6
CONTINUOUS
 62
           2
100
AcDbLine
 10
-31.225555634112
 20
595.496767020977
 30
0.0
 11
-32.096491646589
 21
596.367703033453
 31
0.0
  0
LINE
  5
38E
100
AcDbEntity
  8
Frei
  6
CONTINUOUS
 62
           2
100
AcDbLine
 10
-30.164895462331
 20
595.496767020977
 30
0.0
 11
-32.096491646587
 21
597.428363205232
 31
0.0
  0
LINE
  5
38F
100
AcDbEntity
  8
Frei
  6
CONTINUOUS
 62
           2
100
AcDbLine
 10
-30.096491646589
 20
596.489023377013
 30
0.0
 11
-32.096491646589
 21
598.489023377013
 31
0.0
  0
LINE
  5
390
100
AcDbEntity
  8
Frei
  6
CONTINUOUS
 62
           2
100
AcDbLine
 10
-30.096491646589
 20
597.549683548792
 30
0.0
 11
-32.096491646589
 21
599.549683548794
 31
0.0
  0
LINE
  5
391
100
AcDbEntity
  8
Frei
  6
CONTINUOUS
 62
           2
100
AcDbLine
 10
-30.096491646587
 20
598.610343720573
 30
0.0
 11
-32.096491646589
 21
600.610343720573
 31
0.0
  0
LINE
  5
392
100
AcDbEntity
  8
Frei
  6
CONTINUOUS
 62
           2
100
AcDbLine
 10
-30.096491646589
 20
599.671003892352
 30
0.0
 11
-32.096491646587
 21
601.671003892352
 31
0.0
  0
LINE
  5
393
100
AcDbEntity
  8
Frei
  6
CONTINUOUS
 62
           2
100
AcDbLine
 10
-30.096491646587
 20
600.731664064133
 30
0.0
 11
-32.096491646589
 21
602.731664064133
 31
0.0
  0
LINE
  5
394
100
AcDbEntity
  8
Frei
  6
CONTINUOUS
 62
           2
100
AcDbLine
 10
-30.096491646589
 20
601.792324235914
 30
0.0
 11
-32.096491646589
 21
603.792324235912
 31
0.0
  0
LINE
  5
395
100
AcDbEntity
  8
Frei
  6
CONTINUOUS
 62
           2
100
AcDbLine
 10
-30.096491646587
 20
602.852984407693
 30
0.0
 11
-32.096491646589
 21
604.852984407693
 31
0.0
  0
LINE
  5
396
100
AcDbEntity
  8
Frei
  6
CONTINUOUS
 62
           2
100
AcDbLine
 10
-30.096491646589
 20
603.913644579472
 30
0.0
 11
-32.096491646587
 21
605.913644579472
 31
0.0
  0
LINE
  5
397
100
AcDbEntity
  8
Frei
  6
CONTINUOUS
 62
           2
100
AcDbLine
 10
-30.096491646587
 20
604.974304751253
 30
0.0
 11
-32.096491646589
 21
606.974304751253
 31
0.0
  0
LINE
  5
398
100
AcDbEntity
  8
Frei
  6
CONTINUOUS
 62
           2
100
AcDbLine
 10
-30.096491646589
 20
606.034964923032
 30
0.0
 11
-32.096491646589
 21
608.034964923032
 31
0.0
  0
LINE
  5
399
100
AcDbEntity
  8
Frei
  6
CONTINUOUS
 62
           2
100
AcDbLine
 10
-30.096491646587
 20
607.095625094813
 30
0.0
 11
-32.096491646589
 21
609.095625094811
 31
0.0
  0
LINE
  5
39A
100
AcDbEntity
  8
Frei
  6
CONTINUOUS
 62
           2
100
AcDbLine
 10
-30.096491646589
 20
608.15628526659
 30
0.0
 11
-32.096491646587
 21
610.15628526659
 31
0.0
  0
LINE
  5
39B
100
AcDbEntity
  8
Frei
  6
CONTINUOUS
 62
           2
100
AcDbLine
 10
-30.096491646587
 20
609.216945438369
 30
0.0
 11
-32.096491646589
 21
611.216945438369
 31
0.0
  0
LINE
  5
39C
100
AcDbEntity
  8
Frei
  6
CONTINUOUS
 62
           2
100
AcDbLine
 10
-30.096491646589
 20
610.27760561015
 30
0.0
 11
-32.096491646589
 21
612.27760561015
 31
0.0
  0
LINE
  5
39D
100
AcDbEntity
  8
Frei
  6
CONTINUOUS
 62
           2
100
AcDbLine
 10
-30.096491646587
 20
611.338265781929
 30
0.0
 11
-32.096491646589
 21
613.338265781931
 31
0.0
  0
LINE
  5
39E
100
AcDbEntity
  8
Frei
  6
CONTINUOUS
 62
           2
100
AcDbLine
 10
-30.096491646589
 20
612.39892595371
 30
0.0
 11
-32.096491646587
 21
614.39892595371
 31
0.0
  0
LINE
  5
39F
100
AcDbEntity
  8
Frei
  6
CONTINUOUS
 62
           2
100
AcDbLine
 10
-30.096491646587
 20
613.459586125489
 30
0.0
 11
-32.096491646589
 21
615.459586125487
 31
0.0
  0
LINE
  5
3A0
100
AcDbEntity
  8
Frei
  6
CONTINUOUS
 62
           2
100
AcDbLine
 10
-30.096491646589
 20
614.52024629727
 30
0.0
 11
-31.073012370296
 21
615.496767020977
 31
0.0
  0
ENDBLK
  5
3A1
100
AcDbEntity
  8
0
  6
BYBLOCK
 62
           0
100
AcDbBlockEnd
  0
ENDSEC
  0
SECTION
  2
ENTITIES
  0
INSERT
  5
26
100
AcDbEntity
  8
FREI
  6
CONTINUOUS
 62
           7
100
AcDbBlockReference
  2
MAK1
 10
-14467.359432980076
 20
-14717.37396651012
 30
0.0
 50
356.344999999999
  0
INSERT
  5
27
100
AcDbEntity
  8
FREI
  6
CONTINUOUS
 62
           7
100
AcDbBlockReference
  2
MAK2
 10
-14467.359432980076
 20
-14717.37396651012
 30
0.0
 50
356.344999999999
  0
LINE
  5
28
100
AcDbEntity
  8
FREI
  6
CONTINUOUS
 62
          15
100
AcDbLine
 10
-14567.721984921503
 20
-13785.855339150889
 30
0.0
 11
-14862.439555792604
 21
-13907.931354075352
 31
0.0
  0
LINE
  5
29
100
AcDbEntity
  8
FREI
  6
CONTINUOUS
 62
          15
100
AcDbLine
 10
-14671.072175635069
 20
-14369.933078647484
 30
0.0
 11
-14638.569747859026
 21
-14448.400880594456
 31
0.0
  0
LINE
  5
2A
100
AcDbEntity
  8
FREI
  6
CONTINUOUS
 62
          15
100
AcDbLine
 10
-14862.439555792604
 20
-13907.931354075352
 30
0.0
 11
-14843.713731581705
 21
-13953.13949285192
 31
0.0
  0
LINE
  5
2B
100
AcDbEntity
  8
FREI
  6
CONTINUOUS
 62
          15
100
AcDbLine
 10
-14638.569747859026
 20
-14448.400880594456
 30
0.0
 11
-14343.852176987926
 21
-14326.324865669989
 31
0.0
  0
LINE
  5
2C
100
AcDbEntity
  8
FREI
  6
CONTINUOUS
 62
          15
100
AcDbLine
 10
-14447.055735532047
 20
-14077.169434947607
 30
0.0
 11
-14567.721984921503
 21
-13785.855339150889
 31
0.0
  0
LINE
  5
2D
100
AcDbEntity
  8
FREI
  6
GESTRICHELT
 62
          15
100
AcDbLine
 10
-14412.422671103081
 20
-14160.781048798557
 30
0.0
 11
-14447.055735532047
 21
-14077.169434947607
 31
0.0
  0
LINE
  5
2E
100
AcDbEntity
  8
FREI
  6
CONTINUOUS
 62
          15
100
AcDbLine
 10
-14343.852176987926
 20
-14326.324865669989
 30
0.0
 11
-14412.422671103081
 21
-14160.781048798557
 31
0.0
  0
LINE
  5
2F
100
AcDbEntity
  8
FREI
  6
STRICHPUNKT
 62
          15
100
AcDbLine
 10
-14491.210962423476
 20
-14387.362873132222
 30
0.0
 11
-14715.080770357054
 21
-13846.893346613122
 31
0.0
  0
LINE
  5
30
100
AcDbEntity
  8
FREI
  6
STRICHPUNKT
 62
          15
100
AcDbLine
 10
-14671.072175635069
 20
-13953.139492851917
 30
0.0
 11
-14850.933388846661
 21
-14387.362873132226
 31
0.0
  0
LINE
  5
31
100
AcDbEntity
  8
FREI
  6
CONTINUOUS
 62
          15
100
AcDbLine
 10
-14843.713731581705
 20
-13953.13949285192
 30
0.0
 11
-14998.292174282211
 21
-14326.324865669993
 31
0.0
  0
LINE
  5
32
100
AcDbEntity
  8
FREI
  6
CONTINUOUS
 62
          15
100
AcDbLine
 10
-14671.072175635069
 20
-14369.933078647484
 30
0.0
 11
-14703.574603411111
 21
-14448.400880594456
 31
0.0
  0
LINE
  5
33
100
AcDbEntity
  8
FREI
  6
CONTINUOUS
 62
          15
100
AcDbLine
 10
-14703.574603411111
 20
-14448.400880594456
 30
0.0
 11
-14998.292174282211
 21
-14326.324865669993
 31
0.0
  0
LINE
  5
34
100
AcDbEntity
  8
FREI
  6
CONTINUOUS
 62
          15
100
AcDbLine
 10
-14498.430619688432
 20
-13953.139492851917
 30
0.0
 11
-14843.713731581705
 21
-13953.13949285192
 31
0.0
  0
LINE
  5
35
100
AcDbEntity
  8
FREI
  6
CONTINUOUS
 62
          15
100
AcDbLine
 10
-14671.072175635069
 20
-14080.781048798557
 30
0.0
 11
-14671.072175635069
 21
-13953.139492851917
 31
0.0
  0
LINE
  5
36
100
AcDbEntity
  8
FREI
  6
GESTRICHELT
 62
          15
100
AcDbLine
 10
-14671.072175635069
 20
-14115.781048798557
 30
0.0
 11
-14671.072175635069
 21
-14080.781048798557
 31
0.0
  0
LINE
  5
37
100
AcDbEntity
  8
FREI
  6
GESTRICHELT
 62
          15
100
AcDbLine
 10
-14671.072175635069
 20
-14160.781048798557
 30
0.0
 11
-14671.072175635069
 21
-14135.781048798557
 31
0.0
  0
LINE
  5
38
100
AcDbEntity
  8
FREI
  6
CONTINUOUS
 62
          15
100
AcDbLine
 10
-14671.072175635069
 20
-14369.933078647484
 30
0.0
 11
-14671.072175635069
 21
-14160.781048798557
 31
0.0
  0
CIRCLE
  5
39
100
AcDbEntity
  8
Frei
  6
CONTINUOUS
 62
           7
100
AcDbCircle
 10
-14180.183228635069
 20
-14125.781048798557
 30
0.0
 40
6.25
  0
CIRCLE
  5
3A
100
AcDbEntity
  8
FREI
  6
CONTINUOUS
 62
          15
100
AcDbCircle
 10
-14605.476728826769
 20
-14098.610525100636
 30
0.0
 40
8.25
  0
ARC
  5
3B
100
AcDbEntity
  8
FREI
  6
CONTINUOUS
 62
          15
100
AcDbCircle
 10
-14671.072175635069
 20
-14125.781048798557
 30
0.0
 40
20.25
100
AcDbArc
 50
110.885820858497
 51
319.617816039371
  0
ARC
  5
3C
100
AcDbEntity
  8
FREI
  6
CONTINUOUS
 62
          15
100
AcDbCircle
 10
-14605.476728826769
 20
-14098.610525100636
 30
0.0
 40
18.25
100
AcDbArc
 50
57.570939232536
 51
110.885820858496
  0
ARC
  5
3D
100
AcDbEntity
  8
FREI
  6
GESTRICHELT
 62
          15
100
AcDbCircle
 10
-14605.476728826769
 20
-14098.610525100636
 30
0.0
 40
18.25
100
AcDbArc
 50
295.074360346149
 51
57.570939232536
  0
ARC
  5
3E
100
AcDbEntity
  8
FREI
  6
CONTINUOUS
 62
          15
100
AcDbCircle
 10
-14605.476728826769
 20
-14098.610525100636
 30
0.0
 40
18.25
100
AcDbArc
 50
237.615639653848
 51
295.074360346149
  0
ARC
  5
3F
100
AcDbEntity
  8
FREI
  6
GESTRICHELT
 62
          15
100
AcDbCircle
 10
-14605.476728826769
 20
-14098.610525100636
 30
0.0
 40
18.25
100
AcDbArc
 50
211.802481262961
 51
237.615639653848
  0
LINE
  5
40
100
AcDbEntity
  8
FREI
  6
CONTINUOUS
 62
          15
100
AcDbLine
 10
-14613.34349752908
 20
-14082.078828980428
 30
0.0
 11
-14611.982977895572
 21
-14081.559682803121
 31
0.0
  0
LINE
  5
41
100
AcDbEntity
  8
FREI
  6
GESTRICHELT
 62
          15
100
AcDbLine
 10
-14622.126467029548
 20
-14085.430228643661
 30
0.0
 11
-14613.34349752908
 21
-14082.078828980428
 31
0.0
  0
LINE
  5
42
100
AcDbEntity
  8
FREI
  6
CONTINUOUS
 62
          15
100
AcDbLine
 10
-14678.291438300454
 20
-14106.861621043781
 30
0.0
 11
-14622.126467029548
 21
-14085.430228643661
 31
0.0
  0
LINE
  5
43
100
AcDbEntity
  8
FREI
  6
CONTINUOUS
 62
          15
100
AcDbLine
 10
-14629.044902357842
 20
-14107.623687712819
 30
0.0
 11
-14655.646944631233
 21
-14138.90068097626
 31
0.0
  0
ARC
  5
44
100
AcDbEntity
  8
FREI
  6
CONTINUOUS
 62
          15
100
AcDbCircle
 10
-14625.23620334455
 20
-14110.86310306534
 30
0.0
 40
5.0
100
AcDbArc
 50
84.4865011185
 51
139.617816039369
  0
ARC
  5
45
100
AcDbEntity
  8
FREI
  6
GESTRICHELT
 62
          15
100
AcDbCircle
 10
-14625.23620334455
 20
-14110.86310306534
 30
0.0
 40
5.0
100
AcDbArc
 50
31.802481262955
 51
84.4865011185
  0
LINE
  5
46
100
AcDbEntity
  8
Frei
  6
GESTRICHELT
 62
           7
100
AcDbLine
 10
-14203.165938194326
 20
-14124.312762975349
 30
0.0
 11
-14201.8909676476
 21
-14104.353443094526
 31
0.0
  0
LINE
  5
47
100
AcDbEntity
  8
Frei
  6
GESTRICHELT
 62
           7
100
AcDbLine
 10
-14201.8909676476
 20
-14104.353443094526
 30
0.0
 11
-14205.882831623763
 21
-14104.098448985182
 31
0.0
  0
LINE
  5
48
100
AcDbEntity
  8
Frei
  6
CONTINUOUS
 62
           7
100
AcDbLine
 10
-14205.117849295728
 20
-14092.122857056687
 30
0.0
 11
-14234.657642719345
 21
-14090.235900647533
 31
0.0
  0
LINE
  5
49
100
AcDbEntity
  8
Frei
  6
CONTINUOUS
 62
           7
100
AcDbLine
 10
-14234.657642719345
 20
-14090.235900647533
 30
0.0
 11
-14234.689516983013
 21
-14090.734883644553
 31
0.0
  0
LINE
  5
4A
100
AcDbEntity
  8
Frei
  6
CONTINUOUS
 62
           7
100
AcDbLine
 10
-14234.689516983013
 20
-14090.734883644553
 30
0.0
 11
-14456.928246500349
 21
-14076.538802439454
 31
0.0
  0
LINE
  5
4B
100
AcDbEntity
  8
Frei
  6
CONTINUOUS
 62
           7
100
AcDbLine
 10
-14456.928246500349
 20
-14076.538802439454
 30
0.0
 11
-14456.896372236681
 21
-14076.039819442434
 31
0.0
  0
LINE
  5
4C
100
AcDbEntity
  8
Frei
  6
CONTINUOUS
 62
           7
100
AcDbLine
 10
-14456.896372236681
 20
-14076.039819442434
 30
0.0
 11
-14486.436165660298
 21
-14074.152863033278
 31
0.0
  0
LINE
  5
4D
100
AcDbEntity
  8
Frei
  6
CONTINUOUS
 62
           7
100
AcDbLine
 10
-14486.436165660298
 20
-14074.152863033278
 30
0.0
 11
-14487.201147988333
 21
-14086.128454961772
 31
0.0
  0
LINE
  5
4E
100
AcDbEntity
  8
Frei
  6
CONTINUOUS
 62
           7
100
AcDbLine
 10
-14487.201147988333
 20
-14086.128454961772
 30
0.0
 11
-14498.677756919808
 21
-14085.395346897403
 31
0.0
  0
LINE
  5
4F
100
AcDbEntity
  8
Frei
  6
CONTINUOUS
 62
           7
100
AcDbLine
 10
-14498.677756919808
 20
-14085.395346897403
 30
0.0
 11
-14498.741505447142
 21
-14086.393312891445
 31
0.0
  0
LINE
  5
50
100
AcDbEntity
  8
Frei
  6
CONTINUOUS
 62
           7
100
AcDbLine
 10
-14498.741505447142
 20
-14086.393312891445
 30
0.0
 11
-14515.207944348822
 21
-14085.341462190396
 31
0.0
  0
LINE
  5
51
100
AcDbEntity
  8
Frei
  6
CONTINUOUS
 62
           7
100
AcDbLine
 10
-14515.207944348822
 20
-14085.341462190396
 30
0.0
 11
-14517.630388387603
 21
-14123.264169963957
 31
0.0
  0
LINE
  5
52
100
AcDbEntity
  8
Frei
  6
CONTINUOUS
 62
           7
100
AcDbLine
 10
-14517.630388387603
 20
-14123.264169963957
 30
0.0
 11
-14501.163949485923
 21
-14124.316020665006
 31
0.0
  0
LINE
  5
53
100
AcDbEntity
  8
Frei
  6
CONTINUOUS
 62
           7
100
AcDbLine
 10
-14501.163949485923
 20
-14124.316020665006
 30
0.0
 11
-14501.227698013259
 21
-14125.313986659048
 31
0.0
  0
LINE
  5
54
100
AcDbEntity
  8
Frei
  6
CONTINUOUS
 62
           7
100
AcDbLine
 10
-14501.227698013259
 20
-14125.313986659048
 30
0.0
 11
-14489.751089081787
 21
-14126.047094723415
 31
0.0
  0
LINE
  5
55
100
AcDbEntity
  8
Frei
  6
CONTINUOUS
 62
           7
100
AcDbLine
 10
-14489.751089081787
 20
-14126.047094723415
 30
0.0
 11
-14490.516071409824
 21
-14138.02268665191
 31
0.0
  0
LINE
  5
56
100
AcDbEntity
  8
Frei
  6
CONTINUOUS
 62
           7
100
AcDbLine
 10
-14490.516071409824
 20
-14138.02268665191
 30
0.0
 11
-14460.976277986207
 21
-14139.909643061064
 31
0.0
  0
LINE
  5
57
100
AcDbEntity
  8
Frei
  6
CONTINUOUS
 62
           7
100
AcDbLine
 10
-14460.976277986207
 20
-14139.909643061064
 30
0.0
 11
-14460.944403722538
 21
-14139.410660064044
 31
0.0
  0
LINE
  5
58
100
AcDbEntity
  8
Frei
  6
CONTINUOUS
 62
           7
100
AcDbLine
 10
-14240.547756803826
 20
-14153.489073416138
 30
0.0
 11
-14238.705674205201
 21
-14153.606741269143
 31
0.0
  0
LINE
  5
59
100
AcDbEntity
  8
Frei
  6
GESTRICHELT
 62
           7
100
AcDbLine
 10
-14268.490806123289
 20
-14151.704137918538
 30
0.0
 11
-14240.547756803826
 21
-14153.489073416138
 31
0.0
  0
LINE
  5
5A
100
AcDbEntity
  8
Frei
  6
CONTINUOUS
 62
           7
100
AcDbLine
 10
-14431.15927180445
 20
-14141.313263414648
 30
0.0
 11
-14268.490806123289
 21
-14151.704137918538
 31
0.0
  0
LINE
  5
5B
100
AcDbEntity
  8
Frei
  6
GESTRICHELT
 62
           7
100
AcDbLine
 10
-14459.102321123913
 20
-14139.528327917047
 30
0.0
 11
-14431.15927180445
 21
-14141.313263414648
 31
0.0
  0
LINE
  5
5C
100
AcDbEntity
  8
Frei
  6
CONTINUOUS
 62
           7
100
AcDbLine
 10
-14460.944403722538
 20
-14139.410660064044
 30
0.0
 11
-14459.102321123913
 21
-14139.528327917047
 31
0.0
  0
LINE
  5
5D
100
AcDbEntity
  8
Frei
  6
CONTINUOUS
 62
           7
100
AcDbLine
 10
-14238.705674205201
 20
-14153.606741269143
 30
0.0
 11
-14238.737548468869
 21
-14154.105724266163
 31
0.0
  0
LINE
  5
5E
100
AcDbEntity
  8
Frei
  6
CONTINUOUS
 62
           7
100
AcDbLine
 10
-14238.737548468869
 20
-14154.105724266163
 30
0.0
 11
-14209.197755045254
 21
-14155.992680675317
 31
0.0
  0
LINE
  5
5F
100
AcDbEntity
  8
Frei
  6
GESTRICHELT
 62
           7
100
AcDbLine
 10
-14208.432772717217
 20
-14144.017088746825
 30
0.0
 11
-14204.440908741053
 21
-14144.272082856171
 31
0.0
  0
LINE
  5
60
100
AcDbEntity
  8
Frei
  6
GESTRICHELT
 62
           7
100
AcDbLine
 10
-14204.440908741053
 20
-14144.272082856171
 30
0.0
 11
-14203.165938194326
 21
-14124.312762975349
 31
0.0
  0
LINE
  5
61
100
AcDbEntity
  8
Frei
  6
CONTINUOUS
 62
           7
100
AcDbLine
 10
-14237.53908206547
 20
-14135.344056105851
 30
0.0
 11
-14238.705674205201
 21
-14153.606741269143
 31
0.0
  0
LINE
  5
62
100
AcDbEntity
  8
Frei
  6
GESTRICHELT
 62
           7
100
AcDbLine
 10
-14236.264111518745
 20
-14115.384736225029
 30
0.0
 11
-14237.53908206547
 21
-14135.344056105851
 31
0.0
  0
LINE
  5
63
100
AcDbEntity
  8
Frei
  6
CONTINUOUS
 62
           7
100
AcDbLine
 10
-14234.689516983013
 20
-14090.734883644553
 30
0.0
 11
-14236.264111518745
 21
-14115.384736225029
 31
0.0
  0
LINE
  5
64
100
AcDbEntity
  8
Frei
  6
CONTINUOUS
 62
           7
100
AcDbLine
 10
-14459.77779976176
 20
-14121.147789845429
 30
0.0
 11
-14460.944403722538
 21
-14139.410660064044
 31
0.0
  0
LINE
  5
65
100
AcDbEntity
  8
Frei
  6
GESTRICHELT
 62
           7
100
AcDbLine
 10
-14458.502829215033
 20
-14101.188469964607
 30
0.0
 11
-14459.77779976176
 21
-14121.147789845429
 31
0.0
  0
LINE
  5
66
100
AcDbEntity
  8
Frei
  6
CONTINUOUS
 62
           7
100
AcDbLine
 10
-14456.928246500349
 20
-14076.538802439454
 30
0.0
 11
-14458.502829215033
 21
-14101.188469964607
 31
0.0
  0
LINE
  5
67
100
AcDbEntity
  8
Frei
  6
CONTINUOUS
 62
           7
100
AcDbLine
 10
-14487.201147988333
 20
-14086.128454961772
 30
0.0
 11
-14489.751089081787
 21
-14126.047094723415
 31
0.0
  0
LINE
  5
68
100
AcDbEntity
  8
Frei
  6
CONTINUOUS
 62
           7
100
AcDbLine
 10
-14498.677756919808
 20
-14085.395346897403
 30
0.0
 11
-14501.227698013259
 21
-14125.313986659048
 31
0.0
  0
LINE
  5
69
100
AcDbEntity
  8
Frei
  6
GESTRICHELT
 62
           7
100
AcDbLine
 10
-14533.124054085109
 20
-14095.219428421286
 30
0.0
 11
-14555.907555394089
 21
-14093.764053524061
 31
0.0
  0
LINE
  5
6A
100
AcDbEntity
  8
Frei
  6
CONTINUOUS
 62
           7
100
AcDbLine
 10
-14524.890872095892
 20
-14095.74535137882
 30
0.0
 11
-14533.124054085109
 21
-14095.219428421286
 31
0.0
  0
LINE
  5
6B
100
AcDbEntity
  8
Frei
  6
GESTRICHELT
 62
           7
100
AcDbLine
 10
-14534.144030522491
 20
-14111.186884325944
 30
0.0
 11
-14556.92753183147
 21
-14109.731509428717
 31
0.0
  0
LINE
  5
6C
100
AcDbEntity
  8
Frei
  6
CONTINUOUS
 62
           7
100
AcDbLine
 10
-14525.910848533273
 20
-14111.712807283478
 30
0.0
 11
-14534.144030522491
 21
-14111.186884325944
 31
0.0
  0
LINE
  5
6D
100
AcDbEntity
  8
Frei
  6
CONTINUOUS
 62
           7
100
AcDbLine
 10
-14556.884441475149
 20
-14094.623666933814
 30
0.0
 11
-14555.907555394089
 21
-14093.764053524061
 31
0.0
  0
LINE
  5
6E
100
AcDbEntity
  8
Frei
  6
CONTINUOUS
 62
           7
100
AcDbLine
 10
-14557.787102772645
 20
-14108.754585978959
 30
0.0
 11
-14556.92753183147
 21
-14109.731509428717
 31
0.0
  0
LINE
  5
6F
100
AcDbEntity
  8
Frei
  6
GESTRICHELT
 62
           7
100
AcDbLine
 10
-14556.884441475149
 20
-14094.623666933814
 30
0.0
 11
-14557.787102772645
 21
-14108.754585978959
 31
0.0
  0
LINE
  5
70
100
AcDbEntity
  8
Frei
  6
CONTINUOUS
 62
           7
100
AcDbLine
 10
-14533.182711655052
 20
-14096.137696851043
 30
0.0
 11
-14524.949529665833
 21
-14096.663619808578
 31
0.0
  0
LINE
  5
71
100
AcDbEntity
  8
Frei
  6
GESTRICHELT
 62
           7
100
AcDbLine
 10
-14556.884441475149
 20
-14094.623666933814
 30
0.0
 11
-14533.182711655052
 21
-14096.137696851043
 31
0.0
  0
LINE
  5
72
100
AcDbEntity
  8
Frei
  6
CONTINUOUS
 62
           7
100
AcDbLine
 10
-14534.085372952548
 20
-14110.268615896188
 30
0.0
 11
-14525.852190963329
 21
-14110.794538853721
 31
0.0
  0
LINE
  5
73
100
AcDbEntity
  8
Frei
  6
GESTRICHELT
 62
           7
100
AcDbLine
 10
-14557.787102772645
 20
-14108.754585978959
 30
0.0
 11
-14534.085372952548
 21
-14110.268615896188
 31
0.0
  0
LINE
  5
74
100
AcDbEntity
  8
Frei
  6
GESTRICHELT
 62
           7
100
AcDbLine
 10
-14555.907555394089
 20
-14093.764053524061
 30
0.0
 11
-14556.92753183147
 21
-14109.731509428717
 31
0.0
  0
LINE
  5
75
100
AcDbEntity
  8
Frei
  6
CONTINUOUS
 62
           7
100
AcDbLine
 10
-14515.781681094848
 20
-14094.323156136765
 30
0.0
 11
-14524.763375041219
 21
-14093.749419390739
 31
0.0
  0
LINE
  5
76
100
AcDbEntity
  8
Frei
  6
CONTINUOUS
 62
           7
100
AcDbLine
 10
-14524.763375041219
 20
-14093.749419390739
 30
0.0
 11
-14526.038345587946
 21
-14113.70873927156
 31
0.0
  0
LINE
  5
77
100
AcDbEntity
  8
Frei
  6
CONTINUOUS
 62
           7
100
AcDbLine
 10
-14526.038345587946
 20
-14113.70873927156
 30
0.0
 11
-14517.056651641575
 21
-14114.282476017586
 31
0.0
  0
LINE
  5
78
100
AcDbEntity
  8
Frei
  6
CONTINUOUS
 62
           7
100
AcDbLine
 10
-14525.065043909823
 20
-14098.471964128759
 30
0.0
 11
-14518.411933956329
 21
-14098.896954523498
 31
0.0
  0
LINE
  5
79
100
AcDbEntity
  8
Frei
  6
CONTINUOUS
 62
           7
100
AcDbLine
 10
-14525.73667671934
 20
-14108.98619453354
 30
0.0
 11
-14519.083566765845
 21
-14109.411184928276
 31
0.0
  0
LINE
  5
7A
100
AcDbEntity
  8
Frei
  6
CONTINUOUS
 62
           7
100
AcDbLine
 10
-14518.411933956329
 20
-14098.896954523498
 30
0.0
 11
-14519.083566765845
 21
-14109.411184928276
 31
0.0
  0
LINE
  5
7B
100
AcDbEntity
  8
Frei
  6
CONTINUOUS
 62
           7
100
AcDbLine
 10
-14525.065043909823
 20
-14098.471964128759
 30
0.0
 11
-14519.083566765845
 21
-14109.411184928276
 31
0.0
  0
LINE
  5
7C
100
AcDbEntity
  8
Frei
  6
CONTINUOUS
 62
           7
100
AcDbLine
 10
-14518.411933956329
 20
-14098.896954523498
 30
0.0
 11
-14525.73667671934
 21
-14108.98619453354
 31
0.0
  0
CIRCLE
  5
7D
100
AcDbEntity
  8
Frei
  6
CONTINUOUS
 62
           7
100
AcDbCircle
 10
-14475.046457100843
 20
-14115.462965174651
 30
0.0
 40
5.7225
  0
ARC
  5
7E
100
AcDbEntity
  8
Frei
  6
CONTINUOUS
 62
           7
100
AcDbCircle
 10
-14475.046457100843
 20
-14115.462965174651
 30
0.0
 40
6.5785
100
AcDbArc
 50
106.345
 51
16.345
  0
CIRCLE
  5
7F
100
AcDbEntity
  8
Frei
  6
CONTINUOUS
 62
           7
100
AcDbCircle
 10
-14220.587463604706
 20
-14114.682578533944
 30
0.0
 40
5.7225
  0
ARC
  5
80
100
AcDbEntity
  8
Frei
  6
CONTINUOUS
 62
           7
100
AcDbCircle
 10
-14220.587463604706
 20
-14114.682578533944
 30
0.0
 40
6.57849
100
AcDbArc
 50
106.345
 51
16.345
  0
LINE
  5
81
100
AcDbEntity
  8
Frei
  6
CONTINUOUS
 62
           7
100
AcDbLine
 10
-14463.787393110551
 20
-14093.55715737963
 30
0.0
 11
-14472.725648514186
 21
-14101.422043986917
 31
0.0
  0
LINE
  5
82
100
AcDbEntity
  8
Frei
  6
CONTINUOUS
 62
           7
100
AcDbLine
 10
-14464.778317577484
 20
-14092.430996786803
 30
0.0
 11
-14473.716576168546
 21
-14100.295933292391
 31
0.0
  0
CIRCLE
  5
83
100
AcDbEntity
  8
Frei
  6
CONTINUOUS
 62
           7
100
AcDbCircle
 10
-14468.751983364578
 20
-14096.92652537669
 30
0.0
 40
6.0
  0
LINE
  5
84
100
AcDbEntity
  8
Frei
  6
CONTINUOUS
 62
           7
100
AcDbLine
 10
-14221.917045147207
 20
-14129.849629540764
 30
0.0
 11
-14230.855603128066
 21
-14137.714546921792
 31
0.0
  0
LINE
  5
85
100
AcDbEntity
  8
Frei
  6
CONTINUOUS
 62
           7
100
AcDbLine
 10
-14222.908272191366
 20
-14128.72349972168
 30
0.0
 11
-14231.846826984798
 21
-14136.588367204409
 31
0.0
  0
CIRCLE
  5
86
100
AcDbEntity
  8
Frei
  6
CONTINUOUS
 62
           7
100
AcDbCircle
 10
-14226.881937340973
 20
-14133.219018331907
 30
0.0
 40
6.0
  0
LINE
  5
87
100
AcDbEntity
  8
Frei
  6
CONTINUOUS
 62
           7
100
AcDbLine
 10
-14533.242090165671
 20
-14089.343151412526
 30
0.0
 11
-14536.737466059802
 21
-14089.11987219553
 31
0.0
  0
LINE
  5
88
100
AcDbEntity
  8
Frei
  6
CONTINUOUS
 62
           7
100
AcDbLine
 10
-14540.23284195393
 20
-14088.896592978535
 30
0.0
 11
-14536.737466059802
 21
-14089.11987219553
 31
0.0
  0
LINE
  5
89
100
AcDbEntity
  8
Frei
  6
CONTINUOUS
 62
           7
100
AcDbLine
 10
-14541.999543141117
 20
-14116.553823350992
 30
0.0
 11
-14538.504167246989
 21
-14116.777102567989
 31
0.0
  0
LINE
  5
8A
100
AcDbEntity
  8
Frei
  6
CONTINUOUS
 62
           7
100
AcDbLine
 10
-14535.00879135286
 20
-14117.000381784983
 30
0.0
 11
-14538.504167246989
 21
-14116.777102567989
 31
0.0
  0
LINE
  5
8B
100
AcDbEntity
  8
Frei
  6
CONTINUOUS
 62
           7
100
AcDbLine
 10
-14533.683764824984
 20
-14096.257449025979
 30
0.0
 11
-14537.179140719112
 21
-14096.034169808985
 31
0.0
  0
LINE
  5
8C
100
AcDbEntity
  8
Frei
  6
CONTINUOUS
 62
           7
100
AcDbLine
 10
-14540.674516613242
 20
-14095.810890591989
 30
0.0
 11
-14537.179140719112
 21
-14096.034169808985
 31
0.0
  0
LINE
  5
8D
100
AcDbEntity
  8
Frei
  6
CONTINUOUS
 62
           7
100
AcDbLine
 10
-14541.557868481807
 20
-14109.639525737537
 30
0.0
 11
-14538.062492587676
 21
-14109.862804954533
 31
0.0
  0
LINE
  5
8E
100
AcDbEntity
  8
Frei
  6
CONTINUOUS
 62
           7
100
AcDbLine
 10
-14534.567116693548
 20
-14110.086084171529
 30
0.0
 11
-14538.062492587676
 21
-14109.862804954533
 31
0.0
  0
ARC
  5
8F
100
AcDbEntity
  8
Frei
  6
CONTINUOUS
 62
           7
100
AcDbCircle
 10
-14582.516612217114
 20
-14100.080613257922
 30
0.0
 40
48.982199999993
100
AcDbArc
 50
357.204436999999
 51
4.476610000001
  0
ARC
  5
90
100
AcDbEntity
  8
Frei
  6
CONTINUOUS
 62
           7
100
AcDbCircle
 10
-14492.725021089667
 20
-14105.816361505596
 30
0.0
 40
48.982200000003
100
AcDbArc
 50
168.213
 51
175.486
  0
ARC
  5
91
100
AcDbEntity
  8
Frei
  6
CONTINUOUS
 62
           7
100
AcDbCircle
 10
-14492.725021089667
 20
-14105.816361505596
 30
0.0
 40
48.982200000003
100
AcDbArc
 50
177.203999999999
 51
184.476999999999
  0
ARC
  5
92
100
AcDbEntity
  8
Frei
  6
CONTINUOUS
 62
           7
100
AcDbCircle
 10
-14582.516612217114
 20
-14100.080613257922
 30
0.0
 40
48.982199999993
100
AcDbArc
 50
348.213389999999
 51
355.485563
  0
LINE
  5
93
100
AcDbEntity
  8
Frei
  6
CONTINUOUS
 62
           7
100
AcDbLine
 10
-14533.592694691242
 20
-14102.469594153097
 30
0.0
 11
-14533.6340423038
 21
-14103.203156373615
 31
0.0
  0
LINE
  5
94
100
AcDbEntity
  8
Frei
  6
CONTINUOUS
 62
           7
100
AcDbLine
 10
-14541.555265764497
 20
-14101.960957403186
 30
0.0
 11
-14541.60759100299
 21
-14102.693818389904
 31
0.0
  0
LINE
  5
95
100
AcDbEntity
  8
Frei
  6
CONTINUOUS
 62
           7
100
AcDbLine
 10
-14541.648938615548
 20
-14103.427380610421
 30
0.0
 11
-14541.60759100299
 21
-14102.693818389904
 31
0.0
  0
LINE
  5
96
100
AcDbEntity
  8
Frei
  6
CONTINUOUS
 62
           7
100
AcDbLine
 10
-14533.686367542292
 20
-14103.936017360333
 30
0.0
 11
-14533.6340423038
 21
-14103.203156373615
 31
0.0
  0
ARC
  5
97
100
AcDbEntity
  8
Frei
  6
CONTINUOUS
 62
           7
100
AcDbCircle
 10
-14545.746891234723
 20
-14092.0156245861
 30
0.0
 40
12.801500000001
100
AcDbArc
 50
340.626499999999
 51
356.344999999999
  0
ARC
  5
98
100
AcDbEntity
  8
Frei
  6
CONTINUOUS
 62
           7
100
AcDbCircle
 10
-14528.169676263036
 20
-14093.138429948016
 30
0.0
 40
12.787200000001
100
AcDbArc
 50
176.345000000001
 51
192.063999999999
  0
ARC
  5
99
100
AcDbEntity
  8
Frei
  6
CONTINUOUS
 62
           7
100
AcDbCircle
 10
-14529.494702153428
 20
-14113.88135272736
 30
0.0
 40
12.8015
100
AcDbArc
 50
160.626
 51
176.345000000001
  0
ARC
  5
9A
100
AcDbEntity
  8
Frei
  6
CONTINUOUS
 62
           7
100
AcDbCircle
 10
-14547.071917125113
 20
-14112.758547365444
 30
0.0
 40
12.787200000001
100
AcDbArc
 50
356.344999999998
 51
12.063499999999
  0
ARC
  5
9B
100
AcDbEntity
  8
Frei
  6
CONTINUOUS
 62
           7
100
AcDbCircle
 10
-14545.746891234723
 20
-14092.0156245861
 30
0.0
 40
12.787200000001
100
AcDbArc
 50
356.344999999998
 51
12.063499999999
  0
ARC
  5
9C
100
AcDbEntity
  8
Frei
  6
CONTINUOUS
 62
           7
100
AcDbCircle
 10
-14528.169676263036
 20
-14093.138429948016
 30
0.0
 40
12.8015
100
AcDbArc
 50
160.626
 51
176.345000000001
  0
ARC
  5
9D
100
AcDbEntity
  8
Frei
  6
CONTINUOUS
 62
           7
100
AcDbCircle
 10
-14529.494702153426
 20
-14113.88135272736
 30
0.0
 40
12.787200000001
100
AcDbArc
 50
176.345000000001
 51
192.063999999999
  0
ARC
  5
9E
100
AcDbEntity
  8
Frei
  6
CONTINUOUS
 62
           7
100
AcDbCircle
 10
-14547.071917125113
 20
-14112.758547365444
 30
0.0
 40
12.801500000001
100
AcDbArc
 50
340.626499999999
 51
356.344999999999
  0
LINE
  5
9F
100
AcDbEntity
  8
Frei
  6
CONTINUOUS
 62
           7
100
AcDbLine
 10
-14532.971529358605
 20
-14092.831694983943
 30
0.0
 11
-14533.6340423038
 21
-14103.203156373615
 31
0.0
  0
LINE
  5
A0
100
AcDbEntity
  8
Frei
  6
CONTINUOUS
 62
           7
100
AcDbLine
 10
-14540.945078057794
 20
-14092.322357000232
 30
0.0
 11
-14541.60759100299
 21
-14102.693818389904
 31
0.0
  0
LINE
  5
A1
100
AcDbEntity
  8
Frei
  6
CONTINUOUS
 62
           7
100
AcDbLine
 10
-14542.270103948185
 20
-14113.065279779574
 30
0.0
 11
-14541.60759100299
 21
-14102.693818389904
 31
0.0
  0
LINE
  5
A2
100
AcDbEntity
  8
Frei
  6
CONTINUOUS
 62
           7
100
AcDbLine
 10
-14534.296555248995
 20
-14113.574617763286
 30
0.0
 11
-14533.6340423038
 21
-14103.203156373615
 31
0.0
  0
LINE
  5
A3
100
AcDbEntity
  8
Frei
  6
CONTINUOUS
 62
           7
100
AcDbLine
 10
-14542.11757922168
 20
-14110.677546342233
 30
0.0
 11
-14542.066580399811
 21
-14109.879173546999
 31
0.0
  0
LINE
  5
A4
100
AcDbEntity
  8
Frei
  6
CONTINUOUS
 62
           7
100
AcDbLine
 10
-14542.066580399811
 20
-14109.879173546999
 30
0.0
 11
-14541.148601606168
 21
-14095.508463232807
 31
0.0
  0
LINE
  5
A5
100
AcDbEntity
  8
Frei
  6
CONTINUOUS
 62
           7
100
AcDbLine
 10
-14541.148601606168
 20
-14095.508463232807
 30
0.0
 11
-14541.097602784299
 21
-14094.710090437575
 31
0.0
  0
LINE
  5
A6
100
AcDbEntity
  8
Frei
  6
CONTINUOUS
 62
           7
100
AcDbLine
 10
-14541.097602784299
 20
-14094.710090437575
 30
0.0
 11
-14540.817109264019
 21
-14090.319040063794
 31
0.0
  0
LINE
  5
A7
100
AcDbEntity
  8
Frei
  6
CONTINUOUS
 62
           7
100
AcDbLine
 10
-14574.562479249686
 20
-14116.621321419798
 30
0.0
 11
-14572.827120230508
 21
-14116.732173475411
 31
0.0
  0
LINE
  5
A8
100
AcDbEntity
  8
Frei
  6
CONTINUOUS
 62
           7
100
AcDbLine
 10
-14570.787167355746
 20
-14084.797261666097
 30
0.0
 11
-14572.522526374923
 21
-14084.686409610484
 31
0.0
  0
LINE
  5
A9
100
AcDbEntity
  8
Frei
  6
CONTINUOUS
 62
           7
100
AcDbLine
 10
-14572.827120230508
 20
-14116.732173475411
 30
0.0
 11
-14567.776310490206
 21
-14117.054811405686
 31
0.0
  0
LINE
  5
AA
100
AcDbEntity
  8
Frei
  6
CONTINUOUS
 62
           7
100
AcDbLine
 10
-14565.736357615444
 20
-14085.11989959637
 30
0.0
 11
-14570.787167355746
 21
-14084.797261666097
 31
0.0
  0
LINE
  5
AB
100
AcDbEntity
  8
Frei
  6
CONTINUOUS
 62
           7
100
AcDbLine
 10
-14619.807350582647
 20
-14081.665928024338
 30
0.0
 11
-14572.522526374923
 21
-14084.686409610484
 31
0.0
  0
LINE
  5
AC
100
AcDbEntity
  8
Frei
  6
CONTINUOUS
 62
           7
100
AcDbLine
 10
-14621.847303457411
 20
-14113.600839833653
 30
0.0
 11
-14574.562479249686
 21
-14116.621321419798
 31
0.0
  0
LINE
  5
AD
100
AcDbEntity
  8
Frei
  6
CONTINUOUS
 62
           7
100
AcDbLine
 10
-14564.691794888202
 20
-14087.591516214872
 30
0.0
 11
-14566.425754831751
 21
-14114.73619125279
 31
0.0
  0
LINE
  5
AE
100
AcDbEntity
  8
Frei
  6
CONTINUOUS
 62
           7
100
AcDbLine
 10
-14541.938170224064
 20
-14089.044982638141
 30
0.0
 11
-14545.557965264075
 21
-14088.813755718147
 31
0.0
  0
LINE
  5
AF
100
AcDbEntity
  8
Frei
  6
CONTINUOUS
 62
           7
100
AcDbLine
 10
-14542.39807274196
 20
-14115.068596716013
 30
0.0
 11
-14542.11757922168
 21
-14110.677546342233
 31
0.0
  0
LINE
  5
B0
100
AcDbEntity
  8
Frei
  6
CONTINUOUS
 62
           7
100
AcDbLine
 10
-14565.228195638902
 20
-14114.812689485594
 30
0.0
 11
-14562.779135351147
 21
-14114.969131676646
 31
0.0
  0
LINE
  5
B1
100
AcDbEntity
  8
Frei
  6
CONTINUOUS
 62
           7
100
AcDbLine
 10
-14560.94317776386
 20
-14086.227711048261
 30
0.0
 11
-14561.045175407598
 21
-14087.824456638727
 31
0.0
  0
LINE
  5
B2
100
AcDbEntity
  8
Frei
  6
CONTINUOUS
 62
           7
100
AcDbLine
 10
-14561.045175407598
 20
-14087.824456638727
 30
0.0
 11
-14563.494235695352
 21
-14087.668014447676
 31
0.0
  0
LINE
  5
B3
100
AcDbEntity
  8
Frei
  6
CONTINUOUS
 62
           7
100
AcDbLine
 10
-14561.045175407598
 20
-14087.824456638727
 30
0.0
 11
-14562.779135351147
 21
-14114.969131676646
 31
0.0
  0
LINE
  5
B4
100
AcDbEntity
  8
Frei
  6
CONTINUOUS
 62
           7
100
AcDbLine
 10
-14562.779135351147
 20
-14114.969131676646
 30
0.0
 11
-14562.881132994886
 21
-14116.56587726711
 31
0.0
  0
LINE
  5
B5
100
AcDbEntity
  8
Frei
  6
CONTINUOUS
 62
           7
100
AcDbLine
 10
-14547.393922851363
 20
-14117.555176346532
 30
0.0
 11
-14547.291925207624
 21
-14115.958430756065
 31
0.0
  0
LINE
  5
B6
100
AcDbEntity
  8
Frei
  6
CONTINUOUS
 62
           7
100
AcDbLine
 10
-14547.291925207624
 20
-14115.958430756065
 30
0.0
 11
-14543.672130167613
 21
-14116.189657676059
 31
0.0
  0
LINE
  5
B7
100
AcDbEntity
  8
Frei
  6
CONTINUOUS
 62
           7
100
AcDbLine
 10
-14547.291925207624
 20
-14115.958430756065
 30
0.0
 11
-14545.557965264075
 21
-14088.813755718147
 31
0.0
  0
LINE
  5
B8
100
AcDbEntity
  8
Frei
  6
CONTINUOUS
 62
           7
100
AcDbLine
 10
-14545.557965264075
 20
-14088.813755718147
 30
0.0
 11
-14545.455967620339
 21
-14087.217010127682
 31
0.0
  0
LINE
  5
B9
100
AcDbEntity
  8
Frei
  6
CONTINUOUS
 62
           7
100
AcDbLine
 10
-14560.94317776386
 20
-14086.227711048261
 30
0.0
 11
-14545.455967620339
 21
-14087.217010127682
 31
0.0
  0
LINE
  5
BA
100
AcDbEntity
  8
Frei
  6
CONTINUOUS
 62
           7
100
AcDbLine
 10
-14562.881132994886
 20
-14116.56587726711
 30
0.0
 11
-14547.393922851363
 21
-14117.555176346532
 31
0.0
  0
ARC
  5
BB
100
AcDbEntity
  8
Frei
  6
CONTINUOUS
 62
           7
100
AcDbCircle
 10
-14594.521221419496
 20
-14099.313777351217
 30
0.0
 40
27.821476415485
100
AcDbArc
 50
321.238694434247
 51
31.451305565753
  0
ARC
  5
BC
100
AcDbEntity
  8
Frei
  6
CONTINUOUS
 62
           7
100
AcDbCircle
 10
-14581.360760480844
 20
-14100.154447282774
 30
0.0
 40
39.547005383793
100
AcDbArc
 50
152.48007458395
 51
200.20992541605
  0
ARC
  5
BD
100
AcDbEntity
  8
Frei
  6
CONTINUOUS
 62
           7
100
AcDbCircle
 10
-14595.475585866754
 20
-14099.252814023392
 30
0.0
 40
30.02221399786
100
AcDbArc
 50
144.140772496028
 51
208.549227503973
  0
CIRCLE
  5
BE
100
AcDbEntity
  8
Frei
  6
CONTINUOUS
 62
           7
100
AcDbCircle
 10
-14605.47741462162
 20
-14098.613912640378
 30
0.0
 40
6.8
  0
ARC
  5
BF
100
AcDbEntity
  8
Frei
  6
CONTINUOUS
 62
           7
100
AcDbCircle
 10
-14565.812855848248
 20
-14086.317458789219
 30
0.0
 40
1.2
100
AcDbArc
 50
356.344999999999
 51
86.345
  0
ARC
  5
C0
100
AcDbEntity
  8
Frei
  6
CONTINUOUS
 62
           7
100
AcDbCircle
 10
-14563.417737462549
 20
-14086.470455254826
 30
0.0
 40
1.2
100
AcDbArc
 50
176.345
 51
266.344999999999
  0
ARC
  5
C1
100
AcDbEntity
  8
Frei
  6
CONTINUOUS
 62
           7
100
AcDbCircle
 10
-14542.014668456868
 20
-14090.24254183099
 30
0.0
 40
1.2
100
AcDbArc
 50
356.344999999999
 51
86.345
  0
ARC
  5
C2
100
AcDbEntity
  8
Frei
  6
CONTINUOUS
 62
           7
100
AcDbCircle
 10
-14543.59563193481
 20
-14114.99209848321
 30
0.0
 40
1.2
100
AcDbArc
 50
266.344999999999
 51
356.344999999999
  0
ARC
  5
C3
100
AcDbEntity
  8
Frei
  6
CONTINUOUS
 62
           7
100
AcDbCircle
 10
-14565.304693871705
 20
-14116.010248678444
 30
0.0
 40
1.2
100
AcDbArc
 50
86.345
 51
176.345
  0
ARC
  5
C4
100
AcDbEntity
  8
Frei
  6
CONTINUOUS
 62
           7
100
AcDbCircle
 10
-14567.699812257402
 20
-14115.857252212836
 30
0.0
 40
1.2
100
AcDbArc
 50
266.344999999999
 51
356.344999999999
  0
LINE
  5
C5
100
AcDbEntity
  8
FREI
  6
CONTINUOUS
 62
           7
100
AcDbLine
 10
-14205.117832413429
 20
-14092.122592768841
 30
0.0
 11
-14209.197771927553
 21
-14155.992944963164
 31
0.0
  0
LINE
  5
C6
100
AcDbEntity
  8
FREI
  6
CONTINUOUS
 62
           7
100
AcDbLine
 10
-14201.789896258251
 20
-14149.95134098987
 30
0.0
 11
-14202.065503525695
 21
-14154.265898393956
 31
0.0
  0
LINE
  5
C7
100
AcDbEntity
  8
FREI
  6
CONTINUOUS
 62
           7
100
AcDbLine
 10
-14198.263302420695
 20
-14094.743466051703
 30
0.0
 11
-14198.538909688139
 21
-14099.058023455793
 31
0.0
  0
LINE
  5
C8
100
AcDbEntity
  8
FREI
  6
CONTINUOUS
 62
           7
100
AcDbLine
 10
-14198.538909688139
 20
-14099.058023455793
 30
0.0
 11
-14199.113609011723
 21
-14108.054786294097
 31
0.0
  0
LINE
  5
C9
100
AcDbEntity
  8
FREI
  6
CONTINUOUS
 62
           7
100
AcDbLine
 10
-14201.215196934667
 20
-14140.954578151561
 30
0.0
 11
-14201.789896258251
 21
-14149.95134098987
 31
0.0
  0
LINE
  5
CA
100
AcDbEntity
  8
Frei
  6
CONTINUOUS
 62
           7
100
AcDbLine
 10
-14204.121446571486
 20
-14156.139616426153
 30
0.0
 11
-14209.197771927553
 21
-14155.992944963164
 31
0.0
  0
LINE
  5
CB
100
AcDbEntity
  8
Frei
  6
CONTINUOUS
 62
           7
100
AcDbLine
 10
-14200.064127656946
 20
-14092.62338361458
 30
0.0
 11
-14205.117856055525
 21
-14092.122962879486
 31
0.0
  0
LINE
  5
CC
100
AcDbEntity
  8
FREI
  6
CONTINUOUS
 62
           7
100
AcDbLine
 10
-14200.683775687508
 20
-14149.983300391794
 30
0.0
 11
-14201.789896258251
 21
-14149.95134098987
 31
0.0
  0
LINE
  5
CD
100
AcDbEntity
  8
Frei
  6
CONTINUOUS
 62
           7
100
AcDbLine
 10
-14194.736475092317
 20
-14102.347187732452
 30
0.0
 11
-14195.309972247493
 21
-14111.325130948711
 31
0.0
  0
LINE
  5
CE
100
AcDbEntity
  8
FREI
  6
CONTINUOUS
 62
           7
100
AcDbLine
 10
-14198.538909688139
 20
-14099.058023455793
 30
0.0
 11
-14197.437712946692
 21
-14099.16706407677
 31
0.0
  0
LINE
  5
CF
100
AcDbEntity
  8
Frei
  6
CONTINUOUS
 62
           7
100
AcDbLine
 10
-14197.014642053056
 20
-14138.011276779898
 30
0.0
 11
-14197.026363963647
 21
-14138.19478012724
 31
0.0
  0
LINE
  5
D0
100
AcDbEntity
  8
FREI
  6
CONTINUOUS
 62
           7
100
AcDbLine
 10
-14179.208293582335
 20
-14113.807535534406
 30
0.0
 11
-14194.403880028904
 21
-14112.57024539685
 31
0.0
  0
LINE
  5
D1
100
AcDbEntity
  8
FREI
  6
CONTINUOUS
 62
           7
100
AcDbLine
 10
-14180.739700197033
 20
-14137.781292864598
 30
0.0
 11
-14195.969210705985
 21
-14137.075074769849
 31
0.0
  0
LINE
  5
D2
100
AcDbEntity
  8
FREI
  6
CONTINUOUS
 62
           7
100
AcDbLine
 10
-14195.067551945756
 20
-14112.24125042696
 30
0.0
 11
-14196.669349035239
 21
-14137.316951646266
 31
0.0
  0
LINE
  5
D3
100
AcDbEntity
  8
Frei
  6
CONTINUOUS
 62
           7
100
AcDbLine
 10
-14197.277980753366
 20
-14110.178008495695
 30
0.0
 11
-14196.227786376672
 21
-14110.263519847911
 31
0.0
  0
LINE
  5
D4
100
AcDbEntity
  8
Frei
  6
CONTINUOUS
 62
           7
100
AcDbLine
 10
-14195.309972247493
 20
-14111.325130948711
 30
0.0
 11
-14195.321694158083
 21
-14111.508634296051
 31
0.0
  0
LINE
  5
D5
100
AcDbEntity
  8
Frei
  6
CONTINUOUS
 62
           7
100
AcDbLine
 10
-14197.026363963647
 20
-14138.19478012724
 30
0.0
 11
-14197.599861118824
 21
-14147.172723343499
 31
0.0
  0
LINE
  5
D6
100
AcDbEntity
  8
Frei
  6
CONTINUOUS
 62
           7
100
AcDbLine
 10
-14198.071795310718
 20
-14139.130982137289
 30
0.0
 11
-14199.124334240525
 21
-14139.082174131461
 31
0.0
  0
ARC
  5
D7
100
AcDbEntity
  8
FREI
  6
CONTINUOUS
 62
           7
100
AcDbCircle
 10
-14180.183228635069
 20
-14125.781048798557
 30
0.0
 40
12.0131394
100
AcDbArc
 50
267.344999999997
 51
85.345000000003
  0
ARC
  5
D8
100
AcDbEntity
  8
Frei
  6
CONTINUOUS
 62
           7
100
AcDbCircle
 10
-14200.261419854507
 20
-14094.61582939413
 30
0.0
 40
2.0021899
100
AcDbArc
 50
356.344999999993
 51
84.345000000031
  0
ARC
  5
D9
100
AcDbEntity
  8
Frei
  6
CONTINUOUS
 62
           7
100
AcDbCircle
 10
-14197.733651243036
 20
-14102.155732746094
 30
0.0
 40
3.00328485
100
AcDbArc
 50
356.345000000004
 51
84.344999999982
  0
ARC
  5
DA
100
AcDbEntity
  8
Frei
  6
CONTINUOUS
 62
           7
100
AcDbCircle
 10
-14200.597037269543
 20
-14146.98126835714
 30
0.0
 40
3.00328485
100
AcDbArc
 50
268.344999999994
 51
356.344999999999
  0
ARC
  5
DB
100
AcDbEntity
  8
Frei
  6
CONTINUOUS
 62
           7
100
AcDbCircle
 10
-14204.063620959507
 20
-14154.138261736385
 30
0.0
 40
2.0021899
100
AcDbArc
 50
268.344999999968
 51
356.345000000006
  0
ARC
  5
DC
100
AcDbEntity
  8
Frei
  6
CONTINUOUS
 62
           7
100
AcDbCircle
 10
-14196.309030964399
 20
-14111.261312619925
 30
0.0
 40
1.00109495
100
AcDbArc
 50
356.344999999999
 51
85.34500000007
  0
ARC
  5
DD
100
AcDbEntity
  8
Frei
  6
CONTINUOUS
 62
           7
100
AcDbCircle
 10
-14197.11549157791
 20
-14108.18242295167
 30
0.0
 40
2.0021899
100
AcDbArc
 50
176.345000000006
 51
265.345000000015
  0
ARC
  5
DE
100
AcDbEntity
  8
Frei
  6
CONTINUOUS
 62
           7
100
AcDbCircle
 10
-14194.322635441176
 20
-14111.572452624838
 30
0.0
 40
1.001094950001
100
AcDbArc
 50
221.917995999261
 51
265.345000000022
  0
ARC
  5
DF
100
AcDbEntity
  8
Frei
  6
CONTINUOUS
 62
           7
100
AcDbCircle
 10
-14194.322635441178
 20
-14111.572452624838
 30
0.0
 40
1.001094949999
100
AcDbArc
 50
176.344999999987
 51
221.917995999281
  0
ARC
  5
E0
100
AcDbEntity
  8
Frei
  6
CONTINUOUS
 62
           7
100
AcDbCircle
 10
-14199.217079500853
 20
-14141.082214809134
 30
0.0
 40
2.002189899999
100
AcDbArc
 50
87.344999999931
 51
176.344999999993
  0
ARC
  5
E1
100
AcDbEntity
  8
Frei
  6
CONTINUOUS
 62
           7
100
AcDbCircle
 10
-14198.025422680554
 20
-14138.130961798453
 30
0.0
 40
1.001094949999
100
AcDbArc
 50
267.344999999922
 51
356.345000000012
  0
ARC
  5
E2
100
AcDbEntity
  8
Frei
  6
CONTINUOUS
 62
           7
100
AcDbCircle
 10
-14196.01558333615
 20
-14138.075095108685
 30
0.0
 40
1.00109495
100
AcDbArc
 50
130.772004000806
 51
176.344999999987
  0
ARC
  5
E3
100
AcDbEntity
  8
Frei
  6
CONTINUOUS
 62
           7
100
AcDbCircle
 10
-14196.01558333615
 20
-14138.075095108687
 30
0.0
 40
1.001094950001
100
AcDbArc
 50
87.345000000004
 51
130.772004000779
  0
LINE
  5
E4
100
AcDbEntity
  8
Frei
  6
CONTINUOUS
 62
           7
100
AcDbLine
 10
-14274.225356788218
 20
-14139.513841487133
 30
0.0
 11
-14270.732475809074
 21
-14139.73696133281
 31
0.0
  0
LINE
  5
E5
100
AcDbEntity
  8
Frei
  6
CONTINUOUS
 62
           7
100
AcDbLine
 10
-14274.097859733545
 20
-14137.517909499051
 30
0.0
 11
-14274.225356788218
 21
-14139.513841487133
 31
0.0
  0
LINE
  5
E6
100
AcDbEntity
  8
Frei
  6
CONTINUOUS
 62
           7
100
AcDbLine
 10
-14269.128898805337
 20
-14130.320032916756
 30
0.0
 11
-14269.670761287696
 21
-14138.802743866105
 31
0.0
  0
LINE
  5
E7
100
AcDbEntity
  8
Frei
  6
CONTINUOUS
 62
           7
100
AcDbLine
 10
-14273.619745778522
 20
-14130.033164543742
 30
0.0
 11
-14269.128898805337
 21
-14130.320032916756
 31
0.0
  0
LINE
  5
E8
100
AcDbEntity
  8
Frei
  6
CONTINUOUS
 62
           7
100
AcDbLine
 10
-14273.65162004219
 20
-14130.532147540762
 30
0.0
 11
-14273.619745778522
 21
-14130.033164543742
 31
0.0
  0
LINE
  5
E9
100
AcDbEntity
  8
Frei
  6
CONTINUOUS
 62
           7
100
AcDbLine
 10
-14270.139000558047
 20
-14131.202521926454
 30
0.0
 11
-14273.65162004219
 21
-14130.532147540762
 31
0.0
  0
LINE
  5
EA
100
AcDbEntity
  8
Frei
  6
CONTINUOUS
 62
           7
100
AcDbLine
 10
-14269.864995112061
 20
-14133.780145751349
 30
0.0
 11
-14269.733749552377
 21
-14131.725531928791
 31
0.0
  0
LINE
  5
EB
100
AcDbEntity
  8
Frei
  6
CONTINUOUS
 62
           7
100
AcDbLine
 10
-14274.097859733545
 20
-14137.517909499051
 30
0.0
 11
-14273.65162004219
 21
-14130.532147540762
 31
0.0
  0
LINE
  5
EC
100
AcDbEntity
  8
Frei
  6
CONTINUOUS
 62
           7
100
AcDbLine
 10
-14270.528493028902
 20
-14137.299921460035
 30
0.0
 11
-14274.097859733545
 21
-14137.517909499051
 31
0.0
  0
LINE
  5
ED
100
AcDbEntity
  8
Frei
  6
CONTINUOUS
 62
           7
100
AcDbLine
 10
-14269.928743639397
 20
-14134.778111745391
 30
0.0
 11
-14270.059989199081
 21
-14136.832725567947
 31
0.0
  0
LINE
  5
EE
100
AcDbEntity
  8
Frei
  6
CONTINUOUS
 62
           2
100
AcDbLine
 10
-14271.479960013607
 20
-14134.178003361925
 30
0.0
 11
-14268.708753825906
 21
-14134.355023735832
 31
0.0
  0
LINE
  5
EF
100
AcDbEntity
  8
Frei
  6
CONTINUOUS
 62
           7
100
AcDbLine
 10
-14271.448085749938
 20
-14133.679020364905
 30
0.0
 11
-14269.864995112061
 21
-14133.780145751349
 31
0.0
  0
LINE
  5
F0
100
AcDbEntity
  8
Frei
  6
CONTINUOUS
 62
           7
100
AcDbLine
 10
-14271.479960013607
 20
-14134.178003361925
 30
0.0
 11
-14271.448085749938
 21
-14133.679020364905
 31
0.0
  0
LINE
  5
F1
100
AcDbEntity
  8
Frei
  6
CONTINUOUS
 62
           7
100
AcDbLine
 10
-14271.511834277275
 20
-14134.676986358947
 30
0.0
 11
-14271.479960013607
 21
-14134.178003361925
 31
0.0
  0
LINE
  5
F2
100
AcDbEntity
  8
Frei
  6
CONTINUOUS
 62
           7
100
AcDbLine
 10
-14269.928743639397
 20
-14134.778111745391
 30
0.0
 11
-14271.511834277275
 21
-14134.676986358947
 31
0.0
  0
LINE
  5
F3
100
AcDbEntity
  8
Frei
  6
CONTINUOUS
 62
           7
100
AcDbLine
 10
-14413.441612956953
 20
-14130.620921923713
 30
0.0
 11
-14411.337911554854
 21
-14097.688044120358
 31
0.0
  0
LINE
  5
F4
100
AcDbEntity
  8
Frei
  6
CONTINUOUS
 62
           7
100
AcDbLine
 10
-14427.413136873529
 20
-14129.728442541005
 30
0.0
 11
-14413.441612956953
 21
-14130.620921923713
 31
0.0
  0
LINE
  5
F5
100
AcDbEntity
  8
Frei
  6
CONTINUOUS
 62
           7
100
AcDbLine
 10
-14421.317571495265
 20
-14097.050558846993
 30
0.0
 11
-14411.836894551874
 21
-14097.656169856689
 31
0.0
  0
LINE
  5
F6
100
AcDbEntity
  8
Frei
  6
CONTINUOUS
 62
           7
100
AcDbLine
 10
-14421.445068549938
 20
-14099.046490835077
 30
0.0
 11
-14421.317571495265
 21
-14097.050558846993
 31
0.0
  0
LINE
  5
F7
100
AcDbEntity
  8
Frei
  6
CONTINUOUS
 62
           7
100
AcDbLine
 10
-14421.891308241293
 20
-14106.032252793364
 30
0.0
 11
-14421.923182504961
 21
-14106.531235790384
 31
0.0
  0
LINE
  5
F8
100
AcDbEntity
  8
Frei
  6
CONTINUOUS
 62
           7
100
AcDbLine
 10
-14426.913012475166
 20
-14106.212493153704
 30
0.0
 11
-14426.371149992807
 21
-14097.729782204353
 31
0.0
  0
LINE
  5
F9
100
AcDbEntity
  8
Frei
  6
CONTINUOUS
 62
           7
100
AcDbLine
 10
-14421.923182504961
 20
-14106.531235790384
 30
0.0
 11
-14426.913012475166
 21
-14106.212493153704
 31
0.0
  0
LINE
  5
FA
100
AcDbEntity
  8
Frei
  6
CONTINUOUS
 62
           7
100
AcDbLine
 10
-14425.30943547143
 20
-14096.795564737649
 30
0.0
 11
-14421.317571495265
 21
-14097.050558846993
 31
0.0
  0
LINE
  5
FB
100
AcDbEntity
  8
Frei
  6
CONTINUOUS
 62
           7
100
AcDbLine
 10
-14425.403927725436
 20
-14105.361878407672
 30
0.0
 11
-14421.891308241293
 21
-14106.032252793364
 31
0.0
  0
LINE
  5
FC
100
AcDbEntity
  8
Frei
  6
CONTINUOUS
 62
           7
100
AcDbLine
 10
-14425.677933171422
 20
-14102.784254582777
 30
0.0
 11
-14425.809178731106
 21
-14104.838868405335
 31
0.0
  0
LINE
  5
FD
100
AcDbEntity
  8
Frei
  6
CONTINUOUS
 62
           7
100
AcDbLine
 10
-14421.445068549938
 20
-14099.046490835077
 30
0.0
 11
-14421.891308241293
 21
-14106.032252793364
 31
0.0
  0
LINE
  5
FE
100
AcDbEntity
  8
Frei
  6
CONTINUOUS
 62
           7
100
AcDbLine
 10
-14425.014435254581
 20
-14099.264478874091
 30
0.0
 11
-14421.445068549938
 21
-14099.046490835077
 31
0.0
  0
LINE
  5
FF
100
AcDbEntity
  8
Frei
  6
CONTINUOUS
 62
           7
100
AcDbLine
 10
-14425.614184644086
 20
-14101.786288588737
 30
0.0
 11
-14425.482939084404
 21
-14099.731674766179
 31
0.0
  0
LINE
  5
100
100
AcDbEntity
  8
Frei
  6
CONTINUOUS
 62
           2
100
AcDbLine
 10
-14424.062968269876
 20
-14102.386396972201
 30
0.0
 11
-14426.834174457579
 21
-14102.209376598294
 31
0.0
  0
LINE
  5
101
100
AcDbEntity
  8
Frei
  6
CONTINUOUS
 62
           7
100
AcDbLine
 10
-14424.094842533545
 20
-14102.885379969221
 30
0.0
 11
-14425.677933171422
 21
-14102.784254582777
 31
0.0
  0
LINE
  5
102
100
AcDbEntity
  8
Frei
  6
CONTINUOUS
 62
           7
100
AcDbLine
 10
-14424.062968269876
 20
-14102.386396972201
 30
0.0
 11
-14424.094842533545
 21
-14102.885379969221
 31
0.0
  0
LINE
  5
103
100
AcDbEntity
  8
Frei
  6
CONTINUOUS
 62
           7
100
AcDbLine
 10
-14424.031094006208
 20
-14101.887413975179
 30
0.0
 11
-14424.062968269876
 21
-14102.386396972201
 31
0.0
  0
LINE
  5
104
100
AcDbEntity
  8
Frei
  6
CONTINUOUS
 62
           7
100
AcDbLine
 10
-14425.614184644086
 20
-14101.786288588737
 30
0.0
 11
-14424.031094006208
 21
-14101.887413975179
 31
0.0
  0
LINE
  5
105
100
AcDbEntity
  8
Frei
  6
CONTINUOUS
 62
           7
100
AcDbLine
 10
-14387.704867252094
 20
-14135.571671414795
 30
0.0
 11
-14387.736741515762
 21
-14136.070654411815
 31
0.0
  0
LINE
  5
106
100
AcDbEntity
  8
Frei
  6
CONTINUOUS
 62
           7
100
AcDbLine
 10
-14387.736741515762
 20
-14136.070654411815
 30
0.0
 11
-14310.893359974596
 21
-14140.979291016713
 31
0.0
  0
LINE
  5
107
100
AcDbEntity
  8
Frei
  6
CONTINUOUS
 62
           7
100
AcDbLine
 10
-14310.893359974596
 20
-14140.979291016713
 30
0.0
 11
-14307.897179189787
 21
-14094.074889296782
 31
0.0
  0
LINE
  5
108
100
AcDbEntity
  8
Frei
  6
CONTINUOUS
 62
           7
100
AcDbLine
 10
-14307.897179189787
 20
-14094.074889296782
 30
0.0
 11
-14384.740560730956
 21
-14089.166252691884
 31
0.0
  0
LINE
  5
109
100
AcDbEntity
  8
Frei
  6
CONTINUOUS
 62
           7
100
AcDbLine
 10
-14411.836894551874
 20
-14097.656169856689
 30
0.0
 11
-14411.337911554854
 21
-14097.688044120358
 31
0.0
  0
LINE
  5
10A
100
AcDbEntity
  8
Frei
  6
CONTINUOUS
 62
           7
100
AcDbLine
 10
-14385.738526724996
 20
-14089.102504164548
 30
0.0
 11
-14411.186659573044
 21
-14087.476916717471
 31
0.0
  0
LINE
  5
10B
100
AcDbEntity
  8
Frei
  6
CONTINUOUS
 62
           7
100
AcDbLine
 10
-14413.683857360831
 20
-14134.413192701069
 30
0.0
 11
-14413.441612956953
 21
-14130.620921923713
 31
0.0
  0
LINE
  5
10C
100
AcDbEntity
  8
Frei
  6
CONTINUOUS
 62
           7
100
AcDbLine
 10
-14411.836894551874
 20
-14097.656169856689
 30
0.0
 11
-14411.186659573044
 21
-14087.476916717471
 31
0.0
  0
LINE
  5
10D
100
AcDbEntity
  8
Frei
  6
CONTINUOUS
 62
           7
100
AcDbLine
 10
-14387.704867252094
 20
-14135.571671414795
 30
0.0
 11
-14388.702833246136
 21
-14135.507922887458
 31
0.0
  0
LINE
  5
10E
100
AcDbEntity
  8
Frei
  6
CONTINUOUS
 62
           7
100
AcDbLine
 10
-14384.772434994624
 20
-14089.665235688903
 30
0.0
 11
-14387.704867252094
 21
-14135.571671414795
 31
0.0
  0
LINE
  5
10F
100
AcDbEntity
  8
Frei
  6
CONTINUOUS
 62
           7
100
AcDbLine
 10
-14384.772434994624
 20
-14089.665235688903
 30
0.0
 11
-14385.770400988664
 21
-14089.601487161568
 31
0.0
  0
LINE
  5
110
100
AcDbEntity
  8
Frei
  6
CONTINUOUS
 62
           7
100
AcDbLine
 10
-14384.740560730956
 20
-14089.166252691884
 30
0.0
 11
-14384.772434994624
 21
-14089.665235688903
 31
0.0
  0
LINE
  5
111
100
AcDbEntity
  8
Frei
  6
CONTINUOUS
 62
           7
100
AcDbLine
 10
-14388.702833246136
 20
-14135.507922887458
 30
0.0
 11
-14385.738526724996
 21
-14089.102504164548
 31
0.0
  0
LINE
  5
112
100
AcDbEntity
  8
Frei
  6
CONTINUOUS
 62
           7
100
AcDbLine
 10
-14388.734707509804
 20
-14136.006905884478
 30
0.0
 11
-14388.702833246136
 21
-14135.507922887458
 31
0.0
  0
LINE
  5
113
100
AcDbEntity
  8
Frei
  6
CONTINUOUS
 62
           7
100
AcDbLine
 10
-14413.683857360831
 20
-14134.413192701069
 30
0.0
 11
-14388.734707509804
 21
-14136.006905884478
 31
0.0
  0
LINE
  5
114
100
AcDbEntity
  8
Frei
  6
CONTINUOUS
 62
           7
100
AcDbLine
 10
-14309.895393980554
 20
-14141.043039544049
 30
0.0
 11
-14284.946244129527
 21
-14142.636752727458
 31
0.0
  0
LINE
  5
115
100
AcDbEntity
  8
Frei
  6
CONTINUOUS
 62
           7
100
AcDbLine
 10
-14309.863519716886
 20
-14140.544056547029
 30
0.0
 11
-14309.895393980554
 21
-14141.043039544049
 31
0.0
  0
LINE
  5
116
100
AcDbEntity
  8
Frei
  6
CONTINUOUS
 62
           7
100
AcDbLine
 10
-14306.899213195748
 20
-14094.138637824119
 30
0.0
 11
-14309.863519716886
 21
-14140.544056547029
 31
0.0
  0
LINE
  5
117
100
AcDbEntity
  8
Frei
  6
CONTINUOUS
 62
           7
100
AcDbLine
 10
-14306.931087459416
 20
-14094.637620821137
 30
0.0
 11
-14307.929053453456
 21
-14094.5738722938
 31
0.0
  0
LINE
  5
118
100
AcDbEntity
  8
Frei
  6
CONTINUOUS
 62
           7
100
AcDbLine
 10
-14309.863519716886
 20
-14140.544056547029
 30
0.0
 11
-14310.861485710928
 21
-14140.480308019693
 31
0.0
  0
LINE
  5
119
100
AcDbEntity
  8
Frei
  6
CONTINUOUS
 62
           7
100
AcDbLine
 10
-14281.451080347699
 20
-14095.764225271194
 30
0.0
 11
-14282.10131532653
 21
-14105.943478410412
 31
0.0
  0
LINE
  5
11A
100
AcDbEntity
  8
Frei
  6
CONTINUOUS
 62
           7
100
AcDbLine
 10
-14281.451080347699
 20
-14095.764225271194
 30
0.0
 11
-14306.899213195748
 21
-14094.138637824119
 31
0.0
  0
LINE
  5
11B
100
AcDbEntity
  8
Frei
  6
CONTINUOUS
 62
           7
100
AcDbLine
 10
-14282.60029832355
 20
-14105.911604146744
 30
0.0
 11
-14282.10131532653
 21
-14105.943478410412
 31
0.0
  0
LINE
  5
11C
100
AcDbEntity
  8
Frei
  6
CONTINUOUS
 62
           7
100
AcDbLine
 10
-14282.60029832355
 20
-14105.911604146744
 30
0.0
 11
-14284.946244129527
 21
-14142.636752727458
 31
0.0
  0
LINE
  5
11D
100
AcDbEntity
  8
Frei
  6
CONTINUOUS
 62
           7
100
AcDbLine
 10
-14458.157695705451
 20
-14101.210516560484
 30
0.0
 11
-14460.153627693535
 21
-14101.083019505812
 31
0.0
  0
LINE
  5
11E
100
AcDbEntity
  8
Frei
  6
CONTINUOUS
 62
           7
100
AcDbLine
 10
-14458.370951730802
 20
-14120.235618974602
 30
0.0
 11
-14457.223478238748
 21
-14102.272231081863
 31
0.0
  0
LINE
  5
11F
100
AcDbEntity
  8
Frei
  6
CONTINUOUS
 62
           7
100
AcDbLine
 10
-14461.428598240262
 20
-14121.042339386635
 30
0.0
 11
-14459.432666252178
 21
-14121.169836441308
 31
0.0
  0
LINE
  5
120
100
AcDbEntity
  8
Frei
  6
CONTINUOUS
 62
           7
100
AcDbLine
 10
-14462.044073070283
 20
-14114.990794895051
 30
0.0
 11
-14462.362815706965
 21
-14119.980624865257
 31
0.0
  0
LINE
  5
121
100
AcDbEntity
  8
Frei
  6
CONTINUOUS
 62
           7
100
AcDbLine
 10
-14460.153627693535
 20
-14101.083019505812
 30
0.0
 11
-14461.215342214911
 21
-14102.017236972517
 31
0.0
  0
LINE
  5
122
100
AcDbEntity
  8
Frei
  6
CONTINUOUS
 62
           7
100
AcDbLine
 10
-14458.157695705451
 20
-14101.210516560484
 30
0.0
 11
-14457.223478238748
 21
-14102.272231081863
 31
0.0
  0
LINE
  5
123
100
AcDbEntity
  8
Frei
  6
CONTINUOUS
 62
           7
100
AcDbLine
 10
-14458.370951730802
 20
-14120.235618974602
 30
0.0
 11
-14459.432666252178
 21
-14121.169836441308
 31
0.0
  0
LINE
  5
124
100
AcDbEntity
  8
Frei
  6
CONTINUOUS
 62
           7
100
AcDbLine
 10
-14461.428598240262
 20
-14121.042339386635
 30
0.0
 11
-14462.362815706965
 21
-14119.980624865257
 31
0.0
  0
LINE
  5
125
100
AcDbEntity
  8
Frei
  6
CONTINUOUS
 62
           7
100
AcDbLine
 10
-14461.428598240262
 20
-14121.042339386635
 30
0.0
 11
-14460.153627693535
 21
-14101.083019505812
 31
0.0
  0
LINE
  5
126
100
AcDbEntity
  8
Frei
  6
CONTINUOUS
 62
           7
100
AcDbLine
 10
-14459.432666252178
 20
-14121.169836441308
 30
0.0
 11
-14458.157695705451
 21
-14101.210516560484
 31
0.0
  0
LINE
  5
127
100
AcDbEntity
  8
Frei
  6
CONTINUOUS
 62
           7
100
AcDbLine
 10
-14458.849065685823
 20
-14127.720363929911
 30
0.0
 11
-14458.370951730802
 21
-14120.235618974602
 31
0.0
  0
LINE
  5
128
100
AcDbEntity
  8
Frei
  6
CONTINUOUS
 62
           7
100
AcDbLine
 10
-14429.302440848936
 20
-14120.088394279273
 30
0.0
 11
-14429.908051858632
 21
-14129.569071222664
 31
0.0
  0
LINE
  5
129
100
AcDbEntity
  8
Frei
  6
CONTINUOUS
 62
           7
100
AcDbLine
 10
-14462.59579937297
 20
-14107.941284409428
 30
0.0
 11
-14461.534084851593
 21
-14107.007066942722
 31
0.0
  0
LINE
  5
12A
100
AcDbEntity
  8
Frei
  6
CONTINUOUS
 62
           7
100
AcDbLine
 10
-14461.215342214911
 20
-14102.017236972517
 30
0.0
 11
-14461.534084851593
 21
-14107.007066942722
 31
0.0
  0
LINE
  5
12B
100
AcDbEntity
  8
Frei
  6
CONTINUOUS
 62
           7
100
AcDbLine
 10
-14462.627673636638
 20
-14108.440267406448
 30
0.0
 11
-14462.59579937297
 21
-14107.941284409428
 31
0.0
  0
LINE
  5
12C
100
AcDbEntity
  8
Frei
  6
CONTINUOUS
 62
           7
100
AcDbLine
 10
-14462.044073070283
 20
-14114.990794895051
 30
0.0
 11
-14462.978290536988
 21
-14113.929080373673
 31
0.0
  0
LINE
  5
12D
100
AcDbEntity
  8
Frei
  6
CONTINUOUS
 62
           7
100
AcDbLine
 10
-14461.980324542948
 20
-14113.992828901009
 30
0.0
 11
-14462.044073070283
 21
-14114.990794895051
 31
0.0
  0
LINE
  5
12E
100
AcDbEntity
  8
Frei
  6
CONTINUOUS
 62
           2
100
AcDbLine
 10
-14461.59783337893
 20
-14108.005032936764
 30
0.0
 11
-14462.59579937297
 21
-14107.941284409428
 31
0.0
  0
LINE
  5
12F
100
AcDbEntity
  8
Frei
  6
CONTINUOUS
 62
           7
100
AcDbLine
 10
-14461.534084851593
 20
-14107.007066942722
 30
0.0
 11
-14461.59783337893
 21
-14108.005032936764
 31
0.0
  0
LINE
  5
130
100
AcDbEntity
  8
Frei
  6
CONTINUOUS
 62
           2
100
AcDbLine
 10
-14461.980324542948
 20
-14113.992828901009
 30
0.0
 11
-14462.978290536988
 21
-14113.929080373673
 31
0.0
  0
LINE
  5
131
100
AcDbEntity
  8
Frei
  6
CONTINUOUS
 62
           7
100
AcDbLine
 10
-14461.59783337893
 20
-14108.005032936764
 30
0.0
 11
-14461.980324542948
 21
-14113.992828901009
 31
0.0
  0
LINE
  5
132
100
AcDbEntity
  8
Frei
  6
CONTINUOUS
 62
           1
100
AcDbLine
 10
-14460.144384014369
 20
-14108.598896114554
 30
0.0
 11
-14462.627673636638
 21
-14108.440267406448
 31
0.0
  0
LINE
  5
133
100
AcDbEntity
  8
Frei
  6
CONTINUOUS
 62
           7
100
AcDbLine
 10
-14462.659547900306
 20
-14108.939250403468
 30
0.0
 11
-14462.627673636638
 21
-14108.440267406448
 31
0.0
  0
LINE
  5
134
100
AcDbEntity
  8
Frei
  6
CONTINUOUS
 62
           1
100
AcDbLine
 10
-14460.463126651051
 20
-14113.588726084759
 30
0.0
 11
-14462.94641627332
 21
-14113.430097376653
 31
0.0
  0
LINE
  5
135
100
AcDbEntity
  8
Frei
  6
CONTINUOUS
 62
           7
100
AcDbLine
 10
-14462.978290536988
 20
-14113.929080373673
 30
0.0
 11
-14462.94641627332
 21
-14113.430097376653
 31
0.0
  0
LINE
  5
136
100
AcDbEntity
  8
Frei
  6
CONTINUOUS
 62
           1
100
AcDbLine
 10
-14460.176258278037
 20
-14109.097879111576
 30
0.0
 11
-14462.659547900306
 21
-14108.939250403468
 31
0.0
  0
LINE
  5
137
100
AcDbEntity
  8
Frei
  6
CONTINUOUS
 62
           7
100
AcDbLine
 10
-14462.914542009652
 20
-14112.931114379633
 30
0.0
 11
-14462.659547900306
 21
-14108.939250403468
 31
0.0
  0
LINE
  5
138
100
AcDbEntity
  8
Frei
  6
CONTINUOUS
 62
           1
100
AcDbLine
 10
-14460.431252387383
 20
-14113.089743087739
 30
0.0
 11
-14462.914542009652
 21
-14112.931114379633
 31
0.0
  0
LINE
  5
139
100
AcDbEntity
  8
Frei
  6
CONTINUOUS
 62
           7
100
AcDbLine
 10
-14462.94641627332
 20
-14113.430097376653
 30
0.0
 11
-14462.914542009652
 21
-14112.931114379633
 31
0.0
  0
LINE
  5
13A
100
AcDbEntity
  8
Frei
  6
CONTINUOUS
 62
           7
100
AcDbLine
 10
-14455.134344795657
 20
-14099.845773042995
 30
0.0
 11
-14428.059344565878
 21
-14100.628057395472
 31
0.0
  0
LINE
  5
13B
100
AcDbEntity
  8
Frei
  6
CONTINUOUS
 62
           7
100
AcDbLine
 10
-14457.188039148816
 20
-14101.717441691604
 30
0.0
 11
-14457.223478238748
 21
-14102.272231081863
 31
0.0
  0
LINE
  5
13C
100
AcDbEntity
  8
Frei
  6
CONTINUOUS
 62
           7
100
AcDbLine
 10
-14429.908051858632
 20
-14129.569071222664
 30
0.0
 11
-14458.849065685823
 21
-14127.720363929911
 31
0.0
  0
LINE
  5
13D
100
AcDbEntity
  8
Frei
  6
CONTINUOUS
 62
           7
100
AcDbLine
 10
-14458.912814213159
 20
-14128.718329923951
 30
0.0
 11
-14458.849065685823
 21
-14127.720363929911
 31
0.0
  0
LINE
  5
13E
100
AcDbEntity
  8
Frei
  6
CONTINUOUS
 62
           7
100
AcDbLine
 10
-14458.413831216139
 20
-14128.75020418762
 30
0.0
 11
-14458.912814213159
 21
-14128.718329923951
 31
0.0
  0
LINE
  5
13F
100
AcDbEntity
  8
Frei
  6
CONTINUOUS
 62
           7
100
AcDbLine
 10
-14429.908051858632
 20
-14129.569071222664
 30
0.0
 11
-14429.971800385969
 21
-14130.567037216706
 31
0.0
  0
LINE
  5
140
100
AcDbEntity
  8
Frei
  6
CONTINUOUS
 62
           7
100
AcDbLine
 10
-14469.721205008944
 20
-14141.054402573123
 30
0.0
 11
-14459.242562071511
 21
-14141.723762110154
 31
0.0
  0
LINE
  5
141
100
AcDbEntity
  8
Frei
  6
CONTINUOUS
 62
           7
100
AcDbLine
 10
-14472.238130437387
 20
-14156.926235686777
 30
0.0
 11
-14472.270004701055
 21
-14157.425218683797
 31
0.0
  0
LINE
  5
142
100
AcDbEntity
  8
Frei
  6
CONTINUOUS
 62
           7
100
AcDbLine
 10
-14470.868678500998
 20
-14159.017790465863
 30
0.0
 11
-14460.390035563565
 21
-14159.687150002894
 31
0.0
  0
LINE
  5
143
100
AcDbEntity
  8
Frei
  6
CONTINUOUS
 62
           7
100
AcDbLine
 10
-14460.166915717889
 20
-14156.19426902375
 30
0.0
 11
-14458.413831216139
 21
-14128.75020418762
 31
0.0
  0
LINE
  5
144
100
AcDbEntity
  8
Frei
  6
CONTINUOUS
 62
           7
100
AcDbLine
 10
-14430.470783382989
 20
-14130.535162953038
 30
0.0
 11
-14458.413831216139
 21
-14128.75020418762
 31
0.0
  0
LINE
  5
145
100
AcDbEntity
  8
Frei
  6
CONTINUOUS
 62
           7
100
AcDbLine
 10
-14458.765589517832
 20
-14157.786840805817
 30
0.0
 11
-14452.813618920918
 21
-14158.167043500665
 31
0.0
  0
LINE
  5
146
100
AcDbEntity
  8
Frei
  6
CONTINUOUS
 62
           7
100
AcDbLine
 10
-14432.223867884737
 20
-14157.979227789168
 30
0.0
 11
-14430.470783382989
 21
-14130.535162953038
 31
0.0
  0
LINE
  5
147
100
AcDbEntity
  8
Frei
  6
CONTINUOUS
 62
           7
100
AcDbLine
 10
-14429.971800385969
 20
-14130.567037216706
 30
0.0
 11
-14430.470783382989
 21
-14130.535162953038
 31
0.0
  0
LINE
  5
148
100
AcDbEntity
  8
Frei
  6
CONTINUOUS
 62
           7
100
AcDbLine
 10
-14452.813618920918
 20
-14158.167043500665
 30
0.0
 11
-14460.390035563565
 21
-14159.687150002894
 31
0.0
  0
LINE
  5
149
100
AcDbEntity
  8
Frei
  6
CONTINUOUS
 62
           7
100
AcDbLine
 10
-14433.816439666803
 20
-14159.380553989226
 30
0.0
 11
-14452.813618920918
 21
-14158.167043500665
 31
0.0
  0
LINE
  5
14A
100
AcDbEntity
  8
Frei
  6
CONTINUOUS
 62
           7
100
AcDbLine
 10
-14476.335481024884
 20
-14142.635969133518
 30
0.0
 11
-14471.345651054678
 21
-14142.9547117702
 31
0.0
  0
LINE
  5
14B
100
AcDbEntity
  8
Frei
  6
CONTINUOUS
 62
           7
100
AcDbLine
 10
-14471.31377679101
 20
-14142.45572877318
 30
0.0
 11
-14471.345651054678
 21
-14142.9547117702
 31
0.0
  0
LINE
  5
14C
100
AcDbEntity
  8
Frei
  6
CONTINUOUS
 62
           7
100
AcDbLine
 10
-14477.227960407592
 20
-14156.607493050094
 30
0.0
 11
-14472.238130437387
 21
-14156.926235686777
 31
0.0
  0
LINE
  5
14D
100
AcDbEntity
  8
Frei
  6
CONTINUOUS
 62
           7
100
AcDbLine
 10
-14472.17438191005
 20
-14155.928269692735
 30
0.0
 11
-14472.238130437387
 21
-14156.926235686777
 31
0.0
  0
LINE
  5
14E
100
AcDbEntity
  8
Frei
  6
CONTINUOUS
 62
           2
100
AcDbLine
 10
-14471.409399582015
 20
-14143.952677764242
 30
0.0
 11
-14476.39922955222
 21
-14143.63393512756
 31
0.0
  0
LINE
  5
14F
100
AcDbEntity
  8
Frei
  6
CONTINUOUS
 62
           7
100
AcDbLine
 10
-14471.345651054678
 20
-14142.9547117702
 30
0.0
 11
-14471.409399582015
 21
-14143.952677764242
 31
0.0
  0
LINE
  5
150
100
AcDbEntity
  8
Frei
  6
CONTINUOUS
 62
           2
100
AcDbLine
 10
-14472.17438191005
 20
-14155.928269692735
 30
0.0
 11
-14477.164211880256
 21
-14155.609527056053
 31
0.0
  0
LINE
  5
151
100
AcDbEntity
  8
Frei
  6
CONTINUOUS
 62
           7
100
AcDbLine
 10
-14471.409399582015
 20
-14143.952677764242
 30
0.0
 11
-14472.17438191005
 21
-14155.928269692735
 31
0.0
  0
LINE
  5
152
100
AcDbEntity
  8
Frei
  6
CONTINUOUS
 62
           7
100
AcDbLine
 10
-14428.409961466228
 20
-14106.116870362699
 30
0.0
 11
-14427.655510495797
 21
-14106.165063526192
 31
0.0
  0
LINE
  5
153
100
AcDbEntity
  8
Frei
  6
CONTINUOUS
 62
           7
100
AcDbLine
 10
-14428.059344565878
 20
-14100.628057395472
 30
0.0
 11
-14428.409961466228
 21
-14106.116870362699
 31
0.0
  0
LINE
  5
154
100
AcDbEntity
  8
Frei
  6
CONTINUOUS
 62
           7
100
AcDbLine
 10
-14428.633081311906
 20
-14109.609751341843
 30
0.0
 11
-14427.878630341474
 21
-14109.657944505336
 31
0.0
  0
LINE
  5
155
100
AcDbEntity
  8
Frei
  6
CONTINUOUS
 62
           7
100
AcDbLine
 10
-14428.409961466228
 20
-14106.116870362699
 30
0.0
 11
-14428.633081311906
 21
-14109.609751341843
 31
0.0
  0
LINE
  5
156
100
AcDbEntity
  8
Frei
  6
CONTINUOUS
 62
           7
100
AcDbLine
 10
-14429.079321003259
 20
-14116.59551330013
 30
0.0
 11
-14428.324870032829
 21
-14116.643706463623
 31
0.0
  0
LINE
  5
157
100
AcDbEntity
  8
Frei
  6
CONTINUOUS
 62
           7
100
AcDbLine
 10
-14428.633081311906
 20
-14109.609751341843
 30
0.0
 11
-14429.079321003259
 21
-14116.59551330013
 31
0.0
  0
LINE
  5
158
100
AcDbEntity
  8
Frei
  6
CONTINUOUS
 62
           7
100
AcDbLine
 10
-14429.302440848936
 20
-14120.088394279273
 30
0.0
 11
-14428.547989878507
 21
-14120.136587442768
 31
0.0
  0
LINE
  5
159
100
AcDbEntity
  8
Frei
  6
CONTINUOUS
 62
           7
100
AcDbLine
 10
-14429.079321003259
 20
-14116.59551330013
 30
0.0
 11
-14429.302440848936
 21
-14120.088394279273
 31
0.0
  0
LINE
  5
15A
100
AcDbEntity
  8
Frei
  6
CONTINUOUS
 62
           7
100
AcDbLine
 10
-14427.359252166521
 20
-14113.198255111991
 30
0.0
 11
-14427.024572398004
 21
-14107.958933643275
 31
0.0
  0
LINE
  5
15B
100
AcDbEntity
  8
Frei
  6
CONTINUOUS
 62
           7
100
AcDbLine
 10
-14476.276309435885
 20
-14141.709653874144
 30
0.0
 11
-14476.192837045548
 21
-14140.402916126979
 31
0.0
  0
LINE
  5
15C
100
AcDbEntity
  8
Frei
  6
CONTINUOUS
 62
           7
100
AcDbLine
 10
-14481.605988967045
 20
-14158.569996226983
 30
0.0
 11
-14477.370604386926
 21
-14158.840546056634
 31
0.0
  0
LINE
  5
15D
100
AcDbEntity
  8
Frei
  6
CONTINUOUS
 62
           7
100
AcDbLine
 10
-14481.266139406091
 20
-14141.390911237464
 30
0.0
 11
-14476.276309435885
 21
-14141.709653874144
 31
0.0
  0
LINE
  5
15E
100
AcDbEntity
  8
Frei
  6
CONTINUOUS
 62
           7
100
AcDbLine
 10
-14476.403806490556
 20
-14143.705585862226
 30
0.0
 11
-14476.276309435885
 21
-14141.709653874144
 31
0.0
  0
LINE
  5
15F
100
AcDbEntity
  8
Frei
  6
CONTINUOUS
 62
           7
100
AcDbLine
 10
-14476.403806490556
 20
-14143.705585862226
 30
0.0
 11
-14481.393636460763
 21
-14143.386843225546
 31
0.0
  0
LINE
  5
160
100
AcDbEntity
  8
Frei
  6
CONTINUOUS
 62
           7
100
AcDbLine
 10
-14481.266139406091
 20
-14141.390911237464
 30
0.0
 11
-14481.393636460763
 21
-14143.386843225546
 31
0.0
  0
LINE
  5
161
100
AcDbEntity
  8
Frei
  6
CONTINUOUS
 62
           7
100
AcDbLine
 10
-14476.487278880893
 20
-14145.012323609393
 30
0.0
 11
-14476.403806490556
 21
-14143.705585862226
 31
0.0
  0
LINE
  5
162
100
AcDbEntity
  8
Frei
  6
CONTINUOUS
 62
           7
100
AcDbLine
 10
-14476.654223661564
 20
-14147.625799103724
 30
0.0
 11
-14476.487278880893
 21
-14145.012323609393
 31
0.0
  0
LINE
  5
163
100
AcDbEntity
  8
Frei
  6
CONTINUOUS
 62
           7
100
AcDbLine
 10
-14476.654223661564
 20
-14147.625799103724
 30
0.0
 11
-14481.64405363177
 21
-14147.307056467042
 31
0.0
  0
LINE
  5
164
100
AcDbEntity
  8
Frei
  6
CONTINUOUS
 62
           7
100
AcDbLine
 10
-14481.393636460763
 20
-14143.386843225546
 30
0.0
 11
-14481.64405363177
 21
-14147.307056467042
 31
0.0
  0
LINE
  5
165
100
AcDbEntity
  8
Frei
  6
CONTINUOUS
 62
           7
100
AcDbLine
 10
-14476.90921777091
 20
-14151.617663079889
 30
0.0
 11
-14476.654223661564
 21
-14147.625799103724
 31
0.0
  0
LINE
  5
166
100
AcDbEntity
  8
Frei
  6
CONTINUOUS
 62
           7
100
AcDbLine
 10
-14476.90921777091
 20
-14151.617663079889
 30
0.0
 11
-14481.899047741115
 21
-14151.298920443207
 31
0.0
  0
LINE
  5
167
100
AcDbEntity
  8
Frei
  6
CONTINUOUS
 62
           7
100
AcDbLine
 10
-14481.64405363177
 20
-14147.307056467042
 30
0.0
 11
-14481.899047741115
 21
-14151.298920443207
 31
0.0
  0
LINE
  5
168
100
AcDbEntity
  8
Frei
  6
CONTINUOUS
 62
           7
100
AcDbLine
 10
-14477.076162551582
 20
-14154.231138574221
 30
0.0
 11
-14476.90921777091
 21
-14151.617663079889
 31
0.0
  0
LINE
  5
169
100
AcDbEntity
  8
Frei
  6
CONTINUOUS
 62
           7
100
AcDbLine
 10
-14477.159634941918
 20
-14155.537876321387
 30
0.0
 11
-14477.076162551582
 21
-14154.231138574221
 31
0.0
  0
LINE
  5
16A
100
AcDbEntity
  8
Frei
  6
CONTINUOUS
 62
           7
100
AcDbLine
 10
-14477.159634941918
 20
-14155.537876321387
 30
0.0
 11
-14482.149464912123
 21
-14155.219133684705
 31
0.0
  0
LINE
  5
16B
100
AcDbEntity
  8
Frei
  6
CONTINUOUS
 62
           7
100
AcDbLine
 10
-14481.899047741115
 20
-14151.298920443207
 30
0.0
 11
-14482.149464912123
 21
-14155.219133684705
 31
0.0
  0
LINE
  5
16C
100
AcDbEntity
  8
Frei
  6
CONTINUOUS
 62
           7
100
AcDbLine
 10
-14477.287131996591
 20
-14157.533808309468
 30
0.0
 11
-14477.159634941918
 21
-14155.537876321387
 31
0.0
  0
LINE
  5
16D
100
AcDbEntity
  8
Frei
  6
CONTINUOUS
 62
           7
100
AcDbLine
 10
-14477.287131996591
 20
-14157.533808309468
 30
0.0
 11
-14482.276961966796
 21
-14157.215065672786
 31
0.0
  0
LINE
  5
16E
100
AcDbEntity
  8
Frei
  6
CONTINUOUS
 62
           7
100
AcDbLine
 10
-14482.149464912123
 20
-14155.219133684705
 30
0.0
 11
-14482.276961966796
 21
-14157.215065672786
 31
0.0
  0
LINE
  5
16F
100
AcDbEntity
  8
Frei
  6
CONTINUOUS
 62
           7
100
AcDbLine
 10
-14477.370604386926
 20
-14158.840546056634
 30
0.0
 11
-14477.287131996591
 21
-14157.533808309468
 31
0.0
  0
LINE
  5
170
100
AcDbEntity
  8
Frei
  6
CONTINUOUS
 62
           7
100
AcDbLine
 10
-14481.266139406091
 20
-14141.390911237464
 30
0.0
 11
-14480.428221625667
 21
-14140.132366297328
 31
0.0
  0
LINE
  5
171
100
AcDbEntity
  8
Frei
  6
CONTINUOUS
 62
           7
100
AcDbLine
 10
-14476.192837045548
 20
-14140.402916126979
 30
0.0
 11
-14480.428221625667
 21
-14140.132366297328
 31
0.0
  0
LINE
  5
172
100
AcDbEntity
  8
Frei
  6
CONTINUOUS
 62
           7
100
AcDbLine
 10
-14481.605988967045
 20
-14158.569996226983
 30
0.0
 11
-14482.276961966796
 21
-14157.215065672786
 31
0.0
  0
LINE
  5
173
100
AcDbEntity
  8
Frei
  6
CONTINUOUS
 62
           7
100
AcDbLine
 10
-14480.722663461012
 20
-14144.74177377974
 30
0.0
 11
-14481.393636460763
 21
-14143.386843225546
 31
0.0
  0
LINE
  5
174
100
AcDbEntity
  8
Frei
  6
CONTINUOUS
 62
           7
100
AcDbLine
 10
-14476.487278880893
 20
-14145.012323609393
 30
0.0
 11
-14480.722663461012
 21
-14144.74177377974
 31
0.0
  0
LINE
  5
175
100
AcDbEntity
  8
Frei
  6
CONTINUOUS
 62
           7
100
AcDbLine
 10
-14481.64405363177
 20
-14147.307056467042
 30
0.0
 11
-14480.722663461012
 21
-14144.74177377974
 31
0.0
  0
LINE
  5
176
100
AcDbEntity
  8
Frei
  6
CONTINUOUS
 62
           7
100
AcDbLine
 10
-14481.311547131701
 20
-14153.960588744569
 30
0.0
 11
-14481.899047741115
 21
-14151.298920443207
 31
0.0
  0
LINE
  5
177
100
AcDbEntity
  8
Frei
  6
CONTINUOUS
 62
           7
100
AcDbLine
 10
-14477.076162551582
 20
-14154.231138574221
 30
0.0
 11
-14481.311547131701
 21
-14153.960588744569
 31
0.0
  0
LINE
  5
178
100
AcDbEntity
  8
Frei
  6
CONTINUOUS
 62
           7
100
AcDbLine
 10
-14482.149464912123
 20
-14155.219133684705
 30
0.0
 11
-14481.311547131701
 21
-14153.960588744569
 31
0.0
  0
LINE
  5
179
100
AcDbEntity
  8
Frei
  6
CONTINUOUS
 62
           3
100
AcDbLine
 10
-14436.85670610186
 20
-14152.071875585856
 30
0.0
 11
-14454.8200939946
 21
-14150.924402093802
 31
0.0
  0
LINE
  5
17A
100
AcDbEntity
  8
Frei
  6
CONTINUOUS
 62
           3
100
AcDbLine
 10
-14437.493734814685
 20
-14152.632406065879
 30
0.0
 11
-14436.85670610186
 21
-14152.071875585856
 31
0.0
  0
LINE
  5
17B
100
AcDbEntity
  8
Frei
  6
CONTINUOUS
 62
           3
100
AcDbLine
 10
-14436.933204334664
 20
-14153.269434778706
 30
0.0
 11
-14437.493734814685
 21
-14152.632406065879
 31
0.0
  0
LINE
  5
17C
100
AcDbEntity
  8
Frei
  6
CONTINUOUS
 62
           3
100
AcDbLine
 10
-14454.896592227404
 20
-14152.121961286652
 30
0.0
 11
-14436.933204334664
 21
-14153.269434778706
 31
0.0
  0
LINE
  5
17D
100
AcDbEntity
  8
Frei
  6
CONTINUOUS
 62
           3
100
AcDbLine
 10
-14454.259563514577
 20
-14151.561430806629
 30
0.0
 11
-14454.896592227404
 21
-14152.121961286652
 31
0.0
  0
LINE
  5
17E
100
AcDbEntity
  8
Frei
  6
CONTINUOUS
 62
           3
100
AcDbLine
 10
-14454.8200939946
 20
-14150.924402093802
 30
0.0
 11
-14454.259563514577
 21
-14151.561430806629
 31
0.0
  0
LINE
  5
17F
100
AcDbEntity
  8
Frei
  6
CONTINUOUS
 62
           3
100
AcDbLine
 10
-14437.493734814685
 20
-14152.632406065879
 30
0.0
 11
-14454.259563514577
 21
-14151.561430806629
 31
0.0
  0
LINE
  5
180
100
AcDbEntity
  8
Frei
  6
CONTINUOUS
 62
           3
100
AcDbLine
 10
-14454.769095172731
 20
-14150.12602929857
 30
0.0
 11
-14454.132066459904
 21
-14149.565498818545
 31
0.0
  0
LINE
  5
181
100
AcDbEntity
  8
Frei
  6
CONTINUOUS
 62
           3
100
AcDbLine
 10
-14436.805707279991
 20
-14151.273502790624
 30
0.0
 11
-14454.769095172731
 21
-14150.12602929857
 31
0.0
  0
LINE
  5
182
100
AcDbEntity
  8
Frei
  6
CONTINUOUS
 62
           3
100
AcDbLine
 10
-14437.366237760012
 20
-14150.636474077797
 30
0.0
 11
-14436.805707279991
 21
-14151.273502790624
 31
0.0
  0
LINE
  5
183
100
AcDbEntity
  8
Frei
  6
CONTINUOUS
 62
           3
100
AcDbLine
 10
-14436.729209047187
 20
-14150.075943597774
 30
0.0
 11
-14437.366237760012
 21
-14150.636474077797
 31
0.0
  0
LINE
  5
184
100
AcDbEntity
  8
Frei
  6
CONTINUOUS
 62
           3
100
AcDbLine
 10
-14454.692596939927
 20
-14148.92847010572
 30
0.0
 11
-14436.729209047187
 21
-14150.075943597774
 31
0.0
  0
LINE
  5
185
100
AcDbEntity
  8
Frei
  6
CONTINUOUS
 62
           3
100
AcDbLine
 10
-14454.132066459904
 20
-14149.565498818545
 30
0.0
 11
-14454.692596939927
 21
-14148.92847010572
 31
0.0
  0
LINE
  5
186
100
AcDbEntity
  8
Frei
  6
CONTINUOUS
 62
           3
100
AcDbLine
 10
-14454.132066459904
 20
-14149.565498818545
 30
0.0
 11
-14437.366237760012
 21
-14150.636474077797
 31
0.0
  0
LINE
  5
187
100
AcDbEntity
  8
Frei
  6
CONTINUOUS
 62
           3
100
AcDbLine
 10
-14454.641598118058
 20
-14148.130097310486
 30
0.0
 11
-14454.004569405231
 21
-14147.569566830463
 31
0.0
  0
LINE
  5
188
100
AcDbEntity
  8
Frei
  6
CONTINUOUS
 62
           3
100
AcDbLine
 10
-14436.678210225318
 20
-14149.27757080254
 30
0.0
 11
-14454.641598118058
 21
-14148.130097310486
 31
0.0
  0
LINE
  5
189
100
AcDbEntity
  8
Frei
  6
CONTINUOUS
 62
           3
100
AcDbLine
 10
-14437.238740705339
 20
-14148.640542089714
 30
0.0
 11
-14436.678210225318
 21
-14149.27757080254
 31
0.0
  0
LINE
  5
18A
100
AcDbEntity
  8
Frei
  6
CONTINUOUS
 62
           3
100
AcDbLine
 10
-14436.601711992515
 20
-14148.080011609693
 30
0.0
 11
-14437.238740705339
 21
-14148.640542089714
 31
0.0
  0
LINE
  5
18B
100
AcDbEntity
  8
Frei
  6
CONTINUOUS
 62
           3
100
AcDbLine
 10
-14454.565099885254
 20
-14146.932538117639
 30
0.0
 11
-14436.601711992515
 21
-14148.080011609693
 31
0.0
  0
LINE
  5
18C
100
AcDbEntity
  8
Frei
  6
CONTINUOUS
 62
           3
100
AcDbLine
 10
-14454.004569405231
 20
-14147.569566830463
 30
0.0
 11
-14454.565099885254
 21
-14146.932538117639
 31
0.0
  0
LINE
  5
18D
100
AcDbEntity
  8
Frei
  6
CONTINUOUS
 62
           3
100
AcDbLine
 10
-14454.514101063385
 20
-14146.134165322404
 30
0.0
 11
-14453.877072350559
 21
-14145.573634842382
 31
0.0
  0
LINE
  5
18E
100
AcDbEntity
  8
Frei
  6
CONTINUOUS
 62
           3
100
AcDbLine
 10
-14448.433574809516
 20
-14146.522579954195
 30
0.0
 11
-14454.514101063385
 21
-14146.134165322404
 31
0.0
  0
LINE
  5
18F
100
AcDbEntity
  8
Frei
  6
CONTINUOUS
 62
           3
100
AcDbLine
 10
-14437.111243650666
 20
-14146.644610101632
 30
0.0
 11
-14436.550713170645
 21
-14147.281638814458
 31
0.0
  0
LINE
  5
190
100
AcDbEntity
  8
Frei
  6
CONTINUOUS
 62
           3
100
AcDbLine
 10
-14436.474214937842
 20
-14146.084079621609
 30
0.0
 11
-14437.111243650666
 21
-14146.644610101632
 31
0.0
  0
LINE
  5
191
100
AcDbEntity
  8
Frei
  6
CONTINUOUS
 62
           3
100
AcDbLine
 10
-14442.554741191709
 20
-14145.69566498982
 30
0.0
 11
-14436.474214937842
 21
-14146.084079621609
 31
0.0
  0
LINE
  5
192
100
AcDbEntity
  8
Frei
  6
CONTINUOUS
 62
           3
100
AcDbLine
 10
-14453.877072350559
 20
-14145.573634842382
 30
0.0
 11
-14454.437602830581
 21
-14144.936606129555
 31
0.0
  0
LINE
  5
193
100
AcDbEntity
  8
Frei
  6
CONTINUOUS
 62
           3
100
AcDbLine
 10
-14454.386604008712
 20
-14144.138233334323
 30
0.0
 11
-14453.749575295886
 21
-14143.5777028543
 31
0.0
  0
LINE
  5
194
100
AcDbEntity
  8
Frei
  6
CONTINUOUS
 62
           3
100
AcDbLine
 10
-14449.050776045138
 20
-14144.479077788772
 30
0.0
 11
-14454.386604008712
 21
-14144.138233334323
 31
0.0
  0
LINE
  5
195
100
AcDbEntity
  8
Frei
  6
CONTINUOUS
 62
           3
100
AcDbLine
 10
-14436.983746595994
 20
-14144.64867811355
 30
0.0
 11
-14436.423216115973
 21
-14145.285706826377
 31
0.0
  0
LINE
  5
196
100
AcDbEntity
  8
Frei
  6
CONTINUOUS
 62
           3
100
AcDbLine
 10
-14442.319574559569
 20
-14144.307833659101
 30
0.0
 11
-14436.983746595994
 21
-14144.64867811355
 31
0.0
  0
LINE
  5
197
100
AcDbEntity
  8
Frei
  6
CONTINUOUS
 62
           3
100
AcDbLine
 10
-14447.79654609669
 20
-14145.962049474172
 30
0.0
 11
-14453.877072350559
 21
-14145.573634842382
 31
0.0
  0
LINE
  5
198
100
AcDbEntity
  8
Frei
  6
CONTINUOUS
 62
           3
100
AcDbLine
 10
-14437.238740705339
 20
-14148.640542089714
 30
0.0
 11
-14454.004569405231
 21
-14147.569566830463
 31
0.0
  0
LINE
  5
199
100
AcDbEntity
  8
Frei
  6
CONTINUOUS
 62
           3
100
AcDbLine
 10
-14447.79654609669
 20
-14145.962049474172
 30
0.0
 11
-14448.357076576713
 21
-14145.325020761346
 31
0.0
  0
LINE
  5
19A
100
AcDbEntity
  8
Frei
  6
CONTINUOUS
 62
           3
100
AcDbLine
 10
-14454.437602830581
 20
-14144.936606129555
 30
0.0
 11
-14448.357076576713
 21
-14145.325020761346
 31
0.0
  0
LINE
  5
19B
100
AcDbEntity
  8
Frei
  6
CONTINUOUS
 62
           3
100
AcDbLine
 10
-14448.433574809516
 20
-14146.522579954195
 30
0.0
 11
-14447.79654609669
 21
-14145.962049474172
 31
0.0
  0
LINE
  5
19C
100
AcDbEntity
  8
Frei
  6
CONTINUOUS
 62
           3
100
AcDbLine
 10
-14448.41374733231
 20
-14143.918547308749
 30
0.0
 11
-14449.050776045138
 21
-14144.479077788772
 31
0.0
  0
LINE
  5
19D
100
AcDbEntity
  8
Frei
  6
CONTINUOUS
 62
           3
100
AcDbLine
 10
-14453.749575295886
 20
-14143.5777028543
 30
0.0
 11
-14448.41374733231
 21
-14143.918547308749
 31
0.0
  0
LINE
  5
19E
100
AcDbEntity
  8
Frei
  6
CONTINUOUS
 62
           3
100
AcDbLine
 10
-14441.759044079547
 20
-14144.944862371927
 30
0.0
 11
-14442.319574559569
 21
-14144.307833659101
 31
0.0
  0
LINE
  5
19F
100
AcDbEntity
  8
Frei
  6
CONTINUOUS
 62
           3
100
AcDbLine
 10
-14436.423216115973
 20
-14145.285706826377
 30
0.0
 11
-14441.759044079547
 21
-14144.944862371927
 31
0.0
  0
LINE
  5
1A0
100
AcDbEntity
  8
Frei
  6
CONTINUOUS
 62
           3
100
AcDbLine
 10
-14443.191769904537
 20
-14146.256195469843
 30
0.0
 11
-14442.554741191709
 21
-14145.69566498982
 31
0.0
  0
LINE
  5
1A1
100
AcDbEntity
  8
Frei
  6
CONTINUOUS
 62
           3
100
AcDbLine
 10
-14437.111243650666
 20
-14146.644610101632
 30
0.0
 11
-14443.191769904537
 21
-14146.256195469843
 31
0.0
  0
LINE
  5
1A2
100
AcDbEntity
  8
Frei
  6
CONTINUOUS
 62
           3
100
AcDbLine
 10
-14442.631239424512
 20
-14146.89322418267
 30
0.0
 11
-14443.191769904537
 21
-14146.256195469843
 31
0.0
  0
LINE
  5
1A3
100
AcDbEntity
  8
Frei
  6
CONTINUOUS
 62
           3
100
AcDbLine
 10
-14436.550713170645
 20
-14147.281638814458
 30
0.0
 11
-14442.631239424512
 21
-14146.89322418267
 31
0.0
  0
LINE
  5
1A4
100
AcDbEntity
  8
Frei
  6
CONTINUOUS
 62
           3
100
AcDbLine
 10
-14454.437602830581
 20
-14144.936606129555
 30
0.0
 11
-14454.514101063385
 21
-14146.134165322404
 31
0.0
  0
LINE
  5
1A5
100
AcDbEntity
  8
Frei
  6
CONTINUOUS
 62
           3
100
AcDbLine
 10
-14454.641598118058
 20
-14148.130097310486
 30
0.0
 11
-14454.565099885254
 21
-14146.932538117639
 31
0.0
  0
LINE
  5
1A6
100
AcDbEntity
  8
Frei
  6
CONTINUOUS
 62
           3
100
AcDbLine
 10
-14454.769095172731
 20
-14150.12602929857
 30
0.0
 11
-14454.692596939927
 21
-14148.92847010572
 31
0.0
  0
LINE
  5
1A7
100
AcDbEntity
  8
Frei
  6
CONTINUOUS
 62
           3
100
AcDbLine
 10
-14454.896592227404
 20
-14152.121961286652
 30
0.0
 11
-14454.8200939946
 21
-14150.924402093802
 31
0.0
  0
LINE
  5
1A8
100
AcDbEntity
  8
Frei
  6
CONTINUOUS
 62
           3
100
AcDbLine
 10
-14454.34835489231
 20
-14143.539453737898
 30
0.0
 11
-14454.386604008712
 21
-14144.138233334323
 31
0.0
  0
LINE
  5
1A9
100
AcDbEntity
  8
Frei
  6
CONTINUOUS
 62
           3
100
AcDbLine
 10
-14436.423216115973
 20
-14145.285706826377
 30
0.0
 11
-14436.384966999571
 21
-14144.686927229952
 31
0.0
  0
LINE
  5
1AA
100
AcDbEntity
  8
Frei
  6
CONTINUOUS
 62
           3
100
AcDbLine
 10
-14436.550713170645
 20
-14147.281638814458
 30
0.0
 11
-14436.474214937842
 21
-14146.084079621609
 31
0.0
  0
LINE
  5
1AB
100
AcDbEntity
  8
Frei
  6
CONTINUOUS
 62
           3
100
AcDbLine
 10
-14436.678210225318
 20
-14149.27757080254
 30
0.0
 11
-14436.601711992515
 21
-14148.080011609693
 31
0.0
  0
LINE
  5
1AC
100
AcDbEntity
  8
Frei
  6
CONTINUOUS
 62
           3
100
AcDbLine
 10
-14436.805707279991
 20
-14151.273502790624
 30
0.0
 11
-14436.729209047187
 21
-14150.075943597774
 31
0.0
  0
LINE
  5
1AD
100
AcDbEntity
  8
Frei
  6
CONTINUOUS
 62
           3
100
AcDbLine
 10
-14436.933204334664
 20
-14153.269434778706
 30
0.0
 11
-14436.85670610186
 21
-14152.071875585856
 31
0.0
  0
LINE
  5
1AE
100
AcDbEntity
  8
Frei
  6
CONTINUOUS
 62
           3
100
AcDbLine
 10
-14435.913227897283
 20
-14137.301978874048
 30
0.0
 11
-14435.836729664479
 21
-14136.104419681198
 31
0.0
  0
LINE
  5
1AF
100
AcDbEntity
  8
Frei
  6
CONTINUOUS
 62
           3
100
AcDbLine
 10
-14436.040724951954
 20
-14139.297910862129
 30
0.0
 11
-14435.96422671915
 21
-14138.10035166928
 31
0.0
  0
LINE
  5
1B0
100
AcDbEntity
  8
Frei
  6
CONTINUOUS
 62
           3
100
AcDbLine
 10
-14436.168222006627
 20
-14141.293842850213
 30
0.0
 11
-14436.091723773823
 21
-14140.096283657364
 31
0.0
  0
LINE
  5
1B1
100
AcDbEntity
  8
Frei
  6
CONTINUOUS
 62
           3
100
AcDbLine
 10
-14436.2957190613
 20
-14143.289774838295
 30
0.0
 11
-14436.219220828496
 21
-14142.092215645445
 31
0.0
  0
LINE
  5
1B2
100
AcDbEntity
  8
Frei
  6
CONTINUOUS
 62
           3
100
AcDbLine
 10
-14436.384966999571
 20
-14144.686927229952
 30
0.0
 11
-14436.346717883169
 21
-14144.088147633527
 31
0.0
  0
LINE
  5
1B3
100
AcDbEntity
  8
Frei
  6
CONTINUOUS
 62
           3
100
AcDbLine
 10
-14454.310105775909
 20
-14142.940674141473
 30
0.0
 11
-14454.34835489231
 21
-14143.539453737898
 31
0.0
  0
LINE
  5
1B4
100
AcDbEntity
  8
Frei
  6
CONTINUOUS
 62
           3
100
AcDbLine
 10
-14453.876615790023
 20
-14136.154505381994
 30
0.0
 11
-14453.800117557219
 21
-14134.956946189144
 31
0.0
  0
LINE
  5
1B5
100
AcDbEntity
  8
Frei
  6
CONTINUOUS
 62
           3
100
AcDbLine
 10
-14454.004112844694
 20
-14138.150437370075
 30
0.0
 11
-14453.927614611892
 21
-14136.952878177228
 31
0.0
  0
LINE
  5
1B6
100
AcDbEntity
  8
Frei
  6
CONTINUOUS
 62
           3
100
AcDbLine
 10
-14454.131609899367
 20
-14140.146369358157
 30
0.0
 11
-14454.055111666563
 21
-14138.94881016531
 31
0.0
  0
LINE
  5
1B7
100
AcDbEntity
  8
Frei
  6
CONTINUOUS
 62
           3
100
AcDbLine
 10
-14454.182608721236
 20
-14140.944742153391
 30
0.0
 11
-14454.259106954039
 21
-14142.142301346241
 31
0.0
  0
LINE
  5
1B8
100
AcDbEntity
  8
Frei
  6
CONTINUOUS
 62
           3
100
AcDbLine
 10
-14442.299747082365
 20
-14141.703801013655
 30
0.0
 11
-14436.219220828496
 21
-14142.092215645445
 31
0.0
  0
LINE
  5
1B9
100
AcDbEntity
  8
Frei
  6
CONTINUOUS
 62
           3
100
AcDbLine
 10
-14442.936775795191
 20
-14142.264331493678
 30
0.0
 11
-14442.299747082365
 21
-14141.703801013655
 31
0.0
  0
LINE
  5
1BA
100
AcDbEntity
  8
Frei
  6
CONTINUOUS
 62
           3
100
AcDbLine
 10
-14442.936775795191
 20
-14142.264331493678
 30
0.0
 11
-14436.856249541321
 21
-14142.652746125468
 31
0.0
  0
LINE
  5
1BB
100
AcDbEntity
  8
Frei
  6
CONTINUOUS
 62
           3
100
AcDbLine
 10
-14442.376245315168
 20
-14142.901360206504
 30
0.0
 11
-14442.936775795191
 21
-14142.264331493678
 31
0.0
  0
LINE
  5
1BC
100
AcDbEntity
  8
Frei
  6
CONTINUOUS
 62
           3
100
AcDbLine
 10
-14441.682545846743
 20
-14143.747303179078
 30
0.0
 11
-14436.346717883169
 21
-14144.088147633527
 31
0.0
  0
LINE
  5
1BD
100
AcDbEntity
  8
Frei
  6
CONTINUOUS
 62
           3
100
AcDbLine
 10
-14442.319574559569
 20
-14144.307833659101
 30
0.0
 11
-14441.682545846743
 21
-14143.747303179078
 31
0.0
  0
LINE
  5
1BE
100
AcDbEntity
  8
Frei
  6
CONTINUOUS
 62
           3
100
AcDbLine
 10
-14448.974277812335
 20
-14143.281518595923
 30
0.0
 11
-14448.41374733231
 21
-14143.918547308749
 31
0.0
  0
LINE
  5
1BF
100
AcDbEntity
  8
Frei
  6
CONTINUOUS
 62
           3
100
AcDbLine
 10
-14447.541551987346
 20
-14141.970185498007
 30
0.0
 11
-14448.102082467367
 21
-14141.33315678518
 31
0.0
  0
LINE
  5
1C0
100
AcDbEntity
  8
Frei
  6
CONTINUOUS
 62
           3
100
AcDbLine
 10
-14448.178580700171
 20
-14142.53071597803
 30
0.0
 11
-14454.259106954039
 21
-14142.142301346241
 31
0.0
  0
LINE
  5
1C1
100
AcDbEntity
  8
Frei
  6
CONTINUOUS
 62
           3
100
AcDbLine
 10
-14448.178580700171
 20
-14142.53071597803
 30
0.0
 11
-14447.541551987346
 21
-14141.970185498007
 31
0.0
  0
LINE
  5
1C2
100
AcDbEntity
  8
Frei
  6
CONTINUOUS
 62
           3
100
AcDbLine
 10
-14453.49458118654
 20
-14139.585838878134
 30
0.0
 11
-14436.72875248665
 21
-14140.656814137386
 31
0.0
  0
LINE
  5
1C3
100
AcDbEntity
  8
Frei
  6
CONTINUOUS
 62
           3
100
AcDbLine
 10
-14453.622078241213
 20
-14141.581770866218
 30
0.0
 11
-14447.541551987346
 21
-14141.970185498007
 31
0.0
  0
LINE
  5
1C4
100
AcDbEntity
  8
Frei
  6
CONTINUOUS
 62
           3
100
AcDbLine
 10
-14436.346717883169
 20
-14144.088147633527
 30
0.0
 11
-14436.983746595994
 21
-14144.64867811355
 31
0.0
  0
LINE
  5
1C5
100
AcDbEntity
  8
Frei
  6
CONTINUOUS
 62
           3
100
AcDbLine
 10
-14454.310105775909
 20
-14142.940674141473
 30
0.0
 11
-14448.974277812335
 21
-14143.281518595923
 31
0.0
  0
LINE
  5
1C6
100
AcDbEntity
  8
Frei
  6
CONTINUOUS
 62
           3
100
AcDbLine
 10
-14453.749575295886
 20
-14143.5777028543
 30
0.0
 11
-14454.310105775909
 21
-14142.940674141473
 31
0.0
  0
LINE
  5
1C7
100
AcDbEntity
  8
Frei
  6
CONTINUOUS
 62
           3
100
AcDbLine
 10
-14454.259106954039
 20
-14142.142301346241
 30
0.0
 11
-14453.622078241213
 21
-14141.581770866218
 31
0.0
  0
LINE
  5
1C8
100
AcDbEntity
  8
Frei
  6
CONTINUOUS
 62
           3
100
AcDbLine
 10
-14436.2957190613
 20
-14143.289774838295
 30
0.0
 11
-14442.376245315168
 21
-14142.901360206504
 31
0.0
  0
LINE
  5
1C9
100
AcDbEntity
  8
Frei
  6
CONTINUOUS
 62
           3
100
AcDbLine
 10
-14436.856249541321
 20
-14142.652746125468
 30
0.0
 11
-14436.2957190613
 21
-14143.289774838295
 31
0.0
  0
LINE
  5
1CA
100
AcDbEntity
  8
Frei
  6
CONTINUOUS
 62
           3
100
AcDbLine
 10
-14436.219220828496
 20
-14142.092215645445
 30
0.0
 11
-14436.856249541321
 21
-14142.652746125468
 31
0.0
  0
LINE
  5
1CB
100
AcDbEntity
  8
Frei
  6
CONTINUOUS
 62
           3
100
AcDbLine
 10
-14454.182608721236
 20
-14140.944742153391
 30
0.0
 11
-14448.102082467367
 21
-14141.33315678518
 31
0.0
  0
LINE
  5
1CC
100
AcDbEntity
  8
Frei
  6
CONTINUOUS
 62
           3
100
AcDbLine
 10
-14453.622078241213
 20
-14141.581770866218
 30
0.0
 11
-14454.182608721236
 21
-14140.944742153391
 31
0.0
  0
LINE
  5
1CD
100
AcDbEntity
  8
Frei
  6
CONTINUOUS
 62
           3
100
AcDbLine
 10
-14454.131609899367
 20
-14140.146369358157
 30
0.0
 11
-14453.49458118654
 21
-14139.585838878134
 31
0.0
  0
LINE
  5
1CE
100
AcDbEntity
  8
Frei
  6
CONTINUOUS
 62
           3
100
AcDbLine
 10
-14436.168222006627
 20
-14141.293842850213
 30
0.0
 11
-14454.131609899367
 21
-14140.146369358157
 31
0.0
  0
LINE
  5
1CF
100
AcDbEntity
  8
Frei
  6
CONTINUOUS
 62
           3
100
AcDbLine
 10
-14436.72875248665
 20
-14140.656814137386
 30
0.0
 11
-14436.168222006627
 21
-14141.293842850213
 31
0.0
  0
LINE
  5
1D0
100
AcDbEntity
  8
Frei
  6
CONTINUOUS
 62
           3
100
AcDbLine
 10
-14436.091723773823
 20
-14140.096283657364
 30
0.0
 11
-14436.72875248665
 21
-14140.656814137386
 31
0.0
  0
LINE
  5
1D1
100
AcDbEntity
  8
Frei
  6
CONTINUOUS
 62
           3
100
AcDbLine
 10
-14454.055111666563
 20
-14138.94881016531
 30
0.0
 11
-14436.091723773823
 21
-14140.096283657364
 31
0.0
  0
LINE
  5
1D2
100
AcDbEntity
  8
Frei
  6
CONTINUOUS
 62
           3
100
AcDbLine
 10
-14453.49458118654
 20
-14139.585838878134
 30
0.0
 11
-14454.055111666563
 21
-14138.94881016531
 31
0.0
  0
LINE
  5
1D3
100
AcDbEntity
  8
Frei
  6
CONTINUOUS
 62
           3
100
AcDbLine
 10
-14436.601255431977
 20
-14138.660882149303
 30
0.0
 11
-14453.367084131867
 21
-14137.589906890053
 31
0.0
  0
LINE
  5
1D4
100
AcDbEntity
  8
Frei
  6
CONTINUOUS
 62
           3
100
AcDbLine
 10
-14454.004112844694
 20
-14138.150437370075
 30
0.0
 11
-14453.367084131867
 21
-14137.589906890053
 31
0.0
  0
LINE
  5
1D5
100
AcDbEntity
  8
Frei
  6
CONTINUOUS
 62
           3
100
AcDbLine
 10
-14436.040724951954
 20
-14139.297910862129
 30
0.0
 11
-14454.004112844694
 21
-14138.150437370075
 31
0.0
  0
LINE
  5
1D6
100
AcDbEntity
  8
Frei
  6
CONTINUOUS
 62
           3
100
AcDbLine
 10
-14436.601255431977
 20
-14138.660882149303
 30
0.0
 11
-14436.040724951954
 21
-14139.297910862129
 31
0.0
  0
LINE
  5
1D7
100
AcDbEntity
  8
Frei
  6
CONTINUOUS
 62
           3
100
AcDbLine
 10
-14435.96422671915
 20
-14138.10035166928
 30
0.0
 11
-14436.601255431977
 21
-14138.660882149303
 31
0.0
  0
LINE
  5
1D8
100
AcDbEntity
  8
Frei
  6
CONTINUOUS
 62
           3
100
AcDbLine
 10
-14453.927614611892
 20
-14136.952878177228
 30
0.0
 11
-14435.96422671915
 21
-14138.10035166928
 31
0.0
  0
LINE
  5
1D9
100
AcDbEntity
  8
Frei
  6
CONTINUOUS
 62
           3
100
AcDbLine
 10
-14453.367084131867
 20
-14137.589906890053
 30
0.0
 11
-14453.927614611892
 21
-14136.952878177228
 31
0.0
  0
LINE
  5
1DA
100
AcDbEntity
  8
Frei
  6
CONTINUOUS
 62
           3
100
AcDbLine
 10
-14453.239587077194
 20
-14135.593974901971
 30
0.0
 11
-14436.473758377304
 21
-14136.664950161221
 31
0.0
  0
LINE
  5
1DB
100
AcDbEntity
  8
Frei
  6
CONTINUOUS
 62
           3
100
AcDbLine
 10
-14453.239587077194
 20
-14135.593974901971
 30
0.0
 11
-14453.876615790023
 21
-14136.154505381994
 31
0.0
  0
LINE
  5
1DC
100
AcDbEntity
  8
Frei
  6
CONTINUOUS
 62
           3
100
AcDbLine
 10
-14453.800117557219
 20
-14134.956946189144
 30
0.0
 11
-14453.239587077194
 21
-14135.593974901971
 31
0.0
  0
LINE
  5
1DD
100
AcDbEntity
  8
Frei
  6
CONTINUOUS
 62
           3
100
AcDbLine
 10
-14435.836729664479
 20
-14136.104419681198
 30
0.0
 11
-14453.800117557219
 21
-14134.956946189144
 31
0.0
  0
LINE
  5
1DE
100
AcDbEntity
  8
Frei
  6
CONTINUOUS
 62
           3
100
AcDbLine
 10
-14436.473758377304
 20
-14136.664950161221
 30
0.0
 11
-14435.836729664479
 21
-14136.104419681198
 31
0.0
  0
LINE
  5
1DF
100
AcDbEntity
  8
Frei
  6
CONTINUOUS
 62
           3
100
AcDbLine
 10
-14435.913227897283
 20
-14137.301978874048
 30
0.0
 11
-14436.473758377304
 21
-14136.664950161221
 31
0.0
  0
LINE
  5
1E0
100
AcDbEntity
  8
Frei
  6
CONTINUOUS
 62
           3
100
AcDbLine
 10
-14453.876615790023
 20
-14136.154505381994
 30
0.0
 11
-14435.913227897283
 21
-14137.301978874048
 31
0.0
  0
LINE
  5
1E1
100
AcDbEntity
  8
Frei
  6
CONTINUOUS
 62
           3
100
AcDbLine
 10
-14263.265110928169
 20
-14148.330474103233
 30
0.0
 11
-14245.301723035429
 21
-14149.477947595287
 31
0.0
  0
LINE
  5
1E2
100
AcDbEntity
  8
Frei
  6
CONTINUOUS
 62
           3
100
AcDbLine
 10
-14262.628082215344
 20
-14147.769943623211
 30
0.0
 11
-14263.265110928169
 21
-14148.330474103233
 31
0.0
  0
LINE
  5
1E3
100
AcDbEntity
  8
Frei
  6
CONTINUOUS
 62
           3
100
AcDbLine
 10
-14263.188612695365
 20
-14147.132914910384
 30
0.0
 11
-14262.628082215344
 21
-14147.769943623211
 31
0.0
  0
LINE
  5
1E4
100
AcDbEntity
  8
Frei
  6
CONTINUOUS
 62
           3
100
AcDbLine
 10
-14245.225224802625
 20
-14148.280388402438
 30
0.0
 11
-14263.188612695365
 21
-14147.132914910384
 31
0.0
  0
LINE
  5
1E5
100
AcDbEntity
  8
Frei
  6
CONTINUOUS
 62
           3
100
AcDbLine
 10
-14245.862253515452
 20
-14148.840918882461
 30
0.0
 11
-14245.225224802625
 21
-14148.280388402438
 31
0.0
  0
LINE
  5
1E6
100
AcDbEntity
  8
Frei
  6
CONTINUOUS
 62
           3
100
AcDbLine
 10
-14245.301723035429
 20
-14149.477947595287
 30
0.0
 11
-14245.862253515452
 21
-14148.840918882461
 31
0.0
  0
LINE
  5
1E7
100
AcDbEntity
  8
Frei
  6
CONTINUOUS
 62
           3
100
AcDbLine
 10
-14262.628082215344
 20
-14147.769943623211
 30
0.0
 11
-14245.862253515452
 21
-14148.840918882461
 31
0.0
  0
LINE
  5
1E8
100
AcDbEntity
  8
Frei
  6
CONTINUOUS
 62
           3
100
AcDbLine
 10
-14245.352721857298
 20
-14150.276320390522
 30
0.0
 11
-14245.989750570125
 21
-14150.836850870543
 31
0.0
  0
LINE
  5
1E9
100
AcDbEntity
  8
Frei
  6
CONTINUOUS
 62
           3
100
AcDbLine
 10
-14263.316109750038
 20
-14149.128846898468
 30
0.0
 11
-14245.352721857298
 21
-14150.276320390522
 31
0.0
  0
LINE
  5
1EA
100
AcDbEntity
  8
Frei
  6
CONTINUOUS
 62
           3
100
AcDbLine
 10
-14262.755579270017
 20
-14149.765875611292
 30
0.0
 11
-14263.316109750038
 21
-14149.128846898468
 31
0.0
  0
LINE
  5
1EB
100
AcDbEntity
  8
Frei
  6
CONTINUOUS
 62
           3
100
AcDbLine
 10
-14263.392607982842
 20
-14150.326406091315
 30
0.0
 11
-14262.755579270017
 21
-14149.765875611292
 31
0.0
  0
LINE
  5
1EC
100
AcDbEntity
  8
Frei
  6
CONTINUOUS
 62
           3
100
AcDbLine
 10
-14245.429220090102
 20
-14151.473879583369
 30
0.0
 11
-14263.392607982842
 21
-14150.326406091315
 31
0.0
  0
LINE
  5
1ED
100
AcDbEntity
  8
Frei
  6
CONTINUOUS
 62
           3
100
AcDbLine
 10
-14245.989750570125
 20
-14150.836850870543
 30
0.0
 11
-14245.429220090102
 21
-14151.473879583369
 31
0.0
  0
LINE
  5
1EE
100
AcDbEntity
  8
Frei
  6
CONTINUOUS
 62
           3
100
AcDbLine
 10
-14245.989750570125
 20
-14150.836850870543
 30
0.0
 11
-14262.755579270017
 21
-14149.765875611292
 31
0.0
  0
LINE
  5
1EF
100
AcDbEntity
  8
Frei
  6
CONTINUOUS
 62
           3
100
AcDbLine
 10
-14245.480218911971
 20
-14152.272252378603
 30
0.0
 11
-14246.117247624798
 21
-14152.832782858626
 31
0.0
  0
LINE
  5
1F0
100
AcDbEntity
  8
Frei
  6
CONTINUOUS
 62
           3
100
AcDbLine
 10
-14263.443606804711
 20
-14151.124778886549
 30
0.0
 11
-14245.480218911971
 21
-14152.272252378603
 31
0.0
  0
LINE
  5
1F1
100
AcDbEntity
  8
Frei
  6
CONTINUOUS
 62
           3
100
AcDbLine
 10
-14262.88307632469
 20
-14151.761807599374
 30
0.0
 11
-14263.443606804711
 21
-14151.124778886549
 31
0.0
  0
LINE
  5
1F2
100
AcDbEntity
  8
Frei
  6
CONTINUOUS
 62
           3
100
AcDbLine
 10
-14263.520105037514
 20
-14152.322338079397
 30
0.0
 11
-14262.88307632469
 21
-14151.761807599374
 31
0.0
  0
LINE
  5
1F3
100
AcDbEntity
  8
Frei
  6
CONTINUOUS
 62
           3
100
AcDbLine
 10
-14245.556717144775
 20
-14153.469811571453
 30
0.0
 11
-14263.520105037514
 21
-14152.322338079397
 31
0.0
  0
LINE
  5
1F4
100
AcDbEntity
  8
Frei
  6
CONTINUOUS
 62
           3
100
AcDbLine
 10
-14246.117247624798
 20
-14152.832782858626
 30
0.0
 11
-14245.556717144775
 21
-14153.469811571453
 31
0.0
  0
LINE
  5
1F5
100
AcDbEntity
  8
Frei
  6
CONTINUOUS
 62
           3
100
AcDbLine
 10
-14245.607715966644
 20
-14154.268184366685
 30
0.0
 11
-14246.24474467947
 21
-14154.828714846708
 31
0.0
  0
LINE
  5
1F6
100
AcDbEntity
  8
Frei
  6
CONTINUOUS
 62
           3
100
AcDbLine
 10
-14251.688242220513
 20
-14153.879769734895
 30
0.0
 11
-14245.607715966644
 21
-14154.268184366685
 31
0.0
  0
LINE
  5
1F7
100
AcDbEntity
  8
Frei
  6
CONTINUOUS
 62
           3
100
AcDbLine
 10
-14263.010573379363
 20
-14153.757739587458
 30
0.0
 11
-14263.571103859384
 21
-14153.120710874631
 31
0.0
  0
LINE
  5
1F8
100
AcDbEntity
  8
Frei
  6
CONTINUOUS
 62
           3
100
AcDbLine
 10
-14263.647602092187
 20
-14154.318270067481
 30
0.0
 11
-14263.010573379363
 21
-14153.757739587458
 31
0.0
  0
LINE
  5
1F9
100
AcDbEntity
  8
Frei
  6
CONTINUOUS
 62
           3
100
AcDbLine
 10
-14257.56707583832
 20
-14154.706684699269
 30
0.0
 11
-14263.647602092187
 21
-14154.318270067481
 31
0.0
  0
LINE
  5
1FA
100
AcDbEntity
  8
Frei
  6
CONTINUOUS
 62
           3
100
AcDbLine
 10
-14246.24474467947
 20
-14154.828714846708
 30
0.0
 11
-14245.684214199448
 21
-14155.465743559535
 31
0.0
  0
LINE
  5
1FB
100
AcDbEntity
  8
Frei
  6
CONTINUOUS
 62
           3
100
AcDbLine
 10
-14245.735213021317
 20
-14156.264116354767
 30
0.0
 11
-14246.372241734143
 21
-14156.82464683479
 31
0.0
  0
LINE
  5
1FC
100
AcDbEntity
  8
Frei
  6
CONTINUOUS
 62
           3
100
AcDbLine
 10
-14251.071040984891
 20
-14155.923271900318
 30
0.0
 11
-14245.735213021317
 21
-14156.264116354767
 31
0.0
  0
LINE
  5
1FD
100
AcDbEntity
  8
Frei
  6
CONTINUOUS
 62
           3
100
AcDbLine
 10
-14263.138070434035
 20
-14155.75367157554
 30
0.0
 11
-14263.698600914056
 21
-14155.116642862713
 31
0.0
  0
LINE
  5
1FE
100
AcDbEntity
  8
Frei
  6
CONTINUOUS
 62
           3
100
AcDbLine
 10
-14252.325270933339
 20
-14154.440300214917
 30
0.0
 11
-14246.24474467947
 21
-14154.828714846708
 31
0.0
  0
LINE
  5
1FF
100
AcDbEntity
  8
Frei
  6
CONTINUOUS
 62
           3
100
AcDbLine
 10
-14262.88307632469
 20
-14151.761807599374
 30
0.0
 11
-14246.117247624798
 21
-14152.832782858626
 31
0.0
  0
LINE
  5
200
100
AcDbEntity
  8
Frei
  6
CONTINUOUS
 62
           3
100
AcDbLine
 10
-14252.325270933339
 20
-14154.440300214917
 30
0.0
 11
-14251.764740453316
 21
-14155.077328927744
 31
0.0
  0
LINE
  5
201
100
AcDbEntity
  8
Frei
  6
CONTINUOUS
 62
           3
100
AcDbLine
 10
-14245.684214199448
 20
-14155.465743559535
 30
0.0
 11
-14251.764740453316
 21
-14155.077328927744
 31
0.0
  0
LINE
  5
202
100
AcDbEntity
  8
Frei
  6
CONTINUOUS
 62
           3
100
AcDbLine
 10
-14251.688242220513
 20
-14153.879769734895
 30
0.0
 11
-14252.325270933339
 21
-14154.440300214917
 31
0.0
  0
LINE
  5
203
100
AcDbEntity
  8
Frei
  6
CONTINUOUS
 62
           3
100
AcDbLine
 10
-14251.708069697719
 20
-14156.48380238034
 30
0.0
 11
-14251.071040984891
 21
-14155.923271900318
 31
0.0
  0
LINE
  5
204
100
AcDbEntity
  8
Frei
  6
CONTINUOUS
 62
           3
100
AcDbLine
 10
-14258.362772950482
 20
-14155.457487317162
 30
0.0
 11
-14257.80224247046
 21
-14156.094516029989
 31
0.0
  0
LINE
  5
205
100
AcDbEntity
  8
Frei
  6
CONTINUOUS
 62
           3
100
AcDbLine
 10
-14263.698600914056
 20
-14155.116642862713
 30
0.0
 11
-14258.362772950482
 21
-14155.457487317162
 31
0.0
  0
LINE
  5
206
100
AcDbEntity
  8
Frei
  6
CONTINUOUS
 62
           3
100
AcDbLine
 10
-14256.930047125492
 20
-14154.146154219246
 30
0.0
 11
-14257.56707583832
 21
-14154.706684699269
 31
0.0
  0
LINE
  5
207
100
AcDbEntity
  8
Frei
  6
CONTINUOUS
 62
           3
100
AcDbLine
 10
-14263.010573379363
 20
-14153.757739587458
 30
0.0
 11
-14256.930047125492
 21
-14154.146154219246
 31
0.0
  0
LINE
  5
208
100
AcDbEntity
  8
Frei
  6
CONTINUOUS
 62
           3
100
AcDbLine
 10
-14257.490577605517
 20
-14153.50912550642
 30
0.0
 11
-14256.930047125492
 21
-14154.146154219246
 31
0.0
  0
LINE
  5
209
100
AcDbEntity
  8
Frei
  6
CONTINUOUS
 62
           3
100
AcDbLine
 10
-14263.571103859384
 20
-14153.120710874631
 30
0.0
 11
-14257.490577605517
 21
-14153.50912550642
 31
0.0
  0
LINE
  5
20A
100
AcDbEntity
  8
Frei
  6
CONTINUOUS
 62
           3
100
AcDbLine
 10
-14245.684214199448
 20
-14155.465743559535
 30
0.0
 11
-14245.607715966644
 21
-14154.268184366685
 31
0.0
  0
LINE
  5
20B
100
AcDbEntity
  8
Frei
  6
CONTINUOUS
 62
           3
100
AcDbLine
 10
-14245.480218911971
 20
-14152.272252378603
 30
0.0
 11
-14245.556717144775
 21
-14153.469811571453
 31
0.0
  0
LINE
  5
20C
100
AcDbEntity
  8
Frei
  6
CONTINUOUS
 62
           3
100
AcDbLine
 10
-14245.352721857298
 20
-14150.276320390522
 30
0.0
 11
-14245.429220090102
 21
-14151.473879583369
 31
0.0
  0
LINE
  5
20D
100
AcDbEntity
  8
Frei
  6
CONTINUOUS
 62
           3
100
AcDbLine
 10
-14245.225224802625
 20
-14148.280388402438
 30
0.0
 11
-14245.301723035429
 21
-14149.477947595287
 31
0.0
  0
LINE
  5
20E
100
AcDbEntity
  8
Frei
  6
CONTINUOUS
 62
           3
100
AcDbLine
 10
-14245.773462137719
 20
-14156.862895951192
 30
0.0
 11
-14245.735213021317
 21
-14156.264116354767
 31
0.0
  0
LINE
  5
20F
100
AcDbEntity
  8
Frei
  6
CONTINUOUS
 62
           3
100
AcDbLine
 10
-14263.698600914056
 20
-14155.116642862713
 30
0.0
 11
-14263.736850030458
 21
-14155.715422459138
 31
0.0
  0
LINE
  5
210
100
AcDbEntity
  8
Frei
  6
CONTINUOUS
 62
           3
100
AcDbLine
 10
-14263.571103859384
 20
-14153.120710874631
 30
0.0
 11
-14263.647602092187
 21
-14154.318270067481
 31
0.0
  0
LINE
  5
211
100
AcDbEntity
  8
Frei
  6
CONTINUOUS
 62
           3
100
AcDbLine
 10
-14263.443606804711
 20
-14151.124778886549
 30
0.0
 11
-14263.520105037514
 21
-14152.322338079397
 31
0.0
  0
LINE
  5
212
100
AcDbEntity
  8
Frei
  6
CONTINUOUS
 62
           3
100
AcDbLine
 10
-14263.316109750038
 20
-14149.128846898468
 30
0.0
 11
-14263.392607982842
 21
-14150.326406091315
 31
0.0
  0
LINE
  5
213
100
AcDbEntity
  8
Frei
  6
CONTINUOUS
 62
           3
100
AcDbLine
 10
-14263.188612695365
 20
-14147.132914910384
 30
0.0
 11
-14263.265110928169
 21
-14148.330474103233
 31
0.0
  0
LINE
  5
214
100
AcDbEntity
  8
Frei
  6
CONTINUOUS
 62
           3
100
AcDbLine
 10
-14264.208589132748
 20
-14163.100370815042
 30
0.0
 11
-14264.28508736555
 21
-14164.297930007891
 31
0.0
  0
LINE
  5
215
100
AcDbEntity
  8
Frei
  6
CONTINUOUS
 62
           3
100
AcDbLine
 10
-14264.081092078075
 20
-14161.10443882696
 30
0.0
 11
-14264.157590310879
 21
-14162.30199801981
 31
0.0
  0
LINE
  5
216
100
AcDbEntity
  8
Frei
  6
CONTINUOUS
 62
           3
100
AcDbLine
 10
-14263.953595023402
 20
-14159.108506838878
 30
0.0
 11
-14264.030093256206
 21
-14160.306066031726
 31
0.0
  0
LINE
  5
217
100
AcDbEntity
  8
Frei
  6
CONTINUOUS
 62
           3
100
AcDbLine
 10
-14263.826097968729
 20
-14157.112574850795
 30
0.0
 11
-14263.902596201533
 21
-14158.310134043644
 31
0.0
  0
LINE
  5
218
100
AcDbEntity
  8
Frei
  6
CONTINUOUS
 62
           3
100
AcDbLine
 10
-14263.736850030458
 20
-14155.715422459138
 30
0.0
 11
-14263.77509914686
 21
-14156.314202055562
 31
0.0
  0
LINE
  5
219
100
AcDbEntity
  8
Frei
  6
CONTINUOUS
 62
           3
100
AcDbLine
 10
-14245.81171125412
 20
-14157.461675547616
 30
0.0
 11
-14245.773462137719
 21
-14156.862895951192
 31
0.0
  0
LINE
  5
21A
100
AcDbEntity
  8
Frei
  6
CONTINUOUS
 62
           3
100
AcDbLine
 10
-14246.245201240006
 20
-14164.247844307096
 30
0.0
 11
-14246.32169947281
 21
-14165.445403499945
 31
0.0
  0
LINE
  5
21B
100
AcDbEntity
  8
Frei
  6
CONTINUOUS
 62
           3
100
AcDbLine
 10
-14246.117704185335
 20
-14162.251912319014
 30
0.0
 11
-14246.194202418139
 21
-14163.449471511864
 31
0.0
  0
LINE
  5
21C
100
AcDbEntity
  8
Frei
  6
CONTINUOUS
 62
           3
100
AcDbLine
 10
-14245.990207130662
 20
-14160.255980330932
 30
0.0
 11
-14246.066705363466
 21
-14161.45353952378
 31
0.0
  0
LINE
  5
21D
100
AcDbEntity
  8
Frei
  6
CONTINUOUS
 62
           3
100
AcDbLine
 10
-14245.939208308793
 20
-14159.457607535698
 30
0.0
 11
-14245.86271007599
 21
-14158.26004834285
 31
0.0
  0
LINE
  5
21E
100
AcDbEntity
  8
Frei
  6
CONTINUOUS
 62
           3
100
AcDbLine
 10
-14257.822069947664
 20
-14158.698548675435
 30
0.0
 11
-14263.902596201533
 21
-14158.310134043644
 31
0.0
  0
LINE
  5
21F
100
AcDbEntity
  8
Frei
  6
CONTINUOUS
 62
           3
100
AcDbLine
 10
-14257.185041234838
 20
-14158.138018195412
 30
0.0
 11
-14257.822069947664
 21
-14158.698548675435
 31
0.0
  0
LINE
  5
220
100
AcDbEntity
  8
Frei
  6
CONTINUOUS
 62
           3
100
AcDbLine
 10
-14257.185041234838
 20
-14158.138018195412
 30
0.0
 11
-14263.265567488708
 21
-14157.749603563621
 31
0.0
  0
LINE
  5
221
100
AcDbEntity
  8
Frei
  6
CONTINUOUS
 62
           3
100
AcDbLine
 10
-14257.74557171486
 20
-14157.500989482585
 30
0.0
 11
-14257.185041234838
 21
-14158.138018195412
 31
0.0
  0
LINE
  5
222
100
AcDbEntity
  8
Frei
  6
CONTINUOUS
 62
           3
100
AcDbLine
 10
-14258.439271183286
 20
-14156.655046510012
 30
0.0
 11
-14263.77509914686
 21
-14156.314202055562
 31
0.0
  0
LINE
  5
223
100
AcDbEntity
  8
Frei
  6
CONTINUOUS
 62
           3
100
AcDbLine
 10
-14257.80224247046
 20
-14156.094516029989
 30
0.0
 11
-14258.439271183286
 21
-14156.655046510012
 31
0.0
  0
LINE
  5
224
100
AcDbEntity
  8
Frei
  6
CONTINUOUS
 62
           3
100
AcDbLine
 10
-14251.708069697719
 20
-14156.48380238034
 30
0.0
 11
-14246.372241734143
 21
-14156.82464683479
 31
0.0
  0
LINE
  5
225
100
AcDbEntity
  8
Frei
  6
CONTINUOUS
 62
           3
100
AcDbLine
 10
-14251.147539217694
 20
-14157.120831093167
 30
0.0
 11
-14251.708069697719
 21
-14156.48380238034
 31
0.0
  0
LINE
  5
226
100
AcDbEntity
  8
Frei
  6
CONTINUOUS
 62
           3
100
AcDbLine
 10
-14252.580265042683
 20
-14158.432164191083
 30
0.0
 11
-14252.019734562662
 21
-14159.069192903909
 31
0.0
  0
LINE
  5
227
100
AcDbEntity
  8
Frei
  6
CONTINUOUS
 62
           3
100
AcDbLine
 10
-14251.943236329858
 20
-14157.87163371106
 30
0.0
 11
-14245.86271007599
 21
-14158.26004834285
 31
0.0
  0
LINE
  5
228
100
AcDbEntity
  8
Frei
  6
CONTINUOUS
 62
           3
100
AcDbLine
 10
-14251.943236329858
 20
-14157.87163371106
 30
0.0
 11
-14252.580265042683
 21
-14158.432164191083
 31
0.0
  0
LINE
  5
229
100
AcDbEntity
  8
Frei
  6
CONTINUOUS
 62
           3
100
AcDbLine
 10
-14246.627235843489
 20
-14160.816510810953
 30
0.0
 11
-14263.393064543381
 21
-14159.745535551703
 31
0.0
  0
LINE
  5
22A
100
AcDbEntity
  8
Frei
  6
CONTINUOUS
 62
           3
100
AcDbLine
 10
-14246.499738788816
 20
-14158.820578822872
 30
0.0
 11
-14252.580265042683
 21
-14158.432164191083
 31
0.0
  0
LINE
  5
22B
100
AcDbEntity
  8
Frei
  6
CONTINUOUS
 62
           3
100
AcDbLine
 10
-14263.138070434035
 20
-14155.75367157554
 30
0.0
 11
-14257.80224247046
 21
-14156.094516029989
 31
0.0
  0
LINE
  5
22C
100
AcDbEntity
  8
Frei
  6
CONTINUOUS
 62
           3
100
AcDbLine
 10
-14263.77509914686
 20
-14156.314202055562
 30
0.0
 11
-14263.138070434035
 21
-14155.75367157554
 31
0.0
  0
LINE
  5
22D
100
AcDbEntity
  8
Frei
  6
CONTINUOUS
 62
           3
100
AcDbLine
 10
-14245.81171125412
 20
-14157.461675547616
 30
0.0
 11
-14251.147539217694
 21
-14157.120831093167
 31
0.0
  0
LINE
  5
22E
100
AcDbEntity
  8
Frei
  6
CONTINUOUS
 62
           3
100
AcDbLine
 10
-14246.372241734143
 20
-14156.82464683479
 30
0.0
 11
-14245.81171125412
 21
-14157.461675547616
 31
0.0
  0
LINE
  5
22F
100
AcDbEntity
  8
Frei
  6
CONTINUOUS
 62
           3
100
AcDbLine
 10
-14245.86271007599
 20
-14158.26004834285
 30
0.0
 11
-14246.499738788816
 21
-14158.820578822872
 31
0.0
  0
LINE
  5
230
100
AcDbEntity
  8
Frei
  6
CONTINUOUS
 62
           3
100
AcDbLine
 10
-14263.826097968729
 20
-14157.112574850795
 30
0.0
 11
-14257.74557171486
 21
-14157.500989482585
 31
0.0
  0
LINE
  5
231
100
AcDbEntity
  8
Frei
  6
CONTINUOUS
 62
           3
100
AcDbLine
 10
-14263.265567488708
 20
-14157.749603563621
 30
0.0
 11
-14263.826097968729
 21
-14157.112574850795
 31
0.0
  0
LINE
  5
232
100
AcDbEntity
  8
Frei
  6
CONTINUOUS
 62
           3
100
AcDbLine
 10
-14263.902596201533
 20
-14158.310134043644
 30
0.0
 11
-14263.265567488708
 21
-14157.749603563621
 31
0.0
  0
LINE
  5
233
100
AcDbEntity
  8
Frei
  6
CONTINUOUS
 62
           3
100
AcDbLine
 10
-14245.939208308793
 20
-14159.457607535698
 30
0.0
 11
-14252.019734562662
 21
-14159.069192903909
 31
0.0
  0
LINE
  5
234
100
AcDbEntity
  8
Frei
  6
CONTINUOUS
 62
           3
100
AcDbLine
 10
-14246.499738788816
 20
-14158.820578822872
 30
0.0
 11
-14245.939208308793
 21
-14159.457607535698
 31
0.0
  0
LINE
  5
235
100
AcDbEntity
  8
Frei
  6
CONTINUOUS
 62
           3
100
AcDbLine
 10
-14245.990207130662
 20
-14160.255980330932
 30
0.0
 11
-14246.627235843489
 21
-14160.816510810953
 31
0.0
  0
LINE
  5
236
100
AcDbEntity
  8
Frei
  6
CONTINUOUS
 62
           3
100
AcDbLine
 10
-14263.953595023402
 20
-14159.108506838878
 30
0.0
 11
-14245.990207130662
 21
-14160.255980330932
 31
0.0
  0
LINE
  5
237
100
AcDbEntity
  8
Frei
  6
CONTINUOUS
 62
           3
100
AcDbLine
 10
-14263.393064543381
 20
-14159.745535551703
 30
0.0
 11
-14263.953595023402
 21
-14159.108506838878
 31
0.0
  0
LINE
  5
238
100
AcDbEntity
  8
Frei
  6
CONTINUOUS
 62
           3
100
AcDbLine
 10
-14264.030093256206
 20
-14160.306066031726
 30
0.0
 11
-14263.393064543381
 21
-14159.745535551703
 31
0.0
  0
LINE
  5
239
100
AcDbEntity
  8
Frei
  6
CONTINUOUS
 62
           3
100
AcDbLine
 10
-14246.066705363466
 20
-14161.45353952378
 30
0.0
 11
-14264.030093256206
 21
-14160.306066031726
 31
0.0
  0
LINE
  5
23A
100
AcDbEntity
  8
Frei
  6
CONTINUOUS
 62
           3
100
AcDbLine
 10
-14246.627235843489
 20
-14160.816510810953
 30
0.0
 11
-14246.066705363466
 21
-14161.45353952378
 31
0.0
  0
LINE
  5
23B
100
AcDbEntity
  8
Frei
  6
CONTINUOUS
 62
           3
100
AcDbLine
 10
-14263.520561598052
 20
-14161.741467539785
 30
0.0
 11
-14246.754732898162
 21
-14162.812442799037
 31
0.0
  0
LINE
  5
23C
100
AcDbEntity
  8
Frei
  6
CONTINUOUS
 62
           3
100
AcDbLine
 10
-14246.117704185335
 20
-14162.251912319014
 30
0.0
 11
-14246.754732898162
 21
-14162.812442799037
 31
0.0
  0
LINE
  5
23D
100
AcDbEntity
  8
Frei
  6
CONTINUOUS
 62
           3
100
AcDbLine
 10
-14264.081092078075
 20
-14161.10443882696
 30
0.0
 11
-14246.117704185335
 21
-14162.251912319014
 31
0.0
  0
LINE
  5
23E
100
AcDbEntity
  8
Frei
  6
CONTINUOUS
 62
           3
100
AcDbLine
 10
-14263.520561598052
 20
-14161.741467539785
 30
0.0
 11
-14264.081092078075
 21
-14161.10443882696
 31
0.0
  0
LINE
  5
23F
100
AcDbEntity
  8
Frei
  6
CONTINUOUS
 62
           3
100
AcDbLine
 10
-14264.157590310879
 20
-14162.30199801981
 30
0.0
 11
-14263.520561598052
 21
-14161.741467539785
 31
0.0
  0
LINE
  5
240
100
AcDbEntity
  8
Frei
  6
CONTINUOUS
 62
           3
100
AcDbLine
 10
-14246.194202418139
 20
-14163.449471511864
 30
0.0
 11
-14264.157590310879
 21
-14162.30199801981
 31
0.0
  0
LINE
  5
241
100
AcDbEntity
  8
Frei
  6
CONTINUOUS
 62
           3
100
AcDbLine
 10
-14246.754732898162
 20
-14162.812442799037
 30
0.0
 11
-14246.194202418139
 21
-14163.449471511864
 31
0.0
  0
LINE
  5
242
100
AcDbEntity
  8
Frei
  6
CONTINUOUS
 62
           3
100
AcDbLine
 10
-14246.882229952835
 20
-14164.808374787119
 30
0.0
 11
-14263.648058652725
 21
-14163.737399527869
 31
0.0
  0
LINE
  5
243
100
AcDbEntity
  8
Frei
  6
CONTINUOUS
 62
           3
100
AcDbLine
 10
-14246.882229952835
 20
-14164.808374787119
 30
0.0
 11
-14246.245201240006
 21
-14164.247844307096
 31
0.0
  0
LINE
  5
244
100
AcDbEntity
  8
Frei
  6
CONTINUOUS
 62
           3
100
AcDbLine
 10
-14246.32169947281
 20
-14165.445403499945
 30
0.0
 11
-14246.882229952835
 21
-14164.808374787119
 31
0.0
  0
LINE
  5
245
100
AcDbEntity
  8
Frei
  6
CONTINUOUS
 62
           3
100
AcDbLine
 10
-14264.28508736555
 20
-14164.297930007891
 30
0.0
 11
-14246.32169947281
 21
-14165.445403499945
 31
0.0
  0
LINE
  5
246
100
AcDbEntity
  8
Frei
  6
CONTINUOUS
 62
           3
100
AcDbLine
 10
-14263.648058652725
 20
-14163.737399527869
 30
0.0
 11
-14264.28508736555
 21
-14164.297930007891
 31
0.0
  0
LINE
  5
247
100
AcDbEntity
  8
Frei
  6
CONTINUOUS
 62
           3
100
AcDbLine
 10
-14264.208589132748
 20
-14163.100370815042
 30
0.0
 11
-14263.648058652725
 21
-14163.737399527869
 31
0.0
  0
LINE
  5
248
100
AcDbEntity
  8
Frei
  6
CONTINUOUS
 62
           3
100
AcDbLine
 10
-14246.245201240006
 20
-14164.247844307096
 30
0.0
 11
-14264.208589132748
 21
-14163.100370815042
 31
0.0
  0
LINE
  5
249
100
AcDbEntity
  8
Frei
  6
CONTINUOUS
 62
           7
100
AcDbLine
 10
-14220.355381479063
 20
-14170.630065819965
 30
0.0
 11
-14219.684408479312
 21
-14171.984996374162
 31
0.0
  0
LINE
  5
24A
100
AcDbEntity
  8
Frei
  6
CONTINUOUS
 62
           7
100
AcDbLine
 10
-14220.355381479063
 20
-14170.630065819965
 30
0.0
 11
-14224.59076605918
 21
-14170.359515990313
 31
0.0
  0
LINE
  5
24B
100
AcDbEntity
  8
Frei
  6
CONTINUOUS
 62
           7
100
AcDbLine
 10
-14219.433991308304
 20
-14168.064783132662
 30
0.0
 11
-14220.355381479063
 21
-14170.630065819965
 31
0.0
  0
LINE
  5
24C
100
AcDbEntity
  8
Frei
  6
CONTINUOUS
 62
           7
100
AcDbLine
 10
-14219.766497808372
 20
-14161.411250855137
 30
0.0
 11
-14219.178997198958
 21
-14164.072919156499
 31
0.0
  0
LINE
  5
24D
100
AcDbEntity
  8
Frei
  6
CONTINUOUS
 62
           7
100
AcDbLine
 10
-14219.766497808372
 20
-14161.411250855137
 30
0.0
 11
-14224.001882388491
 21
-14161.140701025484
 31
0.0
  0
LINE
  5
24E
100
AcDbEntity
  8
Frei
  6
CONTINUOUS
 62
           7
100
AcDbLine
 10
-14218.92858002795
 20
-14160.152705915001
 30
0.0
 11
-14219.766497808372
 21
-14161.411250855137
 31
0.0
  0
LINE
  5
24F
100
AcDbEntity
  8
Frei
  6
CONTINUOUS
 62
           7
100
AcDbLine
 10
-14219.811905533985
 20
-14173.980928362244
 30
0.0
 11
-14220.649823314407
 21
-14175.239473302378
 31
0.0
  0
LINE
  5
250
100
AcDbEntity
  8
Frei
  6
CONTINUOUS
 62
           7
100
AcDbLine
 10
-14219.472055973029
 20
-14156.801843372723
 30
0.0
 11
-14223.707440553148
 21
-14156.531293543072
 31
0.0
  0
LINE
  5
251
100
AcDbEntity
  8
Frei
  6
CONTINUOUS
 62
           7
100
AcDbLine
 10
-14219.472055973029
 20
-14156.801843372723
 30
0.0
 11
-14218.801082973278
 21
-14158.156773926919
 31
0.0
  0
LINE
  5
252
100
AcDbEntity
  8
Frei
  6
CONTINUOUS
 62
           7
100
AcDbLine
 10
-14224.80173550419
 20
-14173.662185725561
 30
0.0
 11
-14224.885207894526
 21
-14174.968923472727
 31
0.0
  0
LINE
  5
253
100
AcDbEntity
  8
Frei
  6
CONTINUOUS
 62
           7
100
AcDbLine
 10
-14219.811905533985
 20
-14173.980928362244
 30
0.0
 11
-14219.684408479312
 21
-14171.984996374162
 31
0.0
  0
LINE
  5
254
100
AcDbEntity
  8
Frei
  6
CONTINUOUS
 62
           7
100
AcDbLine
 10
-14219.811905533985
 20
-14173.980928362244
 30
0.0
 11
-14224.80173550419
 21
-14173.662185725561
 31
0.0
  0
LINE
  5
255
100
AcDbEntity
  8
Frei
  6
CONTINUOUS
 62
           7
100
AcDbLine
 10
-14224.674238449517
 20
-14171.66625373748
 30
0.0
 11
-14224.80173550419
 21
-14173.662185725561
 31
0.0
  0
LINE
  5
256
100
AcDbEntity
  8
Frei
  6
CONTINUOUS
 62
           7
100
AcDbLine
 10
-14219.684408479312
 20
-14171.984996374162
 30
0.0
 11
-14219.433991308304
 21
-14168.064783132662
 31
0.0
  0
LINE
  5
257
100
AcDbEntity
  8
Frei
  6
CONTINUOUS
 62
           7
100
AcDbLine
 10
-14219.684408479312
 20
-14171.984996374162
 30
0.0
 11
-14224.674238449517
 21
-14171.66625373748
 31
0.0
  0
LINE
  5
258
100
AcDbEntity
  8
Frei
  6
CONTINUOUS
 62
           7
100
AcDbLine
 10
-14224.59076605918
 20
-14170.359515990313
 30
0.0
 11
-14224.674238449517
 21
-14171.66625373748
 31
0.0
  0
LINE
  5
259
100
AcDbEntity
  8
Frei
  6
CONTINUOUS
 62
           7
100
AcDbLine
 10
-14224.423821278509
 20
-14167.746040495982
 30
0.0
 11
-14224.59076605918
 21
-14170.359515990313
 31
0.0
  0
LINE
  5
25A
100
AcDbEntity
  8
Frei
  6
CONTINUOUS
 62
           7
100
AcDbLine
 10
-14219.433991308304
 20
-14168.064783132662
 30
0.0
 11
-14219.178997198958
 21
-14164.072919156499
 31
0.0
  0
LINE
  5
25B
100
AcDbEntity
  8
Frei
  6
CONTINUOUS
 62
           7
100
AcDbLine
 10
-14219.433991308304
 20
-14168.064783132662
 30
0.0
 11
-14224.423821278509
 21
-14167.746040495982
 31
0.0
  0
LINE
  5
25C
100
AcDbEntity
  8
Frei
  6
CONTINUOUS
 62
           7
100
AcDbLine
 10
-14224.168827169164
 20
-14163.754176519817
 30
0.0
 11
-14224.423821278509
 21
-14167.746040495982
 31
0.0
  0
LINE
  5
25D
100
AcDbEntity
  8
Frei
  6
CONTINUOUS
 62
           7
100
AcDbLine
 10
-14219.178997198958
 20
-14164.072919156499
 30
0.0
 11
-14218.92858002795
 21
-14160.152705915001
 31
0.0
  0
LINE
  5
25E
100
AcDbEntity
  8
Frei
  6
CONTINUOUS
 62
           7
100
AcDbLine
 10
-14219.178997198958
 20
-14164.072919156499
 30
0.0
 11
-14224.168827169164
 21
-14163.754176519817
 31
0.0
  0
LINE
  5
25F
100
AcDbEntity
  8
Frei
  6
CONTINUOUS
 62
           7
100
AcDbLine
 10
-14224.001882388491
 20
-14161.140701025484
 30
0.0
 11
-14224.168827169164
 21
-14163.754176519817
 31
0.0
  0
LINE
  5
260
100
AcDbEntity
  8
Frei
  6
CONTINUOUS
 62
           7
100
AcDbLine
 10
-14223.918409998156
 20
-14159.833963278319
 30
0.0
 11
-14224.001882388491
 21
-14161.140701025484
 31
0.0
  0
LINE
  5
261
100
AcDbEntity
  8
Frei
  6
CONTINUOUS
 62
           7
100
AcDbLine
 10
-14218.92858002795
 20
-14160.152705915001
 30
0.0
 11
-14218.801082973278
 21
-14158.156773926919
 31
0.0
  0
LINE
  5
262
100
AcDbEntity
  8
Frei
  6
CONTINUOUS
 62
           7
100
AcDbLine
 10
-14218.92858002795
 20
-14160.152705915001
 30
0.0
 11
-14223.918409998156
 21
-14159.833963278319
 31
0.0
  0
LINE
  5
263
100
AcDbEntity
  8
Frei
  6
CONTINUOUS
 62
           7
100
AcDbLine
 10
-14223.790912943483
 20
-14157.838031290237
 30
0.0
 11
-14223.918409998156
 21
-14159.833963278319
 31
0.0
  0
LINE
  5
264
100
AcDbEntity
  8
Frei
  6
CONTINUOUS
 62
           7
100
AcDbLine
 10
-14223.790912943483
 20
-14157.838031290237
 30
0.0
 11
-14218.801082973278
 21
-14158.156773926919
 31
0.0
  0
LINE
  5
265
100
AcDbEntity
  8
Frei
  6
CONTINUOUS
 62
           7
100
AcDbLine
 10
-14224.885207894526
 20
-14174.968923472727
 30
0.0
 11
-14220.649823314407
 21
-14175.239473302378
 31
0.0
  0
LINE
  5
266
100
AcDbEntity
  8
Frei
  6
CONTINUOUS
 62
           7
100
AcDbLine
 10
-14223.707440553148
 20
-14156.531293543072
 30
0.0
 11
-14223.790912943483
 21
-14157.838031290237
 31
0.0
  0
LINE
  5
267
100
AcDbEntity
  8
Frei
  6
CONTINUOUS
 62
           7
100
AcDbLine
 10
-14268.682659113983
 20
-14123.334270958469
 30
0.0
 11
-14269.017338882499
 21
-14128.573592427183
 31
0.0
  0
LINE
  5
268
100
AcDbEntity
  8
Frei
  6
CONTINUOUS
 62
           7
100
AcDbLine
 10
-14267.631949814277
 20
-14130.41565570776
 30
0.0
 11
-14267.408829968599
 21
-14126.922774728617
 31
0.0
  0
LINE
  5
269
100
AcDbEntity
  8
Frei
  6
CONTINUOUS
 62
           7
100
AcDbLine
 10
-14268.386400784704
 20
-14130.367462544265
 30
0.0
 11
-14267.631949814277
 21
-14130.41565570776
 31
0.0
  0
LINE
  5
26A
100
AcDbEntity
  8
Frei
  6
CONTINUOUS
 62
           7
100
AcDbLine
 10
-14267.408829968599
 20
-14126.922774728617
 30
0.0
 11
-14266.962590277244
 21
-14119.937012770328
 31
0.0
  0
LINE
  5
26B
100
AcDbEntity
  8
Frei
  6
CONTINUOUS
 62
           7
100
AcDbLine
 10
-14268.163280939027
 20
-14126.874581565122
 30
0.0
 11
-14267.408829968599
 21
-14126.922774728617
 31
0.0
  0
LINE
  5
26C
100
AcDbEntity
  8
Frei
  6
CONTINUOUS
 62
           7
100
AcDbLine
 10
-14266.962590277244
 20
-14119.937012770328
 30
0.0
 11
-14266.739470431567
 21
-14116.444131791184
 31
0.0
  0
LINE
  5
26D
100
AcDbEntity
  8
Frei
  6
CONTINUOUS
 62
           7
100
AcDbLine
 10
-14267.717041247673
 20
-14119.888819606835
 30
0.0
 11
-14266.962590277244
 21
-14119.937012770328
 31
0.0
  0
LINE
  5
26E
100
AcDbEntity
  8
Frei
  6
CONTINUOUS
 62
           7
100
AcDbLine
 10
-14266.739470431567
 20
-14116.444131791184
 30
0.0
 11
-14266.388853531218
 21
-14110.955318823959
 31
0.0
  0
LINE
  5
26F
100
AcDbEntity
  8
Frei
  6
CONTINUOUS
 62
           7
100
AcDbLine
 10
-14267.493921401996
 20
-14116.395938627691
 30
0.0
 11
-14266.739470431567
 21
-14116.444131791184
 31
0.0
  0
LINE
  5
270
100
AcDbEntity
  8
Frei
  6
CONTINUOUS
 62
           7
100
AcDbLine
 10
-14229.668645358061
 20
-14171.419161835463
 30
0.0
 11
-14228.903663030023
 21
-14159.443569906971
 31
0.0
  0
LINE
  5
271
100
AcDbEntity
  8
Frei
  6
CONTINUOUS
 62
           2
100
AcDbLine
 10
-14224.678815387855
 20
-14171.737904472146
 30
0.0
 11
-14229.668645358061
 21
-14171.419161835463
 31
0.0
  0
LINE
  5
272
100
AcDbEntity
  8
Frei
  6
CONTINUOUS
 62
           7
100
AcDbLine
 10
-14228.903663030023
 20
-14159.443569906971
 30
0.0
 11
-14228.839914502687
 21
-14158.445603912929
 31
0.0
  0
LINE
  5
273
100
AcDbEntity
  8
Frei
  6
CONTINUOUS
 62
           2
100
AcDbLine
 10
-14223.913833059818
 20
-14159.762312543653
 30
0.0
 11
-14228.903663030023
 21
-14159.443569906971
 31
0.0
  0
LINE
  5
274
100
AcDbEntity
  8
Frei
  6
CONTINUOUS
 62
           7
100
AcDbLine
 10
-14229.732393885397
 20
-14172.417127829505
 30
0.0
 11
-14229.668645358061
 21
-14171.419161835463
 31
0.0
  0
LINE
  5
275
100
AcDbEntity
  8
Frei
  6
CONTINUOUS
 62
           7
100
AcDbLine
 10
-14229.732393885397
 20
-14172.417127829505
 30
0.0
 11
-14224.742563915192
 21
-14172.735870466187
 31
0.0
  0
LINE
  5
276
100
AcDbEntity
  8
Frei
  6
CONTINUOUS
 62
           7
100
AcDbLine
 10
-14228.839914502687
 20
-14158.445603912929
 30
0.0
 11
-14228.808040239019
 21
-14157.946620915909
 31
0.0
  0
LINE
  5
277
100
AcDbEntity
  8
Frei
  6
CONTINUOUS
 62
           7
100
AcDbLine
 10
-14228.839914502687
 20
-14158.445603912929
 30
0.0
 11
-14223.850084532482
 21
-14158.764346549611
 31
0.0
  0
LINE
  5
278
100
AcDbEntity
  8
Frei
  6
CONTINUOUS
 62
           7
100
AcDbLine
 10
-14249.156905401866
 20
-14171.176320015615
 30
0.0
 11
-14268.154084655978
 21
-14169.962809527056
 31
0.0
  0
LINE
  5
279
100
AcDbEntity
  8
Frei
  6
CONTINUOUS
 62
           7
100
AcDbLine
 10
-14241.835482868562
 20
-14173.648077489552
 30
0.0
 11
-14249.156905401866
 21
-14171.176320015615
 31
0.0
  0
LINE
  5
27A
100
AcDbEntity
  8
Frei
  6
CONTINUOUS
 62
           7
100
AcDbLine
 10
-14267.802326354287
 20
-14140.926172908859
 30
0.0
 11
-14268.301309351307
 21
-14140.894298645191
 31
0.0
  0
LINE
  5
27B
100
AcDbEntity
  8
Frei
  6
CONTINUOUS
 62
           7
100
AcDbLine
 10
-14267.802326354287
 20
-14140.926172908859
 30
0.0
 11
-14269.555410856035
 21
-14168.37023774499
 31
0.0
  0
LINE
  5
27C
100
AcDbEntity
  8
Frei
  6
CONTINUOUS
 62
           7
100
AcDbLine
 10
-14249.156905401866
 20
-14171.176320015615
 30
0.0
 11
-14243.204934804951
 21
-14171.556522710465
 31
0.0
  0
LINE
  5
27D
100
AcDbEntity
  8
Frei
  6
CONTINUOUS
 62
           7
100
AcDbLine
 10
-14239.859278521137
 20
-14142.711131674278
 30
0.0
 11
-14267.802326354287
 21
-14140.926172908859
 31
0.0
  0
LINE
  5
27E
100
AcDbEntity
  8
Frei
  6
CONTINUOUS
 62
           7
100
AcDbLine
 10
-14239.859278521137
 20
-14142.711131674278
 30
0.0
 11
-14241.612363022885
 21
-14170.155196510408
 31
0.0
  0
LINE
  5
27F
100
AcDbEntity
  8
Frei
  6
CONTINUOUS
 62
           7
100
AcDbLine
 10
-14241.835482868562
 20
-14173.648077489552
 30
0.0
 11
-14231.35683993113
 21
-14174.317437026582
 31
0.0
  0
LINE
  5
280
100
AcDbEntity
  8
Frei
  6
CONTINUOUS
 62
           7
100
AcDbLine
 10
-14229.764268149065
 20
-14172.916110826525
 30
0.0
 11
-14229.732393885397
 21
-14172.417127829505
 31
0.0
  0
LINE
  5
281
100
AcDbEntity
  8
Frei
  6
CONTINUOUS
 62
           7
100
AcDbLine
 10
-14240.688009376508
 20
-14155.684689596812
 30
0.0
 11
-14230.209366439076
 21
-14156.354049133843
 31
0.0
  0
LINE
  5
282
100
AcDbEntity
  8
Frei
  6
CONTINUOUS
 62
           7
100
AcDbLine
 10
-14268.301309351307
 20
-14140.894298645191
 30
0.0
 11
-14268.237560823971
 21
-14139.896332651151
 31
0.0
  0
LINE
  5
283
100
AcDbEntity
  8
Frei
  6
CONTINUOUS
 62
           7
100
AcDbLine
 10
-14239.360295524115
 20
-14142.743005937946
 30
0.0
 11
-14239.859278521137
 21
-14142.711131674278
 31
0.0
  0
LINE
  5
284
100
AcDbEntity
  8
Frei
  6
CONTINUOUS
 62
           7
100
AcDbLine
 10
-14239.296546996778
 20
-14141.745039943904
 30
0.0
 11
-14239.360295524115
 21
-14142.743005937946
 31
0.0
  0
LINE
  5
285
100
AcDbEntity
  8
Frei
  6
CONTINUOUS
 62
           7
100
AcDbLine
 10
-14239.296546996778
 20
-14141.745039943904
 30
0.0
 11
-14268.237560823971
 21
-14139.896332651151
 31
0.0
  0
LINE
  5
286
100
AcDbEntity
  8
Frei
  6
CONTINUOUS
 62
           7
100
AcDbLine
 10
-14237.670959549703
 20
-14116.296907095855
 30
0.0
 11
-14237.635520459771
 21
-14115.742117705599
 31
0.0
  0
LINE
  5
287
100
AcDbEntity
  8
Frei
  6
CONTINUOUS
 62
           7
100
AcDbLine
 10
-14266.388853531218
 20
-14110.955318823959
 30
0.0
 11
-14239.434376039106
 21
-14113.624354113721
 31
0.0
  0
LINE
  5
288
100
AcDbEntity
  8
Frei
  6
CONTINUOUS
 62
           7
100
AcDbLine
 10
-14233.382363380197
 20
-14127.59327566699
 30
0.0
 11
-14233.414237643865
 21
-14128.09225866401
 31
0.0
  0
LINE
  5
289
100
AcDbEntity
  8
Frei
  6
CONTINUOUS
 62
           1
100
AcDbLine
 10
-14233.382363380197
 20
-14127.59327566699
 30
0.0
 11
-14235.865653002465
 21
-14127.434646958884
 31
0.0
  0
LINE
  5
28A
100
AcDbEntity
  8
Frei
  6
CONTINUOUS
 62
           7
100
AcDbLine
 10
-14233.127369270851
 20
-14123.601411690825
 30
0.0
 11
-14233.382363380197
 21
-14127.59327566699
 31
0.0
  0
LINE
  5
28B
100
AcDbEntity
  8
Frei
  6
CONTINUOUS
 62
           1
100
AcDbLine
 10
-14233.127369270851
 20
-14123.601411690825
 30
0.0
 11
-14235.61065889312
 21
-14123.442782982718
 31
0.0
  0
LINE
  5
28C
100
AcDbEntity
  8
Frei
  6
CONTINUOUS
 62
           7
100
AcDbLine
 10
-14233.414237643865
 20
-14128.09225866401
 30
0.0
 11
-14233.446111907533
 21
-14128.59124166103
 31
0.0
  0
LINE
  5
28D
100
AcDbEntity
  8
Frei
  6
CONTINUOUS
 62
           1
100
AcDbLine
 10
-14233.414237643865
 20
-14128.09225866401
 30
0.0
 11
-14235.897527266134
 21
-14127.933629955904
 31
0.0
  0
LINE
  5
28E
100
AcDbEntity
  8
Frei
  6
CONTINUOUS
 62
           7
100
AcDbLine
 10
-14233.095495007183
 20
-14123.102428693805
 30
0.0
 11
-14233.127369270851
 21
-14123.601411690825
 31
0.0
  0
LINE
  5
28F
100
AcDbEntity
  8
Frei
  6
CONTINUOUS
 62
           1
100
AcDbLine
 10
-14233.095495007183
 20
-14123.102428693805
 30
0.0
 11
-14235.578784629452
 21
-14122.943799985698
 31
0.0
  0
LINE
  5
290
100
AcDbEntity
  8
Frei
  6
CONTINUOUS
 62
           7
100
AcDbLine
 10
-14234.444077901575
 20
-14128.527493133695
 30
0.0
 11
-14234.061586737556
 21
-14122.539697169448
 31
0.0
  0
LINE
  5
291
100
AcDbEntity
  8
Frei
  6
CONTINUOUS
 62
           2
100
AcDbLine
 10
-14233.446111907533
 20
-14128.59124166103
 30
0.0
 11
-14234.444077901575
 21
-14128.527493133695
 31
0.0
  0
LINE
  5
292
100
AcDbEntity
  8
Frei
  6
CONTINUOUS
 62
           7
100
AcDbLine
 10
-14234.061586737556
 20
-14122.539697169448
 30
0.0
 11
-14233.99783821022
 21
-14121.541731175406
 31
0.0
  0
LINE
  5
293
100
AcDbEntity
  8
Frei
  6
CONTINUOUS
 62
           2
100
AcDbLine
 10
-14233.063620743515
 20
-14122.603445696785
 30
0.0
 11
-14234.061586737556
 21
-14122.539697169448
 31
0.0
  0
LINE
  5
294
100
AcDbEntity
  8
Frei
  6
CONTINUOUS
 62
           7
100
AcDbLine
 10
-14234.50782642891
 20
-14129.525459127735
 30
0.0
 11
-14234.444077901575
 21
-14128.527493133695
 31
0.0
  0
LINE
  5
295
100
AcDbEntity
  8
Frei
  6
CONTINUOUS
 62
           7
100
AcDbLine
 10
-14233.446111907533
 20
-14128.59124166103
 30
0.0
 11
-14234.50782642891
 21
-14129.525459127735
 31
0.0
  0
LINE
  5
296
100
AcDbEntity
  8
Frei
  6
CONTINUOUS
 62
           7
100
AcDbLine
 10
-14233.063620743515
 20
-14122.603445696785
 30
0.0
 11
-14233.095495007183
 21
-14123.102428693805
 31
0.0
  0
LINE
  5
297
100
AcDbEntity
  8
Frei
  6
CONTINUOUS
 62
           7
100
AcDbLine
 10
-14233.99783821022
 20
-14121.541731175406
 30
0.0
 11
-14233.679095573538
 21
-14116.551901205201
 31
0.0
  0
LINE
  5
298
100
AcDbEntity
  8
Frei
  6
CONTINUOUS
 62
           7
100
AcDbLine
 10
-14233.99783821022
 20
-14121.541731175406
 30
0.0
 11
-14233.063620743515
 21
-14122.603445696785
 31
0.0
  0
LINE
  5
299
100
AcDbEntity
  8
Frei
  6
CONTINUOUS
 62
           7
100
AcDbLine
 10
-14268.237560823971
 20
-14139.896332651151
 30
0.0
 11
-14267.631949814277
 21
-14130.41565570776
 31
0.0
  0
LINE
  5
29A
100
AcDbEntity
  8
Frei
  6
CONTINUOUS
 62
           7
100
AcDbLine
 10
-14238.818433041757
 20
-14134.260294988595
 30
0.0
 11
-14239.296546996778
 21
-14141.745039943904
 31
0.0
  0
LINE
  5
29B
100
AcDbEntity
  8
Frei
  6
CONTINUOUS
 62
           7
100
AcDbLine
 10
-14236.609245028325
 20
-14115.362689629152
 30
0.0
 11
-14237.884215575052
 21
-14135.322009509973
 31
0.0
  0
LINE
  5
29C
100
AcDbEntity
  8
Frei
  6
CONTINUOUS
 62
           7
100
AcDbLine
 10
-14234.613313040243
 20
-14115.490186683825
 30
0.0
 11
-14235.88828358697
 21
-14135.449506564646
 31
0.0
  0
LINE
  5
29D
100
AcDbEntity
  8
Frei
  6
CONTINUOUS
 62
           7
100
AcDbLine
 10
-14234.826569065592
 20
-14134.515289097941
 30
0.0
 11
-14235.88828358697
 21
-14135.449506564646
 31
0.0
  0
LINE
  5
29E
100
AcDbEntity
  8
Frei
  6
CONTINUOUS
 62
           7
100
AcDbLine
 10
-14237.884215575052
 20
-14135.322009509973
 30
0.0
 11
-14238.818433041757
 21
-14134.260294988595
 31
0.0
  0
LINE
  5
29F
100
AcDbEntity
  8
Frei
  6
CONTINUOUS
 62
           7
100
AcDbLine
 10
-14237.670959549703
 20
-14116.296907095855
 30
0.0
 11
-14236.609245028325
 21
-14115.362689629152
 31
0.0
  0
LINE
  5
2A0
100
AcDbEntity
  8
Frei
  6
CONTINUOUS
 62
           7
100
AcDbLine
 10
-14233.679095573538
 20
-14116.551901205201
 30
0.0
 11
-14234.613313040243
 21
-14115.490186683825
 31
0.0
  0
LINE
  5
2A1
100
AcDbEntity
  8
Frei
  6
CONTINUOUS
 62
           7
100
AcDbLine
 10
-14234.826569065592
 20
-14134.515289097941
 30
0.0
 11
-14234.50782642891
 21
-14129.525459127735
 31
0.0
  0
LINE
  5
2A2
100
AcDbEntity
  8
Frei
  6
CONTINUOUS
 62
           7
100
AcDbLine
 10
-14237.884215575052
 20
-14135.322009509973
 30
0.0
 11
-14235.88828358697
 21
-14135.449506564646
 31
0.0
  0
LINE
  5
2A3
100
AcDbEntity
  8
Frei
  6
CONTINUOUS
 62
           7
100
AcDbLine
 10
-14237.670959549703
 20
-14116.296907095855
 30
0.0
 11
-14238.818433041757
 21
-14134.260294988595
 31
0.0
  0
LINE
  5
2A4
100
AcDbEntity
  8
Frei
  6
CONTINUOUS
 62
           7
100
AcDbLine
 10
-14234.613313040243
 20
-14115.490186683825
 30
0.0
 11
-14236.609245028325
 21
-14115.362689629152
 31
0.0
  0
LINE
  5
2A5
100
AcDbEntity
  8
Frei
  6
CONTINUOUS
 62
           7
100
AcDbLine
 10
-14284.703999725649
 20
-14138.8444819501
 30
0.0
 11
-14274.225356788218
 21
-14139.513841487133
 31
0.0
  0
LINE
  5
2A6
100
AcDbEntity
  8
Frei
  6
CONTINUOUS
 62
           7
100
AcDbLine
 10
-14268.628774406974
 20
-14106.804083529452
 30
0.0
 11
-14282.60029832355
 21
-14105.911604146744
 31
0.0
  0
LINE
  5
2A7
100
AcDbEntity
  8
Frei
  6
CONTINUOUS
 62
           7
100
AcDbLine
 10
-14267.694556940271
 20
-14107.865798050831
 30
0.0
 11
-14269.128898805337
 21
-14130.320032916756
 31
0.0
  0
LINE
  5
2A8
100
AcDbEntity
  8
Frei
  6
CONTINUOUS
 62
           7
100
AcDbLine
 10
-14428.347354340234
 20
-14128.666728019627
 30
0.0
 11
-14426.913012475166
 21
-14106.212493153704
 31
0.0
  0
LINE
  5
2A9
100
AcDbEntity
  8
Frei
  6
CONTINUOUS
 62
           7
100
AcDbLine
 10
-14427.693931935037
 20
-14118.437576580705
 30
0.0
 11
-14427.359252166521
 21
-14113.198255111991
 31
0.0
  0
LINE
  5
2AA
100
AcDbEntity
  8
Frei
  6
CONTINUOUS
 62
           7
100
AcDbLine
 10
-14268.347979345468
 20
-14118.094949489752
 30
0.0
 11
-14268.682659113983
 21
-14123.334270958469
 31
0.0
  0
ARC
  5
2AB
100
AcDbEntity
  8
Frei
  6
CONTINUOUS
 62
           7
100
AcDbCircle
 10
-14435.946157781591
 20
-14112.64973683521
 30
0.0
 40
8.604407030244
100
AcDbArc
 50
332.343014671726
 51
356.344999999999
  0
ARC
  5
2AC
100
AcDbEntity
  8
Frei
  6
CONTINUOUS
 62
           7
100
AcDbCircle
 10
-14429.449735559509
 20
-14107.804017963763
 30
0.0
 40
2.430106011614
100
AcDbArc
 50
310.279521857266
 51
356.344999999999
  0
ARC
  5
2AD
100
AcDbEntity
  8
Frei
  6
CONTINUOUS
 62
           7
100
AcDbCircle
 10
-14430.119095096539
 20
-14118.282660901195
 30
0.0
 40
2.430106011614
100
AcDbArc
 50
310.279521857266
 51
356.344999999999
  0
ARC
  5
2AE
100
AcDbEntity
  8
Frei
  6
CONTINUOUS
 62
           7
100
AcDbCircle
 10
-14429.449735559509
 20
-14107.804017963763
 30
0.0
 40
2.430106011614
100
AcDbArc
 50
356.344999999999
 51
42.410478142733
  0
ARC
  5
2AF
100
AcDbEntity
  8
Frei
  6
CONTINUOUS
 62
           7
100
AcDbCircle
 10
-14430.119095096539
 20
-14118.282660901195
 30
0.0
 40
2.430106011614
100
AcDbArc
 50
356.344999999999
 51
42.410478142733
  0
ARC
  5
2B0
100
AcDbEntity
  8
Frei
  6
CONTINUOUS
 62
           7
100
AcDbCircle
 10
-14266.592175720993
 20
-14128.728508106695
 30
0.0
 40
2.430106011614
100
AcDbArc
 50
130.279521857263
 51
176.345
  0
ARC
  5
2B1
100
AcDbEntity
  8
Frei
  6
CONTINUOUS
 62
           7
100
AcDbCircle
 10
-14265.922816183962
 20
-14118.249865169264
 30
0.0
 40
2.430106011614
100
AcDbArc
 50
130.279521857263
 51
176.345
  0
ARC
  5
2B2
100
AcDbEntity
  8
Frei
  6
CONTINUOUS
 62
           7
100
AcDbCircle
 10
-14266.592175720993
 20
-14128.728508106695
 30
0.0
 40
2.430106011614
100
AcDbArc
 50
176.345
 51
222.410478142737
  0
ARC
  5
2B3
100
AcDbEntity
  8
Frei
  6
CONTINUOUS
 62
           7
100
AcDbCircle
 10
-14265.922816183962
 20
-14118.249865169264
 30
0.0
 40
2.430106011614
100
AcDbArc
 50
176.345
 51
222.410478142737
  0
ARC
  5
2B4
100
AcDbEntity
  8
Frei
  6
CONTINUOUS
 62
           7
100
AcDbCircle
 10
-14260.095753498912
 20
-14123.882789235247
 30
0.0
 40
8.604407030244
100
AcDbArc
 50
152.343014671724
 51
176.345
  0
ARC
  5
2B5
100
AcDbEntity
  8
Frei
  6
CONTINUOUS
 62
           7
100
AcDbCircle
 10
-14404.55349729244
 20
-14122.433789789151
 30
0.0
 40
4.481959213903
100
AcDbArc
 50
184.723955885586
 51
347.966044114414
  0
ARC
  5
2B6
100
AcDbEntity
  8
Frei
  6
CONTINUOUS
 62
           7
100
AcDbCircle
 10
-14435.946157781591
 20
-14112.64973683521
 30
0.0
 40
8.604407030244
100
AcDbArc
 50
356.344999999999
 51
20.346985328274
  0
ARC
  5
2B7
100
AcDbEntity
  8
Frei
  6
CONTINUOUS
 62
           7
100
AcDbCircle
 10
-14260.095753498912
 20
-14123.882789235247
 30
0.0
 40
8.604407030244
100
AcDbArc
 50
176.345
 51
200.346985328276
  0
POLYLINE
  5
2B8
100
AcDbEntity
  8
Frei
  6
CONTINUOUS
 62
           7
100
AcDb2dPolyline
 66
           1
 10
0.0
 20
0.0
 30
0.0
  0
VERTEX
  5
2B9
100
AcDbEntity
  8
Frei
  6
CONTINUOUS
 62
           7
100
AcDbVertex
100
AcDb2dVertex
 10
-14408.714201574954
 20
-14122.468949585065
 30
0.0
 42
0.046286845788
  0
VERTEX
  5
2BA
100
AcDbEntity
  8
Frei
  6
CONTINUOUS
 62
           7
100
AcDbVertex
100
AcDb2dVertex
 10
-14408.694451219346
 20
-14123.148771434182
 30
0.0
  0
VERTEX
  5
2BB
100
AcDbEntity
  8
Frei
  6
CONTINUOUS
 62
           7
100
AcDbVertex
100
AcDb2dVertex
 10
-14408.637306166638
 20
-14123.485707393602
 30
0.0
  0
VERTEX
  5
2BC
100
AcDbEntity
  8
Frei
  6
CONTINUOUS
 62
           7
100
AcDbVertex
100
AcDb2dVertex
 10
-14408.549461797604
 20
-14123.815975652413
 30
0.0
 42
0.045273723548
  0
VERTEX
  5
2BD
100
AcDbEntity
  8
Frei
  6
CONTINUOUS
 62
           7
100
AcDbVertex
100
AcDb2dVertex
 10
-14408.28363873994
 20
-14124.450289577204
 30
0.0
  0
VERTEX
  5
2BE
100
AcDbEntity
  8
Frei
  6
CONTINUOUS
 62
           7
100
AcDbVertex
100
AcDb2dVertex
 10
-14408.107300556338
 20
-14124.749783996904
 30
0.0
  0
VERTEX
  5
2BF
100
AcDbEntity
  8
Frei
  6
CONTINUOUS
 62
           7
100
AcDbVertex
100
AcDb2dVertex
 10
-14407.905058945445
 20
-14125.032439900933
 30
0.0
 42
0.04348253534
  0
VERTEX
  5
2C0
100
AcDbEntity
  8
Frei
  6
CONTINUOUS
 62
           7
100
AcDbVertex
100
AcDb2dVertex
 10
-14407.425225369607
 20
-14125.544738280592
 30
0.0
  0
VERTEX
  5
2C1
100
AcDbEntity
  8
Frei
  6
CONTINUOUS
 62
           7
100
AcDbVertex
100
AcDb2dVertex
 10
-14407.151076473541
 20
-14125.770257643057
 30
0.0
  0
VERTEX
  5
2C2
100
AcDbEntity
  8
Frei
  6
CONTINUOUS
 62
           7
100
AcDbVertex
100
AcDb2dVertex
 10
-14406.858717512823
 20
-14125.971618789154
 30
0.0
 42
0.041825507476
  0
VERTEX
  5
2C3
100
AcDbEntity
  8
Frei
  6
CONTINUOUS
 62
           7
100
AcDbVertex
100
AcDb2dVertex
 10
-14406.222748429647
 20
-14126.300110878377
 30
0.0
  0
VERTEX
  5
2C4
100
AcDbEntity
  8
Frei
  6
CONTINUOUS
 62
           7
100
AcDbVertex
100
AcDb2dVertex
 10
-14405.884245828289
 20
-14126.424352740078
 30
0.0
  0
VERTEX
  5
2C5
100
AcDbEntity
  8
Frei
  6
CONTINUOUS
 62
           7
100
AcDbVertex
100
AcDb2dVertex
 10
-14405.536641718863
 20
-14126.520233482355
 30
0.0
 42
0.040993490696
  0
VERTEX
  5
2C6
100
AcDbEntity
  8
Frei
  6
CONTINUOUS
 62
           7
100
AcDbVertex
100
AcDb2dVertex
 10
-14404.821244385688
 20
-14126.625298287154
 30
0.0
  0
VERTEX
  5
2C7
100
AcDbEntity
  8
Frei
  6
CONTINUOUS
 62
           7
100
AcDbVertex
100
AcDb2dVertex
 10
-14404.459497869706
 20
-14126.633544531402
 30
0.0
  0
VERTEX
  5
2C8
100
AcDbEntity
  8
Frei
  6
CONTINUOUS
 62
           7
100
AcDbVertex
100
AcDb2dVertex
 10
-14404.098293416082
 20
-14126.612112951841
 30
0.0
 42
0.041278481646
  0
VERTEX
  5
2C9
100
AcDbEntity
  8
Frei
  6
CONTINUOUS
 62
           7
100
AcDbVertex
100
AcDb2dVertex
 10
-14403.389755309425
 20
-14126.481078106166
 30
0.0
  0
VERTEX
  5
2CA
100
AcDbEntity
  8
Frei
  6
CONTINUOUS
 62
           7
100
AcDbVertex
100
AcDb2dVertex
 10
-14403.048326164104
 20
-14126.37271232497
 30
0.0
  0
VERTEX
  5
2CB
100
AcDbEntity
  8
Frei
  6
CONTINUOUS
 62
           7
100
AcDbVertex
100
AcDb2dVertex
 10
-14402.71715863755
 20
-14126.236175177601
 30
0.0
 42
0.042584509173
  0
VERTEX
  5
2CC
100
AcDbEntity
  8
Frei
  6
CONTINUOUS
 62
           7
100
AcDbVertex
100
AcDb2dVertex
 10
-14402.100939909986
 20
-14125.884845417706
 30
0.0
  0
VERTEX
  5
2CD
100
AcDbEntity
  8
Frei
  6
CONTINUOUS
 62
           7
100
AcDbVertex
100
AcDb2dVertex
 10
-14401.820643706404
 20
-14125.673085881623
 30
0.0
  0
VERTEX
  5
2CE
100
AcDbEntity
  8
Frei
  6
CONTINUOUS
 62
           7
100
AcDbVertex
100
AcDb2dVertex
 10
-14401.559822620944
 20
-14125.437763803453
 30
0.0
 42
0.044417198743
  0
VERTEX
  5
2CF
100
AcDbEntity
  8
Frei
  6
CONTINUOUS
 62
           7
100
AcDbVertex
100
AcDb2dVertex
 10
-14401.110248345431
 20
-14124.908514683459
 30
0.0
  0
VERTEX
  5
2D0
100
AcDbEntity
  8
Frei
  6
CONTINUOUS
 62
           7
100
AcDbVertex
100
AcDb2dVertex
 10
-14400.924561995505
 20
-14124.618653461826
 30
0.0
  0
VERTEX
  5
2D1
100
AcDbEntity
  8
Frei
  6
CONTINUOUS
 62
           7
100
AcDbVertex
100
AcDb2dVertex
 10
-14400.765877170321
 20
-14124.313179024421
 30
0.0
 42
0.045929593742
  0
VERTEX
  5
2D2
100
AcDbEntity
  8
Frei
  6
CONTINUOUS
 62
           7
100
AcDbVertex
100
AcDb2dVertex
 10
-14400.537172639499
 20
-14123.669845799082
 30
0.0
  0
VERTEX
  5
2D3
100
AcDbEntity
  8
Frei
  6
CONTINUOUS
 62
           7
100
AcDbVertex
100
AcDb2dVertex
 10
-14400.468552965329
 20
-14123.336413118772
 30
0.0
  0
VERTEX
  5
2D4
100
AcDbEntity
  8
Frei
  6
CONTINUOUS
 62
           7
100
AcDbVertex
100
AcDb2dVertex
 10
-14400.431083824413
 20
-14122.998062361956
 30
0.0
 42
0.046286845788
  0
VERTEX
  5
2D5
100
AcDbEntity
  8
Frei
  6
CONTINUOUS
 62
           7
100
AcDbVertex
100
AcDb2dVertex
 10
-14400.450834180021
 20
-14122.318240512839
 30
0.0
  0
VERTEX
  5
2D6
100
AcDbEntity
  8
Frei
  6
CONTINUOUS
 62
           7
100
AcDbVertex
100
AcDb2dVertex
 10
-14400.507979232729
 20
-14121.981304553421
 30
0.0
  0
VERTEX
  5
2D7
100
AcDbEntity
  8
Frei
  6
CONTINUOUS
 62
           7
100
AcDbVertex
100
AcDb2dVertex
 10
-14400.595823601763
 20
-14121.65103629461
 30
0.0
 42
0.045273723548
  0
VERTEX
  5
2D8
100
AcDbEntity
  8
Frei
  6
CONTINUOUS
 62
           7
100
AcDbVertex
100
AcDb2dVertex
 10
-14400.861646659427
 20
-14121.016722369817
 30
0.0
  0
VERTEX
  5
2D9
100
AcDbEntity
  8
Frei
  6
CONTINUOUS
 62
           7
100
AcDbVertex
100
AcDb2dVertex
 10
-14401.037984843029
 20
-14120.717227950117
 30
0.0
  0
VERTEX
  5
2DA
100
AcDbEntity
  8
Frei
  6
CONTINUOUS
 62
           7
100
AcDbVertex
100
AcDb2dVertex
 10
-14401.240226453921
 20
-14120.434572046088
 30
0.0
 42
0.04348253534
  0
VERTEX
  5
2DB
100
AcDbEntity
  8
Frei
  6
CONTINUOUS
 62
           7
100
AcDbVertex
100
AcDb2dVertex
 10
-14401.720060029758
 20
-14119.922273666429
 30
0.0
  0
VERTEX
  5
2DC
100
AcDbEntity
  8
Frei
  6
CONTINUOUS
 62
           7
100
AcDbVertex
100
AcDb2dVertex
 10
-14401.994208925824
 20
-14119.696754303965
 30
0.0
  0
VERTEX
  5
2DD
100
AcDbEntity
  8
Frei
  6
CONTINUOUS
 62
           7
100
AcDbVertex
100
AcDb2dVertex
 10
-14402.286567886544
 20
-14119.495393157868
 30
0.0
 42
0.041825507476
  0
VERTEX
  5
2DE
100
AcDbEntity
  8
Frei
  6
CONTINUOUS
 62
           7
100
AcDbVertex
100
AcDb2dVertex
 10
-14402.92253696972
 20
-14119.166901068644
 30
0.0
  0
VERTEX
  5
2DF
100
AcDbEntity
  8
Frei
  6
CONTINUOUS
 62
           7
100
AcDbVertex
100
AcDb2dVertex
 10
-14403.261039571076
 20
-14119.042659206943
 30
0.0
  0
VERTEX
  5
2E0
100
AcDbEntity
  8
Frei
  6
CONTINUOUS
 62
           7
100
AcDbVertex
100
AcDb2dVertex
 10
-14403.608643680504
 20
-14118.946778464666
 30
0.0
 42
0.040993490695
  0
VERTEX
  5
2E1
100
AcDbEntity
  8
Frei
  6
CONTINUOUS
 62
           7
100
AcDbVertex
100
AcDb2dVertex
 10
-14404.324041013679
 20
-14118.841713659869
 30
0.0
  0
VERTEX
  5
2E2
100
AcDbEntity
  8
Frei
  6
CONTINUOUS
 62
           7
100
AcDbVertex
100
AcDb2dVertex
 10
-14404.685787529661
 20
-14118.833467415619
 30
0.0
  0
VERTEX
  5
2E3
100
AcDbEntity
  8
Frei
  6
CONTINUOUS
 62
           7
100
AcDbVertex
100
AcDb2dVertex
 10
-14405.046991983285
 20
-14118.85489899518
 30
0.0
 42
0.041278481647
  0
VERTEX
  5
2E4
100
AcDbEntity
  8
Frei
  6
CONTINUOUS
 62
           7
100
AcDbVertex
100
AcDb2dVertex
 10
-14405.75553008994
 20
-14118.985933840855
 30
0.0
  0
VERTEX
  5
2E5
100
AcDbEntity
  8
Frei
  6
CONTINUOUS
 62
           7
100
AcDbVertex
100
AcDb2dVertex
 10
-14406.096959235263
 20
-14119.094299622051
 30
0.0
  0
VERTEX
  5
2E6
100
AcDbEntity
  8
Frei
  6
CONTINUOUS
 62
           7
100
AcDbVertex
100
AcDb2dVertex
 10
-14406.428126761815
 20
-14119.23083676942
 30
0.0
 42
0.042584509173
  0
VERTEX
  5
2E7
100
AcDbEntity
  8
Frei
  6
CONTINUOUS
 62
           7
100
AcDbVertex
100
AcDb2dVertex
 10
-14407.044345489379
 20
-14119.582166529317
 30
0.0
  0
VERTEX
  5
2E8
100
AcDbEntity
  8
Frei
  6
CONTINUOUS
 62
           7
100
AcDbVertex
100
AcDb2dVertex
 10
-14407.324641692963
 20
-14119.793926065398
 30
0.0
  0
VERTEX
  5
2E9
100
AcDbEntity
  8
Frei
  6
CONTINUOUS
 62
           7
100
AcDbVertex
100
AcDb2dVertex
 10
-14407.585462778423
 20
-14120.029248143568
 30
0.0
 42
0.044417198743
  0
VERTEX
  5
2EA
100
AcDbEntity
  8
Frei
  6
CONTINUOUS
 62
           7
100
AcDbVertex
100
AcDb2dVertex
 10
-14408.035037053935
 20
-14120.558497263561
 30
0.0
  0
VERTEX
  5
2EB
100
AcDbEntity
  8
Frei
  6
CONTINUOUS
 62
           7
100
AcDbVertex
100
AcDb2dVertex
 10
-14408.22072340386
 20
-14120.848358485195
 30
0.0
  0
VERTEX
  5
2EC
100
AcDbEntity
  8
Frei
  6
CONTINUOUS
 62
           7
100
AcDbVertex
100
AcDb2dVertex
 10
-14408.379408229048
 20
-14121.1538329226
 30
0.0
 42
0.045929593741
  0
VERTEX
  5
2ED
100
AcDbEntity
  8
Frei
  6
CONTINUOUS
 62
           7
100
AcDbVertex
100
AcDb2dVertex
 10
-14408.608112759866
 20
-14121.797166147939
 30
0.0
  0
VERTEX
  5
2EE
100
AcDbEntity
  8
Frei
  6
CONTINUOUS
 62
           7
100
AcDbVertex
100
AcDb2dVertex
 10
-14408.676732434038
 20
-14122.130598828249
 30
0.0
  0
VERTEX
  5
2EF
100
AcDbEntity
  8
Frei
  6
CONTINUOUS
 62
           7
100
AcDbVertex
100
AcDb2dVertex
 10
-14408.714201574954
 20
-14122.468949585065
 30
0.0
  0
SEQEND
  5
2F0
100
AcDbEntity
  8
Frei
  6
CONTINUOUS
 62
           7
  0
POLYLINE
  5
2F1
100
AcDbEntity
  8
Frei
  6
CONTINUOUS
 62
           7
100
AcDb2dPolyline
 66
           1
 10
0.0
 20
0.0
 30
0.0
  0
VERTEX
  5
2F2
100
AcDbEntity
  8
Frei
  6
CONTINUOUS
 62
           7
100
AcDbVertex
100
AcDb2dVertex
 10
-14404.318722958791
 20
-14118.758460945579
 30
0.0
 42
0.046286845788
  0
VERTEX
  5
2F3
100
AcDbEntity
  8
Frei
  6
CONTINUOUS
 62
           7
100
AcDbVertex
100
AcDb2dVertex
 10
-14405.09447194428
 20
-14118.780998200518
 30
0.0
  0
VERTEX
  5
2F4
100
AcDbEntity
  8
Frei
  6
CONTINUOUS
 62
           7
100
AcDbVertex
100
AcDb2dVertex
 10
-14405.478951685602
 20
-14118.846206779384
 30
0.0
  0
VERTEX
  5
2F5
100
AcDbEntity
  8
Frei
  6
CONTINUOUS
 62
           7
100
AcDbVertex
100
AcDb2dVertex
 10
-14405.855822871847
 20
-14118.946446541093
 30
0.0
 42
0.045273723548
  0
VERTEX
  5
2F6
100
AcDbEntity
  8
Frei
  6
CONTINUOUS
 62
           7
100
AcDbVertex
100
AcDb2dVertex
 10
-14406.57964247882
 20
-14119.249778903197
 30
0.0
  0
VERTEX
  5
2F7
100
AcDbEntity
  8
Frei
  6
CONTINUOUS
 62
           7
100
AcDbVertex
100
AcDb2dVertex
 10
-14406.921397443804
 20
-14119.450999512992
 30
0.0
  0
VERTEX
  5
2F8
100
AcDbEntity
  8
Frei
  6
CONTINUOUS
 62
           7
100
AcDbVertex
100
AcDb2dVertex
 10
-14407.24393787271
 20
-14119.681778686503
 30
0.0
 42
0.04348253534
  0
VERTEX
  5
2F9
100
AcDbEntity
  8
Frei
  6
CONTINUOUS
 62
           7
100
AcDbVertex
100
AcDb2dVertex
 10
-14407.828524774124
 20
-14120.229319796195
 30
0.0
  0
VERTEX
  5
2FA
100
AcDbEntity
  8
Frei
  6
CONTINUOUS
 62
           7
100
AcDbVertex
100
AcDb2dVertex
 10
-14408.08586633628
 20
-14120.542152824839
 30
0.0
  0
VERTEX
  5
2FB
100
AcDbEntity
  8
Frei
  6
CONTINUOUS
 62
           7
100
AcDbVertex
100
AcDb2dVertex
 10
-14408.315640805879
 20
-14120.875765472727
 30
0.0
 42
0.041825507476
  0
VERTEX
  5
2FC
100
AcDbEntity
  8
Frei
  6
CONTINUOUS
 62
           7
100
AcDbVertex
100
AcDb2dVertex
 10
-14408.69048519384
 20
-14121.601473791332
 30
0.0
  0
VERTEX
  5
2FD
100
AcDbEntity
  8
Frei
  6
CONTINUOUS
 62
           7
100
AcDbVertex
100
AcDb2dVertex
 10
-14408.832258363229
 20
-14121.987741237619
 30
0.0
  0
VERTEX
  5
2FE
100
AcDbEntity
  8
Frei
  6
CONTINUOUS
 62
           7
100
AcDbVertex
100
AcDb2dVertex
 10
-14408.941668480962
 20
-14122.384394471977
 30
0.0
 42
0.040993490695
  0
VERTEX
  5
2FF
100
AcDbEntity
  8
Frei
  6
CONTINUOUS
 62
           7
100
AcDbVertex
100
AcDb2dVertex
 10
-14409.061558590171
 20
-14123.20073886596
 30
0.0
  0
VERTEX
  5
300
100
AcDbEntity
  8
Frei
  6
CONTINUOUS
 62
           7
100
AcDbVertex
100
AcDb2dVertex
 10
-14409.070968431319
 20
-14123.613530089338
 30
0.0
  0
VERTEX
  5
301
100
AcDbEntity
  8
Frei
  6
CONTINUOUS
 62
           7
100
AcDbVertex
100
AcDb2dVertex
 10
-14409.046512721163
 20
-14124.025702761955
 30
0.0
 42
0.041278481646
  0
VERTEX
  5
302
100
AcDbEntity
  8
Frei
  6
CONTINUOUS
 62
           7
100
AcDbVertex
100
AcDb2dVertex
 10
-14408.896988035056
 20
-14124.834220049437
 30
0.0
  0
VERTEX
  5
303
100
AcDbEntity
  8
Frei
  6
CONTINUOUS
 62
           7
100
AcDbVertex
100
AcDb2dVertex
 10
-14408.773331160932
 20
-14125.223826993437
 30
0.0
  0
VERTEX
  5
304
100
AcDbEntity
  8
Frei
  6
CONTINUOUS
 62
           7
100
AcDbVertex
100
AcDb2dVertex
 10
-14408.617527763774
 20
-14125.601724339755
 30
0.0
 42
0.042584509173
  0
VERTEX
  5
305
100
AcDbEntity
  8
Frei
  6
CONTINUOUS
 62
           7
100
AcDbVertex
100
AcDb2dVertex
 10
-14408.216623166249
 20
-14126.304895403422
 30
0.0
  0
VERTEX
  5
306
100
AcDbEntity
  8
Frei
  6
CONTINUOUS
 62
           7
100
AcDbVertex
100
AcDb2dVertex
 10
-14407.974983028471
 20
-14126.624743163313
 30
0.0
  0
VERTEX
  5
307
100
AcDbEntity
  8
Frei
  6
CONTINUOUS
 62
           7
100
AcDbVertex
100
AcDb2dVertex
 10
-14407.706455525804
 20
-14126.922367743493
 30
0.0
 42
0.044417198743
  0
VERTEX
  5
308
100
AcDbEntity
  8
Frei
  6
CONTINUOUS
 62
           7
100
AcDbVertex
100
AcDb2dVertex
 10
-14407.102526028038
 20
-14127.435379775368
 30
0.0
  0
VERTEX
  5
309
100
AcDbEntity
  8
Frei
  6
CONTINUOUS
 62
           7
100
AcDbVertex
100
AcDb2dVertex
 10
-14406.771763565923
 20
-14127.647267636521
 30
0.0
  0
VERTEX
  5
30A
100
AcDbEntity
  8
Frei
  6
CONTINUOUS
 62
           7
100
AcDbVertex
100
AcDb2dVertex
 10
-14406.423184765139
 20
-14127.828343888059
 30
0.0
 42
0.045929593742
  0
VERTEX
  5
30B
100
AcDbEntity
  8
Frei
  6
CONTINUOUS
 62
           7
100
AcDbVertex
100
AcDb2dVertex
 10
-14405.689073177618
 20
-14128.089320065847
 30
0.0
  0
VERTEX
  5
30C
100
AcDbEntity
  8
Frei
  6
CONTINUOUS
 62
           7
100
AcDbVertex
100
AcDb2dVertex
 10
-14405.308591050109
 20
-14128.167622407396
 30
0.0
  0
VERTEX
  5
30D
100
AcDbEntity
  8
Frei
  6
CONTINUOUS
 62
           7
100
AcDbVertex
100
AcDb2dVertex
 10
-14404.922496874584
 20
-14128.210378679632
 30
0.0
 42
0.046286845788
  0
VERTEX
  5
30E
100
AcDbEntity
  8
Frei
  6
CONTINUOUS
 62
           7
100
AcDbVertex
100
AcDb2dVertex
 10
-14404.146747889095
 20
-14128.187841424695
 30
0.0
  0
VERTEX
  5
30F
100
AcDbEntity
  8
Frei
  6
CONTINUOUS
 62
           7
100
AcDbVertex
100
AcDb2dVertex
 10
-14403.762268147773
 20
-14128.122632845829
 30
0.0
  0
VERTEX
  5
310
100
AcDbEntity
  8
Frei
  6
CONTINUOUS
 62
           7
100
AcDbVertex
100
AcDb2dVertex
 10
-14403.385396961528
 20
-14128.02239308412
 30
0.0
 42
0.045273723548
  0
VERTEX
  5
311
100
AcDbEntity
  8
Frei
  6
CONTINUOUS
 62
           7
100
AcDbVertex
100
AcDb2dVertex
 10
-14402.661577354555
 20
-14127.719060722015
 30
0.0
  0
VERTEX
  5
312
100
AcDbEntity
  8
Frei
  6
CONTINUOUS
 62
           7
100
AcDbVertex
100
AcDb2dVertex
 10
-14402.319822389571
 20
-14127.517840112219
 30
0.0
  0
VERTEX
  5
313
100
AcDbEntity
  8
Frei
  6
CONTINUOUS
 62
           7
100
AcDbVertex
100
AcDb2dVertex
 10
-14401.997281960666
 20
-14127.28706093871
 30
0.0
 42
0.04348253534
  0
VERTEX
  5
314
100
AcDbEntity
  8
Frei
  6
CONTINUOUS
 62
           7
100
AcDbVertex
100
AcDb2dVertex
 10
-14401.412695059251
 20
-14126.739519829016
 30
0.0
  0
VERTEX
  5
315
100
AcDbEntity
  8
Frei
  6
CONTINUOUS
 62
           7
100
AcDbVertex
100
AcDb2dVertex
 10
-14401.155353497095
 20
-14126.426686800374
 30
0.0
  0
VERTEX
  5
316
100
AcDbEntity
  8
Frei
  6
CONTINUOUS
 62
           7
100
AcDbVertex
100
AcDb2dVertex
 10
-14400.925579027496
 20
-14126.093074152486
 30
0.0
 42
0.041825507476
  0
VERTEX
  5
317
100
AcDbEntity
  8
Frei
  6
CONTINUOUS
 62
           7
100
AcDbVertex
100
AcDb2dVertex
 10
-14400.550734639533
 20
-14125.367365833879
 30
0.0
  0
VERTEX
  5
318
100
AcDbEntity
  8
Frei
  6
CONTINUOUS
 62
           7
100
AcDbVertex
100
AcDb2dVertex
 10
-14400.408961470146
 20
-14124.981098387592
 30
0.0
  0
VERTEX
  5
319
100
AcDbEntity
  8
Frei
  6
CONTINUOUS
 62
           7
100
AcDbVertex
100
AcDb2dVertex
 10
-14400.299551352413
 20
-14124.584445153234
 30
0.0
 42
0.040993490695
  0
VERTEX
  5
31A
100
AcDbEntity
  8
Frei
  6
CONTINUOUS
 62
           7
100
AcDbVertex
100
AcDb2dVertex
 10
-14400.179661243204
 20
-14123.768100759253
 30
0.0
  0
VERTEX
  5
31B
100
AcDbEntity
  8
Frei
  6
CONTINUOUS
 62
           7
100
AcDbVertex
100
AcDb2dVertex
 10
-14400.170251402054
 20
-14123.355309535873
 30
0.0
  0
VERTEX
  5
31C
100
AcDbEntity
  8
Frei
  6
CONTINUOUS
 62
           7
100
AcDbVertex
100
AcDb2dVertex
 10
-14400.194707112212
 20
-14122.943136863256
 30
0.0
 42
0.041278481646
  0
VERTEX
  5
31D
100
AcDbEntity
  8
Frei
  6
CONTINUOUS
 62
           7
100
AcDbVertex
100
AcDb2dVertex
 10
-14400.344231798319
 20
-14122.134619575776
 30
0.0
  0
VERTEX
  5
31E
100
AcDbEntity
  8
Frei
  6
CONTINUOUS
 62
           7
100
AcDbVertex
100
AcDb2dVertex
 10
-14400.467888672443
 20
-14121.745012631774
 30
0.0
  0
VERTEX
  5
31F
100
AcDbEntity
  8
Frei
  6
CONTINUOUS
 62
           7
100
AcDbVertex
100
AcDb2dVertex
 10
-14400.623692069601
 20
-14121.367115285459
 30
0.0
 42
0.042584509173
  0
VERTEX
  5
320
100
AcDbEntity
  8
Frei
  6
CONTINUOUS
 62
           7
100
AcDbVertex
100
AcDb2dVertex
 10
-14401.024596667126
 20
-14120.663944221791
 30
0.0
  0
VERTEX
  5
321
100
AcDbEntity
  8
Frei
  6
CONTINUOUS
 62
           7
100
AcDbVertex
100
AcDb2dVertex
 10
-14401.266236804902
 20
-14120.344096461899
 30
0.0
  0
VERTEX
  5
322
100
AcDbEntity
  8
Frei
  6
CONTINUOUS
 62
           7
100
AcDbVertex
100
AcDb2dVertex
 10
-14401.534764307573
 20
-14120.04647188172
 30
0.0
 42
0.044417198743
  0
VERTEX
  5
323
100
AcDbEntity
  8
Frei
  6
CONTINUOUS
 62
           7
100
AcDbVertex
100
AcDb2dVertex
 10
-14402.138693805337
 20
-14119.533459849845
 30
0.0
  0
VERTEX
  5
324
100
AcDbEntity
  8
Frei
  6
CONTINUOUS
 62
           7
100
AcDbVertex
100
AcDb2dVertex
 10
-14402.469456267452
 20
-14119.32157198869
 30
0.0
  0
VERTEX
  5
325
100
AcDbEntity
  8
Frei
  6
CONTINUOUS
 62
           7
100
AcDbVertex
100
AcDb2dVertex
 10
-14402.818035068234
 20
-14119.140495737154
 30
0.0
 42
0.045929593741
  0
VERTEX
  5
326
100
AcDbEntity
  8
Frei
  6
CONTINUOUS
 62
           7
100
AcDbVertex
100
AcDb2dVertex
 10
-14403.552146655755
 20
-14118.879519559365
 30
0.0
  0
VERTEX
  5
327
100
AcDbEntity
  8
Frei
  6
CONTINUOUS
 62
           7
100
AcDbVertex
100
AcDb2dVertex
 10
-14403.932628783265
 20
-14118.801217217815
 30
0.0
  0
VERTEX
  5
328
100
AcDbEntity
  8
Frei
  6
CONTINUOUS
 62
           7
100
AcDbVertex
100
AcDb2dVertex
 10
-14404.318722958791
 20
-14118.758460945579
 30
0.0
  0
SEQEND
  5
329
100
AcDbEntity
  8
Frei
  6
CONTINUOUS
 62
           7
  0
ARC
  5
32A
100
AcDbEntity
  8
Frei
  6
CONTINUOUS
 62
           7
100
AcDbCircle
 10
-14270.558972196101
 20
-14136.800851304279
 30
0.0
 40
0.5
100
AcDbArc
 50
273.494821982568
 51
356.344999999999
  0
ARC
  5
32B
100
AcDbEntity
  8
Frei
  6
CONTINUOUS
 62
           7
100
AcDbCircle
 10
-14270.232732549397
 20
-14131.693657665124
 30
0.0
 40
0.5
100
AcDbArc
 50
356.344999999999
 51
79.195178017423
  0
ARC
  5
32C
100
AcDbEntity
  8
Frei
  6
CONTINUOUS
 62
           7
100
AcDbCircle
 10
-14424.983956087382
 20
-14099.763549029847
 30
0.0
 40
0.5
100
AcDbArc
 50
93.494821982565
 51
176.345
  0
ARC
  5
32D
100
AcDbEntity
  8
Frei
  6
CONTINUOUS
 62
           7
100
AcDbCircle
 10
-14425.310195734086
 20
-14104.870742669003
 30
0.0
 40
0.5
100
AcDbArc
 50
176.345
 51
259.195178017419
  0
ARC
  5
32E
100
AcDbEntity
  8
Frei
  6
CONTINUOUS
 62
           7
100
AcDbCircle
 10
-14455.192107160734
 20
-14101.844938746277
 30
0.0
 40
2.0
100
AcDbArc
 50
88.345
 51
176.345
  0
ARC
  5
32F
100
AcDbEntity
  8
Frei
  6
CONTINUOUS
 62
           7
100
AcDbCircle
 10
-14470.773055709993
 20
-14157.520841474801
 30
0.0
 40
1.5
100
AcDbArc
 50
176.345
 51
266.345
  0
ARC
  5
330
100
AcDbEntity
  8
Frei
  6
CONTINUOUS
 62
           7
100
AcDbCircle
 10
-14469.816827799948
 20
-14142.551351564183
 30
0.0
 40
1.5
100
AcDbArc
 50
86.345
 51
176.345
  0
ARC
  5
331
100
AcDbEntity
  8
Frei
  6
CONTINUOUS
 62
           7
100
AcDbCircle
 10
-14458.669966726828
 20
-14156.289891814755
 30
0.0
 40
1.5
100
AcDbArc
 50
176.345
 51
266.345
  0
ARC
  5
332
100
AcDbEntity
  8
Frei
  6
CONTINUOUS
 62
           7
100
AcDbCircle
 10
-14433.720816875799
 20
-14157.883604998164
 30
0.0
 40
1.5
100
AcDbArc
 50
266.345
 51
356.344999999999
  0
ARC
  5
333
100
AcDbEntity
  8
Frei
  6
CONTINUOUS
 62
           7
100
AcDbCircle
 10
-14268.058461864974
 20
-14168.465860535995
 30
0.0
 40
1.5
100
AcDbArc
 50
176.345
 51
266.345
  0
ARC
  5
334
100
AcDbEntity
  8
Frei
  6
CONTINUOUS
 62
           7
100
AcDbCircle
 10
-14243.109312013947
 20
-14170.059573719403
 30
0.0
 40
1.5
100
AcDbArc
 50
266.345
 51
356.344999999999
  0
ARC
  5
335
100
AcDbEntity
  8
Frei
  6
CONTINUOUS
 62
           7
100
AcDbCircle
 10
-14230.304989230081
 20
-14157.850998124904
 30
0.0
 40
1.5
100
AcDbArc
 50
356.344999999999
 51
86.345
  0
ARC
  5
336
100
AcDbEntity
  8
Frei
  6
CONTINUOUS
 62
           7
100
AcDbCircle
 10
-14231.261217140127
 20
-14172.820488035521
 30
0.0
 40
1.5
100
AcDbArc
 50
266.345
 51
356.344999999999
  0
ARC
  5
337
100
AcDbEntity
  8
Frei
  6
CONTINUOUS
 62
           7
100
AcDbCircle
 10
-14239.631452447853
 20
-14115.614620650926
 30
0.0
 40
2.0
100
AcDbArc
 50
356.344999999999
 51
84.345
  0
ARC
  5
338
100
AcDbEntity
  8
Frei
  6
CONTINUOUS
 62
           7
100
AcDbCircle
 10
-14268.692522934311
 20
-14107.802049523494
 30
0.0
 40
1.0
100
AcDbArc
 50
356.344999999999
 51
86.345
  0
ARC
  5
339
100
AcDbEntity
  8
Frei
  6
CONTINUOUS
 62
           7
100
AcDbCircle
 10
-14270.668727281738
 20
-14138.738995338768
 30
0.0
 40
1.0
100
AcDbArc
 50
266.344999999999
 51
356.344999999999
  0
ARC
  5
33A
100
AcDbEntity
  8
Frei
  6
CONTINUOUS
 62
           7
100
AcDbCircle
 10
-14427.349388346192
 20
-14128.730476546963
 30
0.0
 40
1.0
100
AcDbArc
 50
176.345
 51
266.345
  0
ARC
  5
33B
100
AcDbEntity
  8
Frei
  6
CONTINUOUS
 62
           7
100
AcDbCircle
 10
-14425.373183998767
 20
-14097.793530731689
 30
0.0
 40
1.0
100
AcDbArc
 50
86.345
 51
176.345
  0
LINE
  5
33C
100
AcDbEntity
  8
Frei
  6
CONTINUOUS
 62
           7
100
AcDbLine
 10
-14706.072175635069
 20
-14080.781048798557
 30
0.0
 11
-14706.072175635069
 21
-14160.781048798557
 31
0.0
  0
LINE
  5
33D
100
AcDbEntity
  8
Frei
  6
CONTINUOUS
 62
           7
100
AcDbLine
 10
-14160.18329063507
 20
-14160.781048798557
 30
0.0
 11
-14160.18329063507
 21
-14080.781048798557
 31
0.0
  0
LINE
  5
33E
100
AcDbEntity
  8
Frei
  6
CONTINUOUS
 62
          15
100
AcDbLine
 10
-14609.371889259102
 20
-14080.781048798557
 30
0.0
 11
-14706.072175635069
 21
-14080.781048798557
 31
0.0
  0
LINE
  5
33F
100
AcDbEntity
  8
Frei
  6
GESTRICHELT
 62
          15
100
AcDbLine
 10
-14601.581568394435
 20
-14080.781048798557
 30
0.0
 11
-14609.371889259102
 21
-14080.781048798557
 31
0.0
  0
LINE
  5
340
100
AcDbEntity
  8
Frei
  6
CONTINUOUS
 62
          15
100
AcDbLine
 10
-14486.859563936363
 20
-14080.781048798557
 30
0.0
 11
-14601.581568394435
 21
-14080.781048798557
 31
0.0
  0
LINE
  5
341
100
AcDbEntity
  8
Frei
  6
GESTRICHELT
 62
          15
100
AcDbLine
 10
-14390.516155196732
 20
-14080.781048798557
 30
0.0
 11
-14486.859563936363
 21
-14080.781048798557
 31
0.0
  0
LINE
  5
342
100
AcDbEntity
  8
Frei
  6
CONTINUOUS
 62
          15
100
AcDbLine
 10
-14160.18329063507
 20
-14080.781048798557
 30
0.0
 11
-14390.516155196732
 21
-14080.781048798557
 31
0.0
  0
LINE
  5
343
100
AcDbEntity
  8
Frei
  6
CONTINUOUS
 62
          15
100
AcDbLine
 10
-14269.070625180069
 20
-14160.781048798557
 30
0.0
 11
-14706.072175635069
 21
-14160.781048798557
 31
0.0
  0
LINE
  5
344
100
AcDbEntity
  8
Frei
  6
GESTRICHELT
 62
          15
100
AcDbLine
 10
-14218.968717601503
 20
-14160.781048798557
 30
0.0
 11
-14269.070625180069
 21
-14160.781048798557
 31
0.0
  0
LINE
  5
345
100
AcDbEntity
  8
Frei
  6
CONTINUOUS
 62
          15
100
AcDbLine
 10
-14160.18329063507
 20
-14160.781048798557
 30
0.0
 11
-14218.968717601503
 21
-14160.781048798557
 31
0.0
  0
CIRCLE
  5
346
100
AcDbEntity
  8
FREI
  6
CONTINUOUS
 62
          15
100
AcDbCircle
 10
-14671.072175635069
 20
-14125.781048798557
 30
0.0
 40
10.0
  0
TEXT
  5
347
100
AcDbEntity
  8
FREI
  6
CONTINUOUS
 62
          15
100
AcDbText
 10
-14606.846966924682
 20
-13934.500101506115
 30
0.0
 40
3.527777671814
  1
315-701
 41
0.899999979725
  7
GOTHICG
100
AcDbText
  0
ENDSEC
  0
SECTION
  2
OBJECTS
  0
DICTIONARY
  5
19
100
AcDbDictionary
  3
ACAD_GROUP
350
1A
  3
ACAD_MLINESTYLE
350
1B
  0
DICTIONARY
  5
1A
102
{ACAD_REACTORS
330
19
102
}
100
AcDbDictionary
  0
DICTIONARY
  5
1B
102
{ACAD_REACTORS
330
19
102
}
100
AcDbDictionary
  3
STANDARD
350
1C
  0
MLINESTYLE
  5
1C
102
{ACAD_REACTORS
330
1B
102
}
100
AcDbMlineStyle
  2
STANDARD
 70
           0
  3

 62
           0
 51
90.0
 52
90.0
 71
           2
 49
0.5
 62
         256
  6
BYLAYER
 49
-0.5
 62
         256
  6
BYLAYER
  0
ENDSEC
  0
EOF
