  0
SECTION
  2
HEADER
  9
$ACADVER
  1
AC1012
  9
$DWGCODEPAGE
  3
dos850
  9
$INSBASE
 10
0.0
 20
0.0
 30
0.0
  9
$EXTMIN
 10
-14349.951558375327
 20
-5919.082027792818
 30
0.0
  9
$EXTMAX
 10
-13780.820554633672
 20
-5736.409913771613
 30
0.0
  9
$LIMMIN
 10
-14349.951558375327
 20
-5919.082027792818
  9
$LIMMAX
 10
-13780.820554633672
 20
-5736.409913771613
  9
$ORTHOMODE
 70
           0
  9
$REGENMODE
 70
           1
  9
$FILLMODE
 70
           1
  9
$QTEXTMODE
 70
           0
  9
$MIRRTEXT
 70
           1
  9
$DRAGMODE
 70
           2
  9
$LTSCALE
 40
5.0
  9
$OSMODE
 70
           0
  9
$ATTMODE
 70
           1
  9
$TEXTSIZE
 40
0.2
  9
$TRACEWID
 40
0.05
  9
$TEXTSTYLE
  7
TXT
  9
$CLAYER
  8
0
  9
$CELTYPE
  6
CONTINUOUS
  9
$CECOLOR
 62
         256
  9
$CELTSCALE
 40
1.0
  9
$DELOBJ
 70
           1
  9
$DISPSILH
 70
           0
  9
$DIMSCALE
 40
1.0
  9
$DIMASZ
 40
3.5
  9
$DIMEXO
 40
0.0625
  9
$DIMDLI
 40
0.38
  9
$DIMRND
 40
0.0
  9
$DIMDLE
 40
0.0
  9
$DIMEXE
 40
0.18
  9
$DIMTP
 40
0.0
  9
$DIMTM
 40
0.0
  9
$DIMTXT
 40
3.5
  9
$DIMCEN
 40
0.09
  9
$DIMTSZ
 40
0.0
  9
$DIMTOL
 70
           0
  9
$DIMLIM
 70
           0
  9
$DIMTIH
 70
           1
  9
$DIMTOH
 70
           1
  9
$DIMSE1
 70
           0
  9
$DIMSE2
 70
           0
  9
$DIMTAD
 70
           0
  9
$DIMZIN
 70
           0
  9
$DIMBLK
  1

  9
$DIMASO
 70
           1
  9
$DIMSHO
 70
           1
  9
$DIMPOST
  1

  9
$DIMAPOST
  1

  9
$DIMALT
 70
           0
  9
$DIMALTD
 70
           2
  9
$DIMALTF
 40
25.4
  9
$DIMLFAC
 40
1.0
  9
$DIMTOFL
 70
           0
  9
$DIMTVP
 40
0.0
  9
$DIMTIX
 70
           0
  9
$DIMSOXD
 70
           0
  9
$DIMSAH
 70
           0
  9
$DIMBLK1
  1

  9
$DIMBLK2
  1

  9
$DIMSTYLE
  2
STANDARD
  9
$DIMCLRD
 70
           0
  9
$DIMCLRE
 70
           0
  9
$DIMCLRT
 70
           0
  9
$DIMTFAC
 40
1.0
  9
$DIMGAP
 40
0.09
  9
$DIMJUST
 70
           0
  9
$DIMSD1
 70
           0
  9
$DIMSD2
 70
           0
  9
$DIMTOLJ
 70
           1
  9
$DIMTZIN
 70
           0
  9
$DIMALTZ
 70
           0
  9
$DIMALTTZ
 70
           0
  9
$DIMFIT
 70
           3
  9
$DIMUPT
 70
           0
  9
$DIMUNIT
 70
           2
  9
$DIMDEC
 70
           4
  9
$DIMTDEC
 70
           4
  9
$DIMALTU
 70
           2
  9
$DIMALTTD
 70
           2
  9
$DIMTXSTY
  7
TXT
  9
$DIMAUNIT
 70
           0
  9
$LUNITS
 70
           2
  9
$LUPREC
 70
           3
  9
$SKETCHINC
 40
0.1
  9
$FILLETRAD
 40
0.0
  9
$AUNITS
 70
           0
  9
$AUPREC
 70
           3
  9
$MENU
  1
acad
  9
$ELEVATION
 40
0.0
  9
$PELEVATION
 40
0.0
  9
$THICKNESS
 40
0.0
  9
$LIMCHECK
 70
           0
  9
$BLIPMODE
 70
           1
  9
$CHAMFERA
 40
0.0
  9
$CHAMFERB
 40
0.0
  9
$CHAMFERC
 40
0.0
  9
$CHAMFERD
 40
0.0
  9
$SKPOLY
 70
           0
  9
$TDCREATE
 40
0.000000000
  9
$TDUPDATE
 40
0.000000000
  9
$TDINDWG
 40
0.0000000000
  9
$TDUSRTIMER
 40
0.0000000000
  9
$USRTIMER
 70
           1
  9
$ANGBASE
 50
0.0
  9
$ANGDIR
 70
           0
  9
$PDMODE
 70
           2
  9
$PDSIZE
 40
0.5
  9
$PLINEWID
 40
0.0
  9
$COORDS
 70
           0
  9
$SPLFRAME
 70
           0
  9
$SPLINETYPE
 70
           6
  9
$SPLINESEGS
 70
           8
  9
$ATTDIA
 70
           0
  9
$ATTREQ
 70
           1
  9
$HANDLING
 70
           1
  9
$HANDSEED
  5
3AB
  9
$SURFTAB1
 70
           6
  9
$SURFTAB2
 70
           6
  9
$SURFTYPE
 70
           6
  9
$SURFU
 70
           6
  9
$SURFV
 70
           6
  9
$UCSNAME
  2

  9
$UCSORG
 10
0.0
 20
0.0
 30
0.0
  9
$UCSXDIR
 10
1.0
 20
0.0
 30
0.0
  9
$UCSYDIR
 10
0.0
 20
1.0
 30
0.0
  9
$PUCSNAME
  2

  9
$PUCSORG
 10
0.0
 20
0.0
 30
0.0
  9
$PUCSXDIR
 10
1.0
 20
0.0
 30
0.0
  9
$PUCSYDIR
 10
0.0
 20
1.0
 30
0.0
  9
$USERI1
 70
           0
  9
$USERI2
 70
           0
  9
$USERI3
 70
           0
  9
$USERI4
 70
           0
  9
$USERI5
 70
           0
  9
$USERR1
 40
0.0
  9
$USERR2
 40
0.0
  9
$USERR3
 40
0.0
  9
$USERR4
 40
0.0
  9
$USERR5
 40
0.0
  9
$WORLDVIEW
 70
           1
  9
$SHADEDGE
 70
           3
  9
$SHADEDIF
 70
          70
  9
$TILEMODE
 70
           1
  9
$MAXACTVP
 70
          16
  9
$PINSBASE
 10
0.0
 20
0.0
 30
0.0
  9
$PLIMCHECK
 70
           0
  9
$PEXTMIN
 10
1.000000000000E+20
 20
1.000000000000E+20
 30
1.000000000000E+20
  9
$PEXTMAX
 10
-1.000000000000E+20
 20
-1.000000000000E+20
 30
-1.000000000000E+20
  9
$PLIMMIN
 10
0.0
 20
0.0
  9
$PLIMMAX
 10
12.0
 20
9.0
  9
$UNITMODE
 70
           0
  9
$VISRETAIN
 70
           0
  9
$PLINEGEN
 70
           1
  9
$PSLTSCALE
 70
           0
  9
$TREEDEPTH
 70
        3020
  9
$PICKSTYLE
 70
           1
  9
$CMLSTYLE
  2
STANDARD
  9
$CMLJUST
 70
           0
  9
$CMLSCALE
 40
1.0
  9
$SAVEIMAGES
 70
           0
  0
ENDSEC
  0
SECTION
  2
CLASSES
  0
CLASS
  1
LWPOLYLINE
  2
AcDbPolyline
  3
"AutoCAD"
 90
        0
280
           0
281
           1
  0
CLASS
  1
IMAGE
  2
AcDbRasterImage
  3
ISM
 90
      127
280
           0
281
           1
  0
CLASS
  1
OLE2FRAME
  2
AcDbOle2Frame
  3
""
 90
        0
280
           0
281
           1
  0
CLASS
  1
HATCH
  2
AcDbHatch
  3
"ACAD_SEDONA"
 90
        0
280
           0
281
           1
  0
CLASS
  1
DICTIONARYVAR
  2
AcDbDictionaryVar
  3
"AutoCAD"
 90
        0
280
           0
281
           0
  0
CLASS
  1
RASTERVARIABLES
  2
AcDbRasterVariables
  3
ISM
 90
        0
280
           0
281
           0
  0
CLASS
  1
IMAGEDEF
  2
AcDbRasterImageDef
  3
ISM
 90
        0
280
           0
281
           0
  0
CLASS
  1
IMAGEDEF_REACTOR
  2
AcDbRasterImageDefReactor
  3
ISM
 90
        1
280
           0
281
           0
  0
CLASS
  1
IDBUFFER
  2
AcDbIdBuffer
  3
"Acad"
 90
        0
280
           0
281
           0
  0
CLASS
  1
SPATIAL_FILTER
  2
AcDbSpatialFilter
  3
"Acad"
 90
        0
280
           0
281
           0
  0
CLASS
  1
XRECORD
  2
AcDbXrecord
  3
"<Built In>"
 90
        0
280
           0
281
           0
  0
ENDSEC
  0
SECTION
  2
TABLES
  0
TABLE
  2
VPORT
  5
7
100
AcDbSymbolTable
 70
           1
  0
VPORT
  5
15
100
AcDbSymbolTableRecord
100
AcDbViewportTableRecord
  2
*ACTIVE
 70
           0
 10
0.0
 20
0.0
 11
1.0
 21
1.0
 12
6.591288
 22
4.579184
 13
0.0
 23
0.0
 14
1.0
 24
1.0
 15
0.0
 25
0.0
 16
0.0
 26
0.0
 36
1.0
 17
0.0
 27
0.0
 37
0.0
 40
9.158369
 41
0.688564
 42
50.0
 43
0.0
 44
0.0
 50
0.0
 51
0.0
 71
           0
 72
         100
 73
           1
 74
           1
 75
           0
 76
           0
 77
           0
 78
           0
  0
ENDTAB
  0
TABLE
  2
LTYPE
  5
4
100
AcDbSymbolTable
 70
           5
  0
LTYPE
  5
11
100
AcDbSymbolTableRecord
100
AcDbLinetypeTableRecord
  2
BYBLOCK
 70
           0
  3

 72
          65
 73
           0
 40
0.0
  0
LTYPE
  5
12
100
AcDbSymbolTableRecord
100
AcDbLinetypeTableRecord
  2
BYLAYER
 70
           0
  3

 72
          65
 73
           0
 40
0.0
  0
LTYPE
  5
13
100
AcDbSymbolTableRecord
100
AcDbLinetypeTableRecord
  2
CONTINUOUS
 70
           0
  3
Solid line
 72
          65
 73
           0
 40
0.0
  0
LTYPE
  5
1D
100
AcDbSymbolTableRecord
100
AcDbLinetypeTableRecord
  2
GESTRICHELT
 70
           0
  3

 72
          65
 73
           2
 40
0.75
 49
0.5
 74
           0
 49
-0.25
 74
           0
  0
LTYPE
  5
1E
100
AcDbSymbolTableRecord
100
AcDbLinetypeTableRecord
  2
STRICHPUNKT
 70
           0
  3

 72
          65
 73
           4
 40
1.0
 49
0.5
 74
           0
 49
-0.25
 74
           0
 49
0.0
 74
           0
 49
-0.25
 74
           0
  0
ENDTAB
  0
TABLE
  2
LAYER
  5
2
100
AcDbSymbolTable
 70
           3
  0
LAYER
  5
14
100
AcDbSymbolTableRecord
100
AcDbLayerTableRecord
  2
0
 70
           0
 62
           7
  6
CONTINUOUS
  0
LAYER
  5
20
100
AcDbSymbolTableRecord
100
AcDbLayerTableRecord
  2
FREI
 70
           0
 62
           7
  6
CONTINUOUS
  0
LAYER
  5
21
100
AcDbSymbolTableRecord
100
AcDbLayerTableRecord
  2
Frei
 70
           0
 62
           7
  6
CONTINUOUS
  0
ENDTAB
  0
TABLE
  2
STYLE
  5
3
100
AcDbSymbolTable
 70
           2
  0
STYLE
  5
17
100
AcDbSymbolTableRecord
100
AcDbTextStyleTableRecord
  2
TXT
 70
           0
 40
3.5
 41
1.0
 50
0.0
 71
           0
 42
3.5
  3
TXT
  4

  0
STYLE
  5
1F
100
AcDbSymbolTableRecord
100
AcDbTextStyleTableRecord
  2
GOTHICG
 70
           0
 40
3.5
 41
1.0
 50
0.0
 71
           0
 42
3.5
  3
GOTHICG
  4

  0
ENDTAB
  0
TABLE
  2
VIEW
  5
5
100
AcDbSymbolTable
 70
           0
  0
ENDTAB
  0
TABLE
  2
UCS
  5
6
100
AcDbSymbolTable
 70
           0
  0
ENDTAB
  0
TABLE
  2
APPID
  5
8
100
AcDbSymbolTable
 70
           2
  0
APPID
  5
16
100
AcDbSymbolTableRecord
100
AcDbRegAppTableRecord
  2
ACAD
 70
           0
  0
APPID
  5
22
100
AcDbSymbolTableRecord
100
AcDbRegAppTableRecord
  2
MegaCADPntStyle
 70
           0
  0
ENDTAB
  0
TABLE
  2
DIMSTYLE
  5
9
100
AcDbSymbolTable
 70
           1
  0
DIMSTYLE
105
18
100
AcDbSymbolTableRecord
100
AcDbDimStyleTableRecord
  2
STANDARD
 70
           0
  3

  4

  5

  6

  7

 40
1.0
 41
0.18
 42
0.0625
 43
0.38
 44
0.18
 45
0.0
 46
0.0
 47
0.0
 48
0.0
140
0.18
141
0.09
142
0.0
143
25.4
144
1.0
145
0.0
146
1.0
147
0.09
 71
           0
 72
           0
 73
           1
 74
           1
 75
           0
 76
           0
 77
           0
 78
           0
170
           0
171
           2
172
           0
173
           0
174
           0
175
           0
176
           0
177
           0
178
           0
270
           2
271
           4
272
           4
273
           2
274
           2
340
17
275
           0
280
           0
281
           0
282
           0
283
           1
284
           0
285
           0
286
           0
287
           0
288
           0
  0
ENDTAB
  0
TABLE
  2
BLOCK_RECORD
  5
1
100
AcDbSymbolTable
 70
           3
  0
BLOCK_RECORD
  5
A
100
AcDbSymbolTableRecord
100
AcDbBlockTableRecord
  2
*MODEL_SPACE
  0
BLOCK_RECORD
  5
B
100
AcDbSymbolTableRecord
100
AcDbBlockTableRecord
  2
*PAPER_SPACE
  0
BLOCK_RECORD
  5
23
100
AcDbSymbolTableRecord
100
AcDbBlockTableRecord
  2
ELIPPSE
  0
BLOCK_RECORD
  5
24
100
AcDbSymbolTableRecord
100
AcDbBlockTableRecord
  2
MAK1
  0
BLOCK_RECORD
  5
25
100
AcDbSymbolTableRecord
100
AcDbBlockTableRecord
  2
MAK2
  0
ENDTAB
  0
ENDSEC
  0
SECTION
  2
BLOCKS
  0
BLOCK
  5
D
100
AcDbEntity
  8
0
100
AcDbBlockBegin
  2
*MODEL_SPACE
 70
           0
 10
0.0
 20
0.0
 30
0.0
  3
*MODEL_SPACE
  1

  0
ENDBLK
  5
E
100
AcDbEntity
  8
0
100
AcDbBlockEnd
  0
BLOCK
  5
F
100
AcDbEntity
 67
           1
  8
0
100
AcDbBlockBegin
  2
*PAPER_SPACE
 70
           0
 10
0.0
 20
0.0
 30
0.0
  3
*PAPER_SPACE
  1

  0
ENDBLK
  5
10
100
AcDbEntity
 67
           1
  8
0
100
AcDbBlockEnd
  0
BLOCK
  5
34F
100
AcDbEntity
  8
0
100
AcDbBlockBegin
  2
ELIPPSE
 70
          64
 10
0.0
 20
0.0
 30
0.0
  3
ELIPPSE
  1

  0
CIRCLE
  5
350
100
AcDbEntity
  8
0
  6
BYBLOCK
 62
           0
100
AcDbCircle
 10
0.0
 20
0.0
 30
0.0
 40
1.0
  0
ENDBLK
  5
351
100
AcDbEntity
  8
0
  6
BYBLOCK
 62
           0
100
AcDbBlockEnd
  0
BLOCK
  5
352
100
AcDbEntity
  8
0
100
AcDbBlockBegin
  2
MAK1
 70
          64
 10
0.0
 20
0.0
 30
0.0
  3
MAK1
  1

  0
LINE
  5
353
100
AcDbEntity
  8
Frei
  6
CONTINUOUS
 62
           2
100
AcDbLine
 10
191.903508353415
 20
615.10691689356
 30
0.0
 11
192.293358480832
 21
615.496767020977
 31
0.0
  0
LINE
  5
354
100
AcDbEntity
  8
Frei
  6
CONTINUOUS
 62
           2
100
AcDbLine
 10
191.903508353413
 20
614.046256721781
 30
0.0
 11
193.354018652612
 21
615.496767020979
 31
0.0
  0
LINE
  5
355
100
AcDbEntity
  8
Frei
  6
CONTINUOUS
 62
           2
100
AcDbLine
 10
191.903508353413
 20
612.985596550001
 30
0.0
 11
193.903508353416
 21
614.98559655
 31
0.0
  0
LINE
  5
356
100
AcDbEntity
  8
Frei
  6
CONTINUOUS
 62
           2
100
AcDbLine
 10
191.903508353409
 20
611.924936378218
 30
0.0
 11
193.903508353415
 21
613.924936378218
 31
0.0
  0
LINE
  5
357
100
AcDbEntity
  8
Frei
  6
CONTINUOUS
 62
           2
100
AcDbLine
 10
191.903508353413
 20
610.864276206442
 30
0.0
 11
193.903508353413
 21
612.864276206439
 31
0.0
  0
LINE
  5
358
100
AcDbEntity
  8
Frei
  6
CONTINUOUS
 62
           2
100
AcDbLine
 10
191.903508353415
 20
609.80361603466
 30
0.0
 11
193.903508353411
 21
611.803616034659
 31
0.0
  0
LINE
  5
359
100
AcDbEntity
  8
Frei
  6
CONTINUOUS
 62
           2
100
AcDbLine
 10
191.903508353415
 20
608.74295586288
 30
0.0
 11
193.903508353415
 21
610.74295586288
 31
0.0
  0
LINE
  5
35A
100
AcDbEntity
  8
Frei
  6
CONTINUOUS
 62
           2
100
AcDbLine
 10
191.903508353411
 20
607.6822956911
 30
0.0
 11
193.903508353411
 21
609.682295691101
 31
0.0
  0
LINE
  5
35B
100
AcDbEntity
  8
Frei
  6
CONTINUOUS
 62
           2
100
AcDbLine
 10
191.903508353415
 20
606.621635519321
 30
0.0
 11
193.903508353415
 21
608.621635519321
 31
0.0
  0
LINE
  5
35C
100
AcDbEntity
  8
Frei
  6
CONTINUOUS
 62
           2
100
AcDbLine
 10
191.903508353413
 20
605.560975347542
 30
0.0
 11
193.903508353411
 21
607.560975347541
 31
0.0
  0
LINE
  5
35D
100
AcDbEntity
  8
Frei
  6
CONTINUOUS
 62
           2
100
AcDbLine
 10
191.903508353413
 20
604.500315175762
 30
0.0
 11
193.903508353413
 21
606.500315175763
 31
0.0
  0
LINE
  5
35E
100
AcDbEntity
  8
Frei
  6
CONTINUOUS
 62
           2
100
AcDbLine
 10
191.903508353413
 20
603.439655003983
 30
0.0
 11
193.903508353411
 21
605.439655003983
 31
0.0
  0
LINE
  5
35F
100
AcDbEntity
  8
Frei
  6
CONTINUOUS
 62
           2
100
AcDbLine
 10
191.903508353413
 20
602.378994832203
 30
0.0
 11
193.903508353413
 21
604.378994832203
 31
0.0
  0
LINE
  5
360
100
AcDbEntity
  8
Frei
  6
CONTINUOUS
 62
           2
100
AcDbLine
 10
191.903508353415
 20
601.318334660424
 30
0.0
 11
193.903508353413
 21
603.31833466042
 31
0.0
  0
LINE
  5
361
100
AcDbEntity
  8
Frei
  6
CONTINUOUS
 62
           2
100
AcDbLine
 10
191.903508353409
 20
600.257674488644
 30
0.0
 11
193.903508353413
 21
602.257674488645
 31
0.0
  0
LINE
  5
362
100
AcDbEntity
  8
Frei
  6
CONTINUOUS
 62
           2
100
AcDbLine
 10
191.903508353413
 20
599.197014316861
 30
0.0
 11
193.903508353413
 21
601.197014316863
 31
0.0
  0
LINE
  5
363
100
AcDbEntity
  8
Frei
  6
CONTINUOUS
 62
           2
100
AcDbLine
 10
191.903508353415
 20
598.136354145081
 30
0.0
 11
193.903508353411
 21
600.136354145081
 31
0.0
  0
LINE
  5
364
100
AcDbEntity
  8
Frei
  6
CONTINUOUS
 62
           2
100
AcDbLine
 10
191.903508353415
 20
597.075693973305
 30
0.0
 11
193.903508353415
 21
599.075693973302
 31
0.0
  0
LINE
  5
365
100
AcDbEntity
  8
Frei
  6
CONTINUOUS
 62
           2
100
AcDbLine
 10
191.903508353411
 20
596.015033801523
 30
0.0
 11
193.903508353411
 21
598.015033801523
 31
0.0
  0
LINE
  5
366
100
AcDbEntity
  8
Frei
  6
CONTINUOUS
 62
           2
100
AcDbLine
 10
192.445901744646
 20
595.496767020979
 30
0.0
 11
193.903508353415
 21
596.954373629744
 31
0.0
  0
LINE
  5
367
100
AcDbEntity
  8
Frei
  6
CONTINUOUS
 62
           2
100
AcDbLine
 10
193.506561916425
 20
595.496767020977
 30
0.0
 11
193.903508353413
 21
595.893713457964
 31
0.0
  0
LINE
  5
368
100
AcDbEntity
  8
Frei
  6
CONTINUOUS
 62
           2
100
AcDbLine
 10
192.573740611429
 20
595.496767020979
 30
0.0
 11
191.903508353413
 21
596.166999278998
 31
0.0
  0
LINE
  5
369
100
AcDbEntity
  8
Frei
  6
CONTINUOUS
 62
           2
100
AcDbLine
 10
193.634400783209
 20
595.496767020979
 30
0.0
 11
191.903508353413
 21
597.227659450778
 31
0.0
  0
LINE
  5
36A
100
AcDbEntity
  8
Frei
  6
CONTINUOUS
 62
           2
100
AcDbLine
 10
193.903508353411
 20
596.288319622558
 30
0.0
 11
191.903508353413
 21
598.288319622556
 31
0.0
  0
LINE
  5
36B
100
AcDbEntity
  8
Frei
  6
CONTINUOUS
 62
           2
100
AcDbLine
 10
193.903508353413
 20
597.348979794335
 30
0.0
 11
191.903508353413
 21
599.348979794335
 31
0.0
  0
LINE
  5
36C
100
AcDbEntity
  8
Frei
  6
CONTINUOUS
 62
           2
100
AcDbLine
 10
193.903508353409
 20
598.409639966117
 30
0.0
 11
191.903508353415
 21
600.409639966117
 31
0.0
  0
LINE
  5
36D
100
AcDbEntity
  8
Frei
  6
CONTINUOUS
 62
           2
100
AcDbLine
 10
193.903508353413
 20
599.470300137897
 30
0.0
 11
191.903508353411
 21
601.470300137895
 31
0.0
  0
LINE
  5
36E
100
AcDbEntity
  8
Frei
  6
CONTINUOUS
 62
           2
100
AcDbLine
 10
193.903508353409
 20
600.530960309675
 30
0.0
 11
191.903508353415
 21
602.530960309676
 31
0.0
  0
LINE
  5
36F
100
AcDbEntity
  8
Frei
  6
CONTINUOUS
 62
           2
100
AcDbLine
 10
193.903508353415
 20
601.591620481455
 30
0.0
 11
191.903508353415
 21
603.591620481455
 31
0.0
  0
LINE
  5
370
100
AcDbEntity
  8
Frei
  6
CONTINUOUS
 62
           2
100
AcDbLine
 10
193.903508353413
 20
602.652280653235
 30
0.0
 11
191.903508353413
 21
604.652280653235
 31
0.0
  0
LINE
  5
371
100
AcDbEntity
  8
Frei
  6
CONTINUOUS
 62
           2
100
AcDbLine
 10
193.903508353411
 20
603.712940825016
 30
0.0
 11
191.903508353413
 21
605.712940825015
 31
0.0
  0
LINE
  5
372
100
AcDbEntity
  8
Frei
  6
CONTINUOUS
 62
           2
100
AcDbLine
 10
193.903508353411
 20
604.773600996793
 30
0.0
 11
191.903508353413
 21
606.773600996794
 31
0.0
  0
LINE
  5
373
100
AcDbEntity
  8
Frei
  6
CONTINUOUS
 62
           2
100
AcDbLine
 10
193.903508353413
 20
605.834261168575
 30
0.0
 11
191.903508353413
 21
607.834261168573
 31
0.0
  0
LINE
  5
374
100
AcDbEntity
  8
Frei
  6
CONTINUOUS
 62
           2
100
AcDbLine
 10
193.903508353415
 20
606.894921340352
 30
0.0
 11
191.903508353415
 21
608.894921340353
 31
0.0
  0
LINE
  5
375
100
AcDbEntity
  8
Frei
  6
CONTINUOUS
 62
           2
100
AcDbLine
 10
193.903508353413
 20
607.955581512136
 30
0.0
 11
191.903508353413
 21
609.955581512132
 31
0.0
  0
LINE
  5
376
100
AcDbEntity
  8
Frei
  6
CONTINUOUS
 62
           2
100
AcDbLine
 10
193.903508353413
 20
609.016241683913
 30
0.0
 11
191.903508353411
 21
611.016241683912
 31
0.0
  0
LINE
  5
377
100
AcDbEntity
  8
Frei
  6
CONTINUOUS
 62
           2
100
AcDbLine
 10
193.903508353416
 20
610.076901855694
 30
0.0
 11
191.903508353411
 21
612.076901855692
 31
0.0
  0
LINE
  5
378
100
AcDbEntity
  8
Frei
  6
CONTINUOUS
 62
           2
100
AcDbLine
 10
193.903508353413
 20
611.137562027474
 30
0.0
 11
191.903508353411
 21
613.137562027472
 31
0.0
  0
LINE
  5
379
100
AcDbEntity
  8
Frei
  6
CONTINUOUS
 62
           2
100
AcDbLine
 10
193.903508353415
 20
612.198222199254
 30
0.0
 11
191.903508353415
 21
614.198222199254
 31
0.0
  0
LINE
  5
37A
100
AcDbEntity
  8
Frei
  6
CONTINUOUS
 62
           2
100
AcDbLine
 10
193.903508353411
 20
613.25888237103
 30
0.0
 11
191.903508353411
 21
615.258882371033
 31
0.0
  0
LINE
  5
37B
100
AcDbEntity
  8
Frei
  6
CONTINUOUS
 62
           2
100
AcDbLine
 10
193.903508353415
 20
614.319542542812
 30
0.0
 11
192.726283875249
 21
615.496767020979
 31
0.0
  0
LINE
  5
37C
100
AcDbEntity
  8
Frei
  6
CONTINUOUS
 62
           2
100
AcDbLine
 10
193.903508353415
 20
615.380202714592
 30
0.0
 11
193.786944047029
 21
615.496767020979
 31
0.0
  0
ENDBLK
  5
37D
100
AcDbEntity
  8
0
  6
BYBLOCK
 62
           0
100
AcDbBlockEnd
  0
BLOCK
  5
37E
100
AcDbEntity
  8
0
100
AcDbBlockBegin
  2
MAK2
 70
          64
 10
0.0
 20
0.0
 30
0.0
  3
MAK2
  1

  0
LINE
  5
37F
100
AcDbEntity
  8
Frei
  6
CONTINUOUS
 62
           2
100
AcDbLine
 10
-32.096491646591
 20
614.9062131391
 30
0.0
 11
-31.505937764712
 21
615.496767020978
 31
0.0
  0
LINE
  5
380
100
AcDbEntity
  8
Frei
  6
CONTINUOUS
 62
           2
100
AcDbLine
 10
-32.096491646587
 20
613.845552967322
 30
0.0
 11
-30.445277592929
 21
615.496767020979
 31
0.0
  0
LINE
  5
381
100
AcDbEntity
  8
Frei
  6
CONTINUOUS
 62
           2
100
AcDbLine
 10
-32.096491646589
 20
612.784892795542
 30
0.0
 11
-30.096491646589
 21
614.784892795542
 31
0.0
  0
LINE
  5
382
100
AcDbEntity
  8
Frei
  6
CONTINUOUS
 62
           2
100
AcDbLine
 10
-32.096491646587
 20
611.724232623763
 30
0.0
 11
-30.096491646591
 21
613.724232623763
 31
0.0
  0
LINE
  5
383
100
AcDbEntity
  8
Frei
  6
CONTINUOUS
 62
           2
100
AcDbLine
 10
-32.096491646589
 20
610.663572451983
 30
0.0
 11
-30.096491646589
 21
612.663572451983
 31
0.0
  0
LINE
  5
384
100
AcDbEntity
  8
Frei
  6
CONTINUOUS
 62
           2
100
AcDbLine
 10
-32.096491646585
 20
609.602912280204
 30
0.0
 11
-30.096491646589
 21
611.602912280203
 31
0.0
  0
LINE
  5
385
100
AcDbEntity
  8
Frei
  6
CONTINUOUS
 62
           2
100
AcDbLine
 10
-32.096491646589
 20
608.542252108424
 30
0.0
 11
-30.096491646587
 21
610.542252108425
 31
0.0
  0
LINE
  5
386
100
AcDbEntity
  8
Frei
  6
CONTINUOUS
 62
           2
100
AcDbLine
 10
-32.096491646589
 20
607.481591936643
 30
0.0
 11
-30.096491646589
 21
609.481591936645
 31
0.0
  0
LINE
  5
387
100
AcDbEntity
  8
Frei
  6
CONTINUOUS
 62
           2
100
AcDbLine
 10
-32.096491646587
 20
606.420931764865
 30
0.0
 11
-30.096491646591
 21
608.420931764866
 31
0.0
  0
LINE
  5
388
100
AcDbEntity
  8
Frei
  6
CONTINUOUS
 62
           2
100
AcDbLine
 10
-32.096491646587
 20
605.360271593083
 30
0.0
 11
-30.096491646591
 21
607.360271593084
 31
0.0
  0
LINE
  5
389
100
AcDbEntity
  8
Frei
  6
CONTINUOUS
 62
           2
100
AcDbLine
 10
-32.096491646591
 20
604.299611421303
 30
0.0
 11
-30.096491646591
 21
606.299611421305
 31
0.0
  0
LINE
  5
38A
100
AcDbEntity
  8
Frei
  6
CONTINUOUS
 62
           2
100
AcDbLine
 10
-32.096491646591
 20
603.238951249523
 30
0.0
 11
-30.096491646591
 21
605.238951249525
 31
0.0
  0
LINE
  5
38B
100
AcDbEntity
  8
Frei
  6
CONTINUOUS
 62
           2
100
AcDbLine
 10
-32.096491646589
 20
602.178291077744
 30
0.0
 11
-30.096491646589
 21
604.178291077744
 31
0.0
  0
LINE
  5
38C
100
AcDbEntity
  8
Frei
  6
CONTINUOUS
 62
           2
100
AcDbLine
 10
-32.096491646585
 20
601.117630905964
 30
0.0
 11
-30.096491646589
 21
603.117630905964
 31
0.0
  0
LINE
  5
38D
100
AcDbEntity
  8
Frei
  6
CONTINUOUS
 62
           2
100
AcDbLine
 10
-32.096491646589
 20
600.056970734185
 30
0.0
 11
-30.096491646593
 21
602.056970734185
 31
0.0
  0
LINE
  5
38E
100
AcDbEntity
  8
Frei
  6
CONTINUOUS
 62
           2
100
AcDbLine
 10
-32.096491646589
 20
598.996310562405
 30
0.0
 11
-30.096491646593
 21
600.996310562406
 31
0.0
  0
LINE
  5
38F
100
AcDbEntity
  8
Frei
  6
CONTINUOUS
 62
           2
100
AcDbLine
 10
-32.096491646587
 20
597.935650390626
 30
0.0
 11
-30.096491646589
 21
599.935650390626
 31
0.0
  0
LINE
  5
390
100
AcDbEntity
  8
Frei
  6
CONTINUOUS
 62
           2
100
AcDbLine
 10
-32.096491646589
 20
596.874990218846
 30
0.0
 11
-30.096491646587
 21
598.874990218847
 31
0.0
  0
LINE
  5
391
100
AcDbEntity
  8
Frei
  6
CONTINUOUS
 62
           2
100
AcDbLine
 10
-32.096491646587
 20
595.814330047067
 30
0.0
 11
-30.096491646589
 21
597.814330047067
 31
0.0
  0
LINE
  5
392
100
AcDbEntity
  8
Frei
  6
CONTINUOUS
 62
           2
100
AcDbLine
 10
-31.353394500895
 20
595.496767020979
 30
0.0
 11
-30.096491646591
 21
596.753669875286
 31
0.0
  0
LINE
  5
393
100
AcDbEntity
  8
Frei
  6
CONTINUOUS
 62
           2
100
AcDbLine
 10
-30.292734329116
 20
595.496767020979
 30
0.0
 11
-30.096491646591
 21
595.693009703504
 31
0.0
  0
LINE
  5
394
100
AcDbEntity
  8
Frei
  6
CONTINUOUS
 62
           2
100
AcDbLine
 10
-31.22555563411
 20
595.496767020979
 30
0.0
 11
-32.096491646587
 21
596.367703033456
 31
0.0
  0
LINE
  5
395
100
AcDbEntity
  8
Frei
  6
CONTINUOUS
 62
           2
100
AcDbLine
 10
-30.164895462331
 20
595.496767020978
 30
0.0
 11
-32.096491646589
 21
597.428363205235
 31
0.0
  0
LINE
  5
396
100
AcDbEntity
  8
Frei
  6
CONTINUOUS
 62
           2
100
AcDbLine
 10
-30.096491646587
 20
596.489023377015
 30
0.0
 11
-32.096491646589
 21
598.489023377015
 31
0.0
  0
LINE
  5
397
100
AcDbEntity
  8
Frei
  6
CONTINUOUS
 62
           2
100
AcDbLine
 10
-30.096491646591
 20
597.549683548794
 30
0.0
 11
-32.096491646585
 21
599.549683548797
 31
0.0
  0
LINE
  5
398
100
AcDbEntity
  8
Frei
  6
CONTINUOUS
 62
           2
100
AcDbLine
 10
-30.096491646589
 20
598.610343720575
 30
0.0
 11
-32.096491646589
 21
600.610343720573
 31
0.0
  0
LINE
  5
399
100
AcDbEntity
  8
Frei
  6
CONTINUOUS
 62
           2
100
AcDbLine
 10
-30.096491646587
 20
599.671003892355
 30
0.0
 11
-32.096491646585
 21
601.671003892356
 31
0.0
  0
LINE
  5
39A
100
AcDbEntity
  8
Frei
  6
CONTINUOUS
 62
           2
100
AcDbLine
 10
-30.096491646589
 20
600.731664064135
 30
0.0
 11
-32.096491646587
 21
602.731664064133
 31
0.0
  0
LINE
  5
39B
100
AcDbEntity
  8
Frei
  6
CONTINUOUS
 62
           2
100
AcDbLine
 10
-30.096491646589
 20
601.792324235913
 30
0.0
 11
-32.096491646589
 21
603.792324235914
 31
0.0
  0
LINE
  5
39C
100
AcDbEntity
  8
Frei
  6
CONTINUOUS
 62
           2
100
AcDbLine
 10
-30.096491646591
 20
602.852984407693
 30
0.0
 11
-32.096491646591
 21
604.852984407693
 31
0.0
  0
LINE
  5
39D
100
AcDbEntity
  8
Frei
  6
CONTINUOUS
 62
           2
100
AcDbLine
 10
-30.096491646589
 20
603.913644579472
 30
0.0
 11
-32.096491646587
 21
605.913644579473
 31
0.0
  0
LINE
  5
39E
100
AcDbEntity
  8
Frei
  6
CONTINUOUS
 62
           2
100
AcDbLine
 10
-30.096491646591
 20
604.974304751252
 30
0.0
 11
-32.096491646584
 21
606.974304751253
 31
0.0
  0
LINE
  5
39F
100
AcDbEntity
  8
Frei
  6
CONTINUOUS
 62
           2
100
AcDbLine
 10
-30.096491646591
 20
606.034964923031
 30
0.0
 11
-32.096491646587
 21
608.034964923032
 31
0.0
  0
LINE
  5
3A0
100
AcDbEntity
  8
Frei
  6
CONTINUOUS
 62
           2
100
AcDbLine
 10
-30.096491646589
 20
607.095625094811
 30
0.0
 11
-32.096491646589
 21
609.095625094811
 31
0.0
  0
LINE
  5
3A1
100
AcDbEntity
  8
Frei
  6
CONTINUOUS
 62
           2
100
AcDbLine
 10
-30.096491646587
 20
608.156285266594
 30
0.0
 11
-32.096491646589
 21
610.15628526659
 31
0.0
  0
LINE
  5
3A2
100
AcDbEntity
  8
Frei
  6
CONTINUOUS
 62
           2
100
AcDbLine
 10
-30.096491646589
 20
609.21694543837
 30
0.0
 11
-32.096491646585
 21
611.21694543837
 31
0.0
  0
LINE
  5
3A3
100
AcDbEntity
  8
Frei
  6
CONTINUOUS
 62
           2
100
AcDbLine
 10
-30.096491646593
 20
610.277605610148
 30
0.0
 11
-32.096491646589
 21
612.277605610152
 31
0.0
  0
LINE
  5
3A4
100
AcDbEntity
  8
Frei
  6
CONTINUOUS
 62
           2
100
AcDbLine
 10
-30.096491646591
 20
611.338265781932
 30
0.0
 11
-32.096491646587
 21
613.338265781933
 31
0.0
  0
LINE
  5
3A5
100
AcDbEntity
  8
Frei
  6
CONTINUOUS
 62
           2
100
AcDbLine
 10
-30.096491646585
 20
612.398925953712
 30
0.0
 11
-32.096491646591
 21
614.39892595371
 31
0.0
  0
LINE
  5
3A6
100
AcDbEntity
  8
Frei
  6
CONTINUOUS
 62
           2
100
AcDbLine
 10
-30.096491646589
 20
613.459586125492
 30
0.0
 11
-32.096491646587
 21
615.459586125488
 31
0.0
  0
LINE
  5
3A7
100
AcDbEntity
  8
Frei
  6
CONTINUOUS
 62
           2
100
AcDbLine
 10
-30.096491646587
 20
614.52024629727
 30
0.0
 11
-31.073012370296
 21
615.496767020978
 31
0.0
  0
ENDBLK
  5
3A8
100
AcDbEntity
  8
0
  6
BYBLOCK
 62
           0
100
AcDbBlockEnd
  0
ENDSEC
  0
SECTION
  2
ENTITIES
  0
INSERT
  5
26
100
AcDbEntity
  8
FREI
  6
CONTINUOUS
 62
           7
100
AcDbBlockReference
  2
MAK1
 10
-14088.065050193884
 20
-6417.091534121277
 30
0.0
 50
356.087999999999
  0
INSERT
  5
27
100
AcDbEntity
  8
FREI
  6
CONTINUOUS
 62
           7
100
AcDbBlockReference
  2
MAK2
 10
-14088.065050193884
 20
-6417.091534121277
 30
0.0
 50
356.087999999999
  0
LINE
  5
28
100
AcDbEntity
  8
FREI
  6
CONTINUOUS
 62
          15
100
AcDbLine
 10
-14177.467382892013
 20
-5888.850036635975
 30
0.0
 11
-14250.453865960404
 21
-5919.082027792818
 31
0.0
  0
LINE
  5
29
100
AcDbEntity
  8
FREI
  6
CONTINUOUS
 62
          15
100
AcDbLine
 10
-14306.463962545222
 20
-5783.86169298793
 30
0.0
 11
-14313.596632300643
 21
-5766.641904928454
 31
0.0
  0
LINE
  5
2A
100
AcDbEntity
  8
FREI
  6
CONTINUOUS
 62
          15
100
AcDbLine
 10
-14250.453865960404
 20
-5919.082027792818
 30
0.0
 11
-14263.709470633672
 21
-5887.080167213162
 31
0.0
  0
LINE
  5
2B
100
AcDbEntity
  8
FREI
  6
CONTINUOUS
 62
          15
100
AcDbLine
 10
-14313.596632300643
 20
-5766.641904928454
 30
0.0
 11
-14240.610149232252
 21
-5736.409913771613
 31
0.0
  0
LINE
  5
2C
100
AcDbEntity
  8
FREI
  6
CONTINUOUS
 62
          15
100
AcDbLine
 10
-14192.890149260658
 20
-5851.61618489948
 30
0.0
 11
-14177.467382892013
 21
-5888.850036635975
 31
0.0
  0
LINE
  5
2D
100
AcDbEntity
  8
FREI
  6
GESTRICHELT
 62
          15
100
AcDbLine
 10
-14221.885098626775
 20
-5781.61618489948
 30
0.0
 11
-14192.890149260658
 21
-5851.61618489948
 31
0.0
  0
LINE
  5
2E
100
AcDbEntity
  8
FREI
  6
CONTINUOUS
 62
          15
100
AcDbLine
 10
-14240.610149232252
 20
-5736.409913771613
 30
0.0
 11
-14221.885098626775
 21
-5781.61618489948
 31
0.0
  0
LINE
  5
2F
100
AcDbEntity
  8
FREI
  6
STRICHPUNKT
 62
          15
100
AcDbLine
 10
-14213.96062442621
 20
-5903.966032214396
 30
0.0
 11
-14277.10339076645
 21
-5751.525909350034
 31
0.0
  0
LINE
  5
30
100
AcDbEntity
  8
FREI
  6
STRICHPUNKT
 62
          15
100
AcDbLine
 10
-14263.709470633672
 20
-5783.86169298793
 30
0.0
 11
-14313.458316841134
 21
-5903.966032214397
 31
0.0
  0
LINE
  5
31
100
AcDbEntity
  8
FREI
  6
CONTINUOUS
 62
          15
100
AcDbLine
 10
-14306.463962545222
 20
-5783.86169298793
 30
0.0
 11
-14349.951558375327
 21
-5888.850036635975
 31
0.0
  0
LINE
  5
32
100
AcDbEntity
  8
FREI
  6
CONTINUOUS
 62
          15
100
AcDbLine
 10
-14263.709470633672
 20
-5887.080167213162
 30
0.0
 11
-14276.965075306936
 21
-5919.082027792818
 31
0.0
  0
LINE
  5
33
100
AcDbEntity
  8
FREI
  6
CONTINUOUS
 62
          15
100
AcDbLine
 10
-14298.709501633672
 20
-5783.86169298793
 30
0.0
 11
-14306.463962545222
 21
-5783.86169298793
 31
0.0
  0
LINE
  5
34
100
AcDbEntity
  8
FREI
  6
GESTRICHELT
 62
          15
100
AcDbLine
 10
-14220.954978722122
 20
-5783.86169298793
 30
0.0
 11
-14298.709501633672
 21
-5783.86169298793
 31
0.0
  0
LINE
  5
35
100
AcDbEntity
  8
FREI
  6
CONTINUOUS
 62
          15
100
AcDbLine
 10
-14349.951558375327
 20
-5888.850036635975
 30
0.0
 11
-14276.965075306936
 21
-5919.082027792818
 31
0.0
  0
LINE
  5
36
100
AcDbEntity
  8
FREI
  6
GESTRICHELT
 62
          15
100
AcDbLine
 10
-14263.709470633672
 20
-5819.61618489948
 30
0.0
 11
-14263.709470633672
 21
-5783.86169298793
 31
0.0
  0
LINE
  5
37
100
AcDbEntity
  8
FREI
  6
GESTRICHELT
 62
          15
100
AcDbLine
 10
-14263.709470633672
 20
-5851.61618489948
 30
0.0
 11
-14263.709470633672
 21
-5833.61618489948
 31
0.0
  0
LINE
  5
38
100
AcDbEntity
  8
FREI
  6
CONTINUOUS
 62
          15
100
AcDbLine
 10
-14263.709470633672
 20
-5887.080167213162
 30
0.0
 11
-14263.709470633672
 21
-5851.61618489948
 31
0.0
  0
CIRCLE
  5
39
100
AcDbEntity
  8
FREI
  6
CONTINUOUS
 62
          15
100
AcDbCircle
 10
-14263.709470633672
 20
-5826.61618489948
 30
0.0
 40
7.0
  0
CIRCLE
  5
3A
100
AcDbEntity
  8
Frei
  6
CONTINUOUS
 62
           7
100
AcDbCircle
 10
-13800.820554633672
 20
-5826.61618489948
 30
0.0
 40
6.25
  0
CIRCLE
  5
3B
100
AcDbEntity
  8
FREI
  6
CONTINUOUS
 62
          15
100
AcDbCircle
 10
-14198.114023825368
 20
-5799.445661201558
 30
0.0
 40
6.25
  0
ARC
  5
3C
100
AcDbEntity
  8
FREI
  6
CONTINUOUS
 62
          15
100
AcDbCircle
 10
-14263.709470633672
 20
-5826.61618489948
 30
0.0
 40
17.25
100
AcDbArc
 50
111.69299050693
 51
293.307009493072
  0
LINE
  5
3D
100
AcDbEntity
  8
FREI
  6
CONTINUOUS
 62
          15
100
AcDbLine
 10
-14204.120561466465
 20
-5784.346521968933
 30
0.0
 11
-14270.085641360365
 21
-5810.587867867924
 31
0.0
  0
LINE
  5
3E
100
AcDbEntity
  8
FREI
  6
CONTINUOUS
 62
          15
100
AcDbLine
 10
-14252.561112395702
 20
-5840.596033122807
 30
0.0
 11
-14256.884372528501
 21
-5842.45855012235
 31
0.0
  0
ARC
  5
3F
100
AcDbEntity
  8
FREI
  6
CONTINUOUS
 62
          15
100
AcDbCircle
 10
-14198.114023825368
 20
-5799.445661201558
 30
0.0
 40
16.25
100
AcDbArc
 50
43.67717964189
 51
111.692990506929
  0
ARC
  5
40
100
AcDbEntity
  8
FREI
  6
GESTRICHELT
 62
          15
100
AcDbCircle
 10
-14198.114023825368
 20
-5799.445661201558
 30
0.0
 40
16.25
100
AcDbArc
 50
308.476123909225
 51
43.67717964189
  0
ARC
  5
41
100
AcDbEntity
  8
FREI
  6
CONTINUOUS
 62
          15
100
AcDbCircle
 10
-14198.114023825368
 20
-5799.445661201558
 30
0.0
 40
16.25
100
AcDbArc
 50
223.699876090772
 51
308.476123909225
  0
ARC
  5
42
100
AcDbEntity
  8
FREI
  6
GESTRICHELT
 62
          15
100
AcDbCircle
 10
-14198.114023825368
 20
-5799.445661201558
 30
0.0
 40
16.25
100
AcDbArc
 50
216.333269103465
 51
223.699876090772
  0
ARC
  5
43
100
AcDbEntity
  8
FREI
  6
CONTINUOUS
 62
          15
100
AcDbCircle
 10
-14198.114023825368
 20
-5799.445661201558
 30
0.0
 40
16.25
100
AcDbArc
 50
210.049825852107
 51
216.333269103465
  0
LINE
  5
44
100
AcDbEntity
  8
FREI
  6
CONTINUOUS
 62
          15
100
AcDbLine
 10
-14220.186996337856
 20
-5806.700861334577
 30
0.0
 11
-14249.159332193423
 21
-5838.183652471607
 31
0.0
  0
ARC
  5
45
100
AcDbEntity
  8
FREI
  6
CONTINUOUS
 62
          15
100
AcDbCircle
 10
-14216.507816930873
 20
-5810.086660928651
 30
0.0
 40
5.0
100
AcDbArc
 50
30.049825852111
 51
137.377894256055
  0
ARC
  5
46
100
AcDbEntity
  8
FREI
  6
CONTINUOUS
 62
          15
100
AcDbCircle
 10
-14256.517691007393
 20
-5831.412053283462
 30
0.0
 40
10.0
100
AcDbArc
 50
293.30700949307
 51
317.377894256059
  0
LINE
  5
47
100
AcDbEntity
  8
Frei
  6
GESTRICHELT
 62
           7
100
AcDbLine
 10
-13818.379522295894
 20
-5825.415079256081
 30
0.0
 11
-13817.185598031516
 21
-5807.955854048447
 31
0.0
  0
LINE
  5
48
100
AcDbEntity
  8
Frei
  6
GESTRICHELT
 62
           7
100
AcDbLine
 10
-13817.185598031516
 20
-5807.955854048447
 30
0.0
 11
-13821.176278078976
 21
-5807.682957073734
 31
0.0
  0
LINE
  5
49
100
AcDbEntity
  8
Frei
  6
CONTINUOUS
 62
           7
100
AcDbLine
 10
-13821.176278078976
 20
-5807.682957073734
 30
0.0
 11
-13820.528147764027
 21
-5798.205091961016
 31
0.0
  0
LINE
  5
4A
100
AcDbEntity
  8
Frei
  6
CONTINUOUS
 62
           7
100
AcDbLine
 10
-13820.528147764027
 20
-5798.205091961016
 30
0.0
 11
-13850.05918011523
 21
-5796.185654348126
 31
0.0
  0
LINE
  5
4B
100
AcDbEntity
  8
Frei
  6
CONTINUOUS
 62
           7
100
AcDbLine
 10
-13850.05918011523
 20
-5796.185654348126
 30
0.0
 11
-13850.093292237067
 21
-5796.68448935406
 31
0.0
  0
LINE
  5
4C
100
AcDbEntity
  8
Frei
  6
CONTINUOUS
 62
           7
100
AcDbLine
 10
-13850.093292237067
 20
-5796.68448935406
 30
0.0
 11
-14077.935161838646
 21
-5781.10420804452
 31
0.0
  0
LINE
  5
4D
100
AcDbEntity
  8
Frei
  6
CONTINUOUS
 62
           7
100
AcDbLine
 10
-14077.935161838646
 20
-5781.10420804452
 30
0.0
 11
-14077.901049716809
 21
-5780.60537303859
 31
0.0
  0
LINE
  5
4E
100
AcDbEntity
  8
Frei
  6
CONTINUOUS
 62
           7
100
AcDbLine
 10
-14077.901049716809
 20
-5780.60537303859
 30
0.0
 11
-14107.432082068008
 21
-5778.585935425703
 31
0.0
  0
LINE
  5
4F
100
AcDbEntity
  8
Frei
  6
CONTINUOUS
 62
           7
100
AcDbLine
 10
-14107.432082068008
 20
-5778.585935425703
 30
0.0
 11
-14108.080212382953
 21
-5788.063800538417
 31
0.0
  0
LINE
  5
50
100
AcDbEntity
  8
Frei
  6
CONTINUOUS
 62
           7
100
AcDbLine
 10
-14108.080212382953
 20
-5788.063800538417
 30
0.0
 11
-14118.555747507537
 21
-5787.347445979789
 31
0.0
  0
LINE
  5
51
100
AcDbEntity
  8
Frei
  6
CONTINUOUS
 62
           7
100
AcDbLine
 10
-14118.555747507537
 20
-5787.347445979789
 30
0.0
 11
-14118.589859629374
 21
-5787.846280985723
 31
0.0
  0
LINE
  5
52
100
AcDbEntity
  8
Frei
  6
CONTINUOUS
 62
           7
100
AcDbLine
 10
-14118.589859629374
 20
-5787.846280985723
 30
0.0
 11
-14129.56422975989
 21
-5787.095814305258
 31
0.0
  0
LINE
  5
53
100
AcDbEntity
  8
Frei
  6
CONTINUOUS
 62
           7
100
AcDbLine
 10
-14129.56422975989
 20
-5787.095814305258
 30
0.0
 11
-14131.883854044965
 21
-5821.016594708663
 31
0.0
  0
LINE
  5
54
100
AcDbEntity
  8
Frei
  6
CONTINUOUS
 62
           7
100
AcDbLine
 10
-14131.883854044965
 20
-5821.016594708663
 30
0.0
 11
-14120.909483914449
 21
-5821.767061389126
 31
0.0
  0
LINE
  5
55
100
AcDbEntity
  8
Frei
  6
CONTINUOUS
 62
           7
100
AcDbLine
 10
-14120.909483914449
 20
-5821.767061389126
 30
0.0
 11
-14120.943596036286
 21
-5822.265896395062
 31
0.0
  0
LINE
  5
56
100
AcDbEntity
  8
Frei
  6
CONTINUOUS
 62
           7
100
AcDbLine
 10
-14120.943596036286
 20
-5822.265896395062
 30
0.0
 11
-14110.468060911709
 21
-5822.982250953688
 31
0.0
  0
LINE
  5
57
100
AcDbEntity
  8
Frei
  6
CONTINUOUS
 62
           7
100
AcDbLine
 10
-14110.468060911709
 20
-5822.982250953688
 30
0.0
 11
-14111.116191226658
 21
-5832.460116066404
 31
0.0
  0
LINE
  5
58
100
AcDbEntity
  8
Frei
  6
CONTINUOUS
 62
           7
100
AcDbLine
 10
-14111.116191226658
 20
-5832.460116066404
 30
0.0
 11
-14081.585158875456
 21
-5834.479553679294
 31
0.0
  0
LINE
  5
59
100
AcDbEntity
  8
Frei
  6
CONTINUOUS
 62
           7
100
AcDbLine
 10
-14081.585158875456
 20
-5834.479553679294
 30
0.0
 11
-14081.551046753615
 21
-5833.980718673362
 31
0.0
  0
LINE
  5
5A
100
AcDbEntity
  8
Frei
  6
CONTINUOUS
 62
           7
100
AcDbLine
 10
-13858.385233884099
 20
-5849.24124190054
 30
0.0
 11
-13853.709177152039
 21
-5849.560999982898
 31
0.0
  0
LINE
  5
5B
100
AcDbEntity
  8
Frei
  6
GESTRICHELT
 62
           7
100
AcDbLine
 10
-13886.319997225874
 20
-5847.331007087503
 30
0.0
 11
-13858.385233884099
 21
-5849.24124190054
 31
0.0
  0
LINE
  5
5C
100
AcDbEntity
  8
Frei
  6
CONTINUOUS
 62
           7
100
AcDbLine
 10
-14048.940226679784
 20
-5836.210711568756
 30
0.0
 11
-13886.319997225874
 21
-5847.331007087503
 31
0.0
  0
LINE
  5
5D
100
AcDbEntity
  8
Frei
  6
GESTRICHELT
 62
           7
100
AcDbLine
 10
-14076.874990021555
 20
-5834.30047675572
 30
0.0
 11
-14048.940226679784
 21
-5836.210711568756
 31
0.0
  0
LINE
  5
5E
100
AcDbEntity
  8
Frei
  6
CONTINUOUS
 62
           7
100
AcDbLine
 10
-14081.551046753615
 20
-5833.980718673362
 30
0.0
 11
-14076.874990021555
 21
-5834.30047675572
 31
0.0
  0
LINE
  5
5F
100
AcDbEntity
  8
Frei
  6
CONTINUOUS
 62
           7
100
AcDbLine
 10
-13853.709177152039
 20
-5849.560999982898
 30
0.0
 11
-13853.74328927388
 21
-5850.05983498883
 31
0.0
  0
LINE
  5
60
100
AcDbEntity
  8
Frei
  6
CONTINUOUS
 62
           7
100
AcDbLine
 10
-13853.74328927388
 20
-5850.05983498883
 30
0.0
 11
-13824.212256922678
 21
-5852.079272601719
 31
0.0
  0
LINE
  5
61
100
AcDbEntity
  8
Frei
  6
CONTINUOUS
 62
           7
100
AcDbLine
 10
-13824.212256922678
 20
-5852.079272601719
 30
0.0
 11
-13823.564126607729
 21
-5842.601407489003
 31
0.0
  0
LINE
  5
62
100
AcDbEntity
  8
Frei
  6
GESTRICHELT
 62
           7
100
AcDbLine
 10
-13823.564126607729
 20
-5842.601407489003
 30
0.0
 11
-13819.573446560273
 21
-5842.874304463718
 31
0.0
  0
LINE
  5
63
100
AcDbEntity
  8
Frei
  6
GESTRICHELT
 62
           7
100
AcDbLine
 10
-13819.573446560273
 20
-5842.874304463718
 30
0.0
 11
-13818.379522295894
 21
-5825.415079256081
 31
0.0
  0
LINE
  5
64
100
AcDbEntity
  8
Frei
  6
CONTINUOUS
 62
           7
100
AcDbLine
 10
-13821.176278078976
 20
-5807.682957073734
 30
0.0
 11
-13823.564126607729
 21
-5842.601407489003
 31
0.0
  0
LINE
  5
65
100
AcDbEntity
  8
Frei
  6
CONTINUOUS
 62
           7
100
AcDbLine
 10
-13852.37970516962
 20
-5830.119607056344
 30
0.0
 11
-13853.709177152039
 21
-5849.560999982898
 31
0.0
  0
LINE
  5
66
100
AcDbEntity
  8
Frei
  6
GESTRICHELT
 62
           7
100
AcDbLine
 10
-13851.859423925634
 20
-5822.511329311203
 30
0.0
 11
-13852.37970516962
 21
-5830.119607056344
 31
0.0
  0
LINE
  5
67
100
AcDbEntity
  8
Frei
  6
CONTINUOUS
 62
           7
100
AcDbLine
 10
-13850.093292237067
 20
-5796.68448935406
 30
0.0
 11
-13851.859423925634
 21
-5822.511329311203
 31
0.0
  0
LINE
  5
68
100
AcDbEntity
  8
Frei
  6
CONTINUOUS
 62
           7
100
AcDbLine
 10
-14080.221550224593
 20
-5814.538966792154
 30
0.0
 11
-14081.551046753615
 21
-5833.980718673362
 31
0.0
  0
LINE
  5
69
100
AcDbEntity
  8
Frei
  6
CONTINUOUS
 62
           7
100
AcDbLine
 10
-14079.701268980607
 20
-5806.930689047011
 30
0.0
 11
-14080.221550224593
 21
-5814.538966792154
 31
0.0
  0
LINE
  5
6A
100
AcDbEntity
  8
Frei
  6
CONTINUOUS
 62
           7
100
AcDbLine
 10
-14077.935161838646
 20
-5781.10420804452
 30
0.0
 11
-14079.701268980607
 21
-5806.930689047011
 31
0.0
  0
LINE
  5
6B
100
AcDbEntity
  8
Frei
  6
CONTINUOUS
 62
           7
100
AcDbLine
 10
-14108.080212382953
 20
-5788.063800538417
 30
0.0
 11
-14110.468060911709
 21
-5822.982250953688
 31
0.0
  0
LINE
  5
6C
100
AcDbEntity
  8
Frei
  6
CONTINUOUS
 62
           7
100
AcDbLine
 10
-14118.555747507537
 20
-5787.347445979789
 30
0.0
 11
-14120.943596036286
 21
-5822.265896395062
 31
0.0
  0
LINE
  5
6D
100
AcDbEntity
  8
Frei
  6
GESTRICHELT
 62
           7
100
AcDbLine
 10
-14143.838159685842
 20
-5797.145401651016
 30
0.0
 11
-14161.973958460865
 21
-5795.905210866265
 31
0.0
  0
LINE
  5
6E
100
AcDbEntity
  8
Frei
  6
CONTINUOUS
 62
           7
100
AcDbLine
 10
-14138.794891541205
 20
-5797.490278364503
 30
0.0
 11
-14143.838159685842
 21
-5797.145401651016
 31
0.0
  0
LINE
  5
6F
100
AcDbEntity
  8
Frei
  6
GESTRICHELT
 62
           7
100
AcDbLine
 10
-14144.656850609983
 20
-5809.117441793393
 30
0.0
 11
-14162.79264938501
 21
-5807.877251008644
 31
0.0
  0
LINE
  5
70
100
AcDbEntity
  8
Frei
  6
CONTINUOUS
 62
           7
100
AcDbLine
 10
-14139.61358246535
 20
-5809.46231850688
 30
0.0
 11
-14144.656850609983
 21
-5809.117441793393
 31
0.0
  0
LINE
  5
71
100
AcDbEntity
  8
Frei
  6
GESTRICHELT
 62
           7
100
AcDbLine
 10
-14162.791285493771
 20
-5796.61789990461
 30
0.0
 11
-14161.973958460865
 21
-5795.905210866265
 31
0.0
  0
LINE
  5
72
100
AcDbEntity
  8
Frei
  6
GESTRICHELT
 62
           7
100
AcDbLine
 10
-14163.505349082297
 20
-5807.059933270193
 30
0.0
 11
-14162.79264938501
 21
-5807.877251008644
 31
0.0
  0
LINE
  5
73
100
AcDbEntity
  8
Frei
  6
GESTRICHELT
 62
           7
100
AcDbLine
 10
-14162.791285493771
 20
-5796.61789990461
 30
0.0
 11
-14163.505349082297
 21
-5807.059933270193
 31
0.0
  0
LINE
  5
74
100
AcDbEntity
  8
Frei
  6
CONTINUOUS
 62
           7
100
AcDbLine
 10
-14143.890473353647
 20
-5797.910405039411
 30
0.0
 11
-14138.847205209015
 21
-5798.2552817529
 31
0.0
  0
LINE
  5
75
100
AcDbEntity
  8
Frei
  6
GESTRICHELT
 62
           7
100
AcDbLine
 10
-14162.791285493771
 20
-5796.61789990461
 30
0.0
 11
-14143.890473353647
 21
-5797.910405039411
 31
0.0
  0
LINE
  5
76
100
AcDbEntity
  8
Frei
  6
CONTINUOUS
 62
           7
100
AcDbLine
 10
-14144.604536942174
 20
-5808.352438404994
 30
0.0
 11
-14139.561268797541
 21
-5808.697315118481
 31
0.0
  0
LINE
  5
77
100
AcDbEntity
  8
Frei
  6
GESTRICHELT
 62
           7
100
AcDbLine
 10
-14163.505349082297
 20
-5807.059933270193
 30
0.0
 11
-14144.604536942174
 21
-5808.352438404994
 31
0.0
  0
LINE
  5
78
100
AcDbEntity
  8
Frei
  6
GESTRICHELT
 62
           7
100
AcDbLine
 10
-14161.973958460865
 20
-5795.905210866265
 30
0.0
 11
-14162.79264938501
 21
-5807.877251008644
 31
0.0
  0
LINE
  5
79
100
AcDbEntity
  8
Frei
  6
CONTINUOUS
 62
           7
100
AcDbLine
 10
-14130.178247952997
 20
-5796.074844412042
 30
0.0
 11
-14138.65844305385
 21
-5795.494938340771
 31
0.0
  0
LINE
  5
7A
100
AcDbEntity
  8
Frei
  6
CONTINUOUS
 62
           7
100
AcDbLine
 10
-14138.65844305385
 20
-5795.494938340771
 30
0.0
 11
-14139.750030952709
 21
-5811.45765853061
 31
0.0
  0
LINE
  5
7B
100
AcDbEntity
  8
Frei
  6
CONTINUOUS
 62
           7
100
AcDbLine
 10
-14139.750030952709
 20
-5811.45765853061
 30
0.0
 11
-14131.269835851854
 21
-5812.037564601878
 31
0.0
  0
LINE
  5
7C
100
AcDbEntity
  8
Frei
  6
CONTINUOUS
 62
           7
100
AcDbLine
 10
-14138.886060280278
 20
-5798.823474778057
 30
0.0
 11
-14133.565156875895
 21
-5799.187337183595
 31
0.0
  0
LINE
  5
7D
100
AcDbEntity
  8
Frei
  6
CONTINUOUS
 62
           7
100
AcDbLine
 10
-14139.522413726281
 20
-5808.129122093325
 30
0.0
 11
-14134.201510321902
 21
-5808.492984498864
 31
0.0
  0
LINE
  5
7E
100
AcDbEntity
  8
Frei
  6
CONTINUOUS
 62
           7
100
AcDbLine
 10
-14133.565156875895
 20
-5799.187337183595
 30
0.0
 11
-14134.201510321902
 21
-5808.492984498864
 31
0.0
  0
LINE
  5
7F
100
AcDbEntity
  8
Frei
  6
CONTINUOUS
 62
           7
100
AcDbLine
 10
-14138.886060280278
 20
-5798.823474778057
 30
0.0
 11
-14134.201510321902
 21
-5808.492984498864
 31
0.0
  0
LINE
  5
80
100
AcDbEntity
  8
Frei
  6
CONTINUOUS
 62
           7
100
AcDbLine
 10
-14133.565156875895
 20
-5799.187337183595
 30
0.0
 11
-14139.522413726281
 21
-5808.129122093325
 31
0.0
  0
CIRCLE
  5
81
100
AcDbEntity
  8
Frei
  6
CONTINUOUS
 62
           7
100
AcDbCircle
 10
-14095.716101943293
 20
-5812.464185228742
 30
0.0
 40
5.7225
  0
ARC
  5
82
100
AcDbEntity
  8
Frei
  6
CONTINUOUS
 62
           7
100
AcDbCircle
 10
-14095.716101943293
 20
-5812.464185228742
 30
0.0
 40
6.5785
100
AcDbArc
 50
106.088
 51
16.088
  0
CIRCLE
  5
83
100
AcDbEntity
  8
Frei
  6
CONTINUOUS
 62
           7
100
AcDbCircle
 10
-13835.928237047388
 20
-5818.201022798678
 30
0.0
 40
5.7225
  0
ARC
  5
84
100
AcDbEntity
  8
Frei
  6
CONTINUOUS
 62
           7
100
AcDbCircle
 10
-13835.928237047388
 20
-5818.201022798678
 30
0.0
 40
6.57849
100
AcDbArc
 50
106.087999999994
 51
16.088000000002
  0
LINE
  5
85
100
AcDbEntity
  8
Frei
  6
CONTINUOUS
 62
           7
100
AcDbLine
 10
-14087.019684534524
 20
-5795.95312114576
 30
0.0
 11
-14094.497575684924
 21
-5802.473790760547
 31
0.0
  0
LINE
  5
86
100
AcDbEntity
  8
Frei
  6
CONTINUOUS
 62
           7
100
AcDbLine
 10
-14087.841128704447
 20
-5795.011083802709
 30
0.0
 11
-14095.31901371467
 21
-5801.531663627196
 31
0.0
  0
CIRCLE
  5
87
100
AcDbEntity
  8
Frei
  6
CONTINUOUS
 62
           7
100
AcDbCircle
 10
-14091.169350489079
 20
-5798.74241233988
 30
0.0
 40
5.0
  0
LINE
  5
88
100
AcDbEntity
  8
Frei
  6
CONTINUOUS
 62
           7
100
AcDbLine
 10
-13836.325025975013
 20
-5829.133564867496
 30
0.0
 11
-13843.803310053241
 21
-5835.654117402286
 31
0.0
  0
LINE
  5
89
100
AcDbEntity
  8
Frei
  6
CONTINUOUS
 62
           7
100
AcDbLine
 10
-13837.146663538759
 20
-5828.191424089297
 30
0.0
 11
-13844.624953757168
 21
-5834.712066414386
 31
0.0
  0
CIRCLE
  5
8A
100
AcDbEntity
  8
Frei
  6
CONTINUOUS
 62
           7
100
AcDbCircle
 10
-13840.474988501606
 20
-5831.92279568754
 30
0.0
 40
5.0
  0
LINE
  5
8B
100
AcDbEntity
  8
Frei
  6
CONTINUOUS
 62
           7
100
AcDbLine
 10
-14143.888056778982
 20
-5792.160382423919
 30
0.0
 11
-14146.488104550303
 21
-5791.982581857983
 31
0.0
  0
LINE
  5
8C
100
AcDbEntity
  8
Frei
  6
CONTINUOUS
 62
           7
100
AcDbLine
 10
-14149.088132368222
 20
-5791.804782656533
 30
0.0
 11
-14146.488104550303
 21
-5791.982581857983
 31
0.0
  0
LINE
  5
8D
100
AcDbEntity
  8
Frei
  6
CONTINUOUS
 62
           7
100
AcDbLine
 10
-14150.584972274533
 20
-5813.693662716849
 30
0.0
 11
-14147.984944456613
 21
-5813.871461918299
 31
0.0
  0
LINE
  5
8E
100
AcDbEntity
  8
Frei
  6
CONTINUOUS
 62
           7
100
AcDbLine
 10
-14145.384896685289
 20
-5814.049262484235
 30
0.0
 11
-14147.984944456613
 21
-5813.871461918299
 31
0.0
  0
LINE
  5
8F
100
AcDbEntity
  8
Frei
  6
CONTINUOUS
 62
           7
100
AcDbLine
 10
-14144.2622674378
 20
-5797.632612415697
 30
0.0
 11
-14146.862315209124
 21
-5797.454811849764
 31
0.0
  0
LINE
  5
90
100
AcDbEntity
  8
Frei
  6
CONTINUOUS
 62
           7
100
AcDbLine
 10
-14149.462343027044
 20
-5797.277012648312
 30
0.0
 11
-14146.862315209124
 21
-5797.454811849764
 31
0.0
  0
LINE
  5
91
100
AcDbEntity
  8
Frei
  6
CONTINUOUS
 62
           7
100
AcDbLine
 10
-14150.210761615712
 20
-5808.221432725071
 30
0.0
 11
-14147.610733797792
 21
-5808.399231926522
 31
0.0
  0
LINE
  5
92
100
AcDbEntity
  8
Frei
  6
CONTINUOUS
 62
           7
100
AcDbLine
 10
-14145.010686026468
 20
-5808.577032492458
 30
0.0
 11
-14147.610733797792
 21
-5808.399231926522
 31
0.0
  0
ARC
  5
93
100
AcDbEntity
  8
Frei
  6
CONTINUOUS
 62
           7
100
AcDbCircle
 10
-14182.9347538
 20
-5800.485849290528
 30
0.0
 40
38.7776
100
AcDbArc
 50
356.947436999999
 51
4.21961
  0
ARC
  5
94
100
AcDbEntity
  8
Frei
  6
CONTINUOUS
 62
           7
100
AcDbCircle
 10
-14111.538295206912
 20
-5805.368194485758
 30
0.0
 40
38.7776
100
AcDbArc
 50
167.956
 51
175.229
  0
ARC
  5
95
100
AcDbEntity
  8
Frei
  6
CONTINUOUS
 62
           7
100
AcDbCircle
 10
-14111.538295206912
 20
-5805.368194485758
 30
0.0
 40
38.7776
100
AcDbArc
 50
176.946999999999
 51
184.219999999999
  0
ARC
  5
96
100
AcDbEntity
  8
Frei
  6
CONTINUOUS
 62
           7
100
AcDbCircle
 10
-14182.9347538
 20
-5800.485849290528
 30
0.0
 40
38.7776
100
AcDbArc
 50
347.956389999999
 51
355.228562999999
  0
LINE
  5
97
100
AcDbEntity
  8
Frei
  6
CONTINUOUS
 62
           7
100
AcDbLine
 10
-14144.212172903619
 20
-5802.550837483459
 30
0.0
 11
-14144.247505147912
 21
-5803.131421722204
 31
0.0
  0
LINE
  5
98
100
AcDbEntity
  8
Frei
  6
CONTINUOUS
 62
           7
100
AcDbLine
 10
-14150.181472025408
 20
-5802.142635459712
 30
0.0
 11
-14150.225543859004
 21
-5802.722622054082
 31
0.0
  0
LINE
  5
99
100
AcDbEntity
  8
Frei
  6
CONTINUOUS
 62
           7
100
AcDbLine
 10
-14150.260836196492
 20
-5803.303209021795
 30
0.0
 11
-14150.225543859004
 21
-5802.722622054082
 31
0.0
  0
LINE
  5
9A
100
AcDbEntity
  8
Frei
  6
CONTINUOUS
 62
           7
100
AcDbLine
 10
-14144.291537074703
 20
-5803.711411045542
 30
0.0
 11
-14144.247505147912
 21
-5803.131421722204
 31
0.0
  0
ARC
  5
9B
100
AcDbEntity
  8
Frei
  6
CONTINUOUS
 62
           7
100
AcDbCircle
 10
-14153.797078282772
 20
-5794.231693055424
 30
0.0
 40
10.1345
100
AcDbArc
 50
340.369499999999
 51
356.087999999999
  0
ARC
  5
9C
100
AcDbEntity
  8
Frei
  6
CONTINUOUS
 62
           7
100
AcDbCircle
 10
-14139.553333546679
 20
-5795.205731264667
 30
0.0
 40
10.1232
100
AcDbArc
 50
176.088
 51
191.806999999999
  0
ARC
  5
9D
100
AcDbEntity
  8
Frei
  6
CONTINUOUS
 62
           7
100
AcDbCircle
 10
-14140.675960747441
 20
-5811.622351403103
 30
0.0
 40
10.1345
100
AcDbArc
 50
160.369
 51
176.088
  0
ARC
  5
9E
100
AcDbEntity
  8
Frei
  6
CONTINUOUS
 62
           7
100
AcDbCircle
 10
-14154.919705483539
 20
-5810.64831319386
 30
0.0
 40
10.1232
100
AcDbArc
 50
356.087999999999
 51
11.8065
  0
ARC
  5
9F
100
AcDbEntity
  8
Frei
  6
CONTINUOUS
 62
           7
100
AcDbCircle
 10
-14153.797078282772
 20
-5794.231693055424
 30
0.0
 40
10.1232
100
AcDbArc
 50
356.087999999999
 51
11.8065
  0
ARC
  5
A0
100
AcDbEntity
  8
Frei
  6
CONTINUOUS
 62
           7
100
AcDbCircle
 10
-14139.553333546679
 20
-5795.205731264667
 30
0.0
 40
10.1345
100
AcDbArc
 50
160.369
 51
176.088
  0
ARC
  5
A1
100
AcDbEntity
  8
Frei
  6
CONTINUOUS
 62
           7
100
AcDbCircle
 10
-14140.675960747441
 20
-5811.622351403103
 30
0.0
 40
10.1232
100
AcDbArc
 50
176.088
 51
191.806999999999
  0
ARC
  5
A2
100
AcDbEntity
  8
Frei
  6
CONTINUOUS
 62
           7
100
AcDbCircle
 10
-14154.919705483539
 20
-5810.64831319386
 30
0.0
 40
10.1345
100
AcDbArc
 50
340.369499999999
 51
356.087999999999
  0
LINE
  5
A3
100
AcDbEntity
  8
Frei
  6
CONTINUOUS
 62
           7
100
AcDbLine
 10
-14143.686191547531
 20
-5794.923111652986
 30
0.0
 11
-14144.247505147912
 21
-5803.131421722204
 31
0.0
  0
LINE
  5
A4
100
AcDbEntity
  8
Frei
  6
CONTINUOUS
 62
           7
100
AcDbLine
 10
-14149.664230258622
 20
-5794.514311984864
 30
0.0
 11
-14150.225543859004
 21
-5802.722622054082
 31
0.0
  0
LINE
  5
A5
100
AcDbEntity
  8
Frei
  6
CONTINUOUS
 62
           7
100
AcDbLine
 10
-14150.786857459389
 20
-5810.930932123298
 30
0.0
 11
-14150.225543859004
 21
-5802.722622054082
 31
0.0
  0
LINE
  5
A6
100
AcDbEntity
  8
Frei
  6
CONTINUOUS
 62
           7
100
AcDbLine
 10
-14144.808818748294
 20
-5811.339731791421
 30
0.0
 11
-14144.247505147912
 21
-5803.131421722204
 31
0.0
  0
LINE
  5
A7
100
AcDbEntity
  8
Frei
  6
CONTINUOUS
 62
           7
100
AcDbLine
 10
-13815.163463940356
 20
-5837.220222178788
 30
0.0
 11
-13816.004390698854
 21
-5837.177446089794
 31
0.0
  0
LINE
  5
A8
100
AcDbEntity
  8
Frei
  6
CONTINUOUS
 62
           7
100
AcDbLine
 10
-13814.324686242657
 20
-5836.475834582438
 30
0.0
 11
-13814.815158624595
 21
-5843.648205586078
 31
0.0
  0
LINE
  5
A9
100
AcDbEntity
  8
Frei
  6
CONTINUOUS
 62
           7
100
AcDbLine
 10
-13812.856775328437
 20
-5815.009994578353
 30
0.0
 11
-13812.866800266409
 21
-5815.15659319853
 31
0.0
  0
LINE
  5
AA
100
AcDbEntity
  8
Frei
  6
CONTINUOUS
 62
           7
100
AcDbLine
 10
-13814.42533248632
 20
-5814.08625532409
 30
0.0
 11
-13813.586410861662
 21
-5814.15835327568
 31
0.0
  0
LINE
  5
AB
100
AcDbEntity
  8
Frei
  6
CONTINUOUS
 62
           7
100
AcDbLine
 10
-13812.666336947823
 20
-5815.742950135815
 30
0.0
 11
-13814.03624301757
 21
-5835.775626661942
 31
0.0
  0
LINE
  5
AC
100
AcDbEntity
  8
Frei
  6
CONTINUOUS
 62
           7
100
AcDbLine
 10
-13801.308254892156
 20
-5836.203788795026
 30
0.0
 11
-13813.475883606985
 21
-5835.584848365908
 31
0.0
  0
LINE
  5
AD
100
AcDbEntity
  8
Frei
  6
CONTINUOUS
 62
           7
100
AcDbLine
 10
-13799.998548918476
 20
-5817.051442006743
 30
0.0
 11
-13812.13716473318
 21
-5816.0082345012
 31
0.0
  0
LINE
  5
AE
100
AcDbEntity
  8
Frei
  6
CONTINUOUS
 62
           7
100
AcDbLine
 10
-13814.314661304685
 20
-5836.329235962259
 30
0.0
 11
-13814.324686242657
 21
-5836.475834582438
 31
0.0
  0
LINE
  5
AF
100
AcDbEntity
  8
Frei
  6
CONTINUOUS
 62
           7
100
AcDbLine
 10
-13815.393103039489
 20
-5805.195566945095
 30
0.0
 11
-13814.51350889993
 21
-5805.28665035033
 31
0.0
  0
LINE
  5
B0
100
AcDbEntity
  8
Frei
  6
CONTINUOUS
 62
           7
100
AcDbLine
 10
-13812.366302946502
 20
-5807.837623574715
 30
0.0
 11
-13812.856775328437
 21
-5815.009994578353
 31
0.0
  0
LINE
  5
B1
100
AcDbEntity
  8
Frei
  6
CONTINUOUS
 62
           7
100
AcDbLine
 10
-13817.289641457926
 20
-5845.88313120129
 30
0.0
 11
-13818.173446607536
 21
-5845.853627056154
 31
0.0
  0
LINE
  5
B2
100
AcDbEntity
  8
Frei
  6
CONTINUOUS
 62
           7
100
AcDbLine
 10
-13816.588865874783
 20
-5800.04807003978
 30
0.0
 11
-13820.625592206252
 21
-5799.630060455891
 31
0.0
  0
LINE
  5
B3
100
AcDbEntity
  8
Frei
  6
CONTINUOUS
 62
           7
100
AcDbLine
 10
-13820.058809630089
 20
-5850.790425555349
 30
0.0
 11
-13824.11486157366
 21
-5850.655022016152
 31
0.0
  0
LINE
  5
B4
100
AcDbEntity
  8
Frei
  6
CONTINUOUS
 62
           7
100
AcDbLine
 10
-13817.681946094253
 20
-5838.666221282498
 30
0.0
 11
-13818.173446607536
 21
-5845.853627056154
 31
0.0
  0
LINE
  5
B5
100
AcDbEntity
  8
Frei
  6
CONTINUOUS
 62
           7
100
AcDbLine
 10
-13815.393103039489
 20
-5805.195566945095
 30
0.0
 11
-13815.884603552775
 21
-5812.382972718746
 31
0.0
  0
LINE
  5
B6
100
AcDbEntity
  8
Frei
  6
CONTINUOUS
 62
           7
100
AcDbLine
 10
-13815.157395239159
 20
-5801.748718856037
 30
0.0
 11
-13815.393103039489
 21
-5805.195566945095
 31
0.0
  0
LINE
  5
B7
100
AcDbEntity
  8
Frei
  6
CONTINUOUS
 62
           7
100
AcDbLine
 10
-13818.173446607536
 20
-5845.853627056154
 30
0.0
 11
-13818.409154407866
 21
-5849.30047514521
 31
0.0
  0
ARC
  5
B8
100
AcDbEntity
  8
Frei
  6
CONTINUOUS
 62
           7
100
AcDbCircle
 10
-13800.820554633676
 20
-5826.616184899483
 30
0.0
 40
9.6
100
AcDbArc
 50
267.087999999997
 51
85.088000000002
  0
ARC
  5
B9
100
AcDbEntity
  8
Frei
  6
CONTINUOUS
 62
           7
100
AcDbCircle
 10
-13800.820554633676
 20
-5826.616184899483
 30
0.0
 40
4.799999999999
100
AcDbArc
 50
176.087999999989
 51
356.08800000001
  0
ARC
  5
BA
100
AcDbEntity
  8
Frei
  6
CONTINUOUS
 62
           7
100
AcDbCircle
 10
-13800.820554633672
 20
-5826.61618489948
 30
0.0
 40
4.799999999996
100
AcDbArc
 50
356.087999999956
 51
66.291117282785
  0
ARC
  5
BB
100
AcDbEntity
  8
Frei
  6
CONTINUOUS
 62
           7
100
AcDbCircle
 10
-13800.820554633676
 20
-5826.616184899483
 30
0.0
 40
4.8
100
AcDbArc
 50
66.291117282759
 51
176.088
  0
ARC
  5
BC
100
AcDbEntity
  8
Frei
  6
CONTINUOUS
 62
           7
100
AcDbCircle
 10
-13813.516525295192
 20
-5836.383815357196
 30
0.0
 40
0.799999999992
100
AcDbArc
 50
87.087999999855
 51
130.515004001098
  0
ARC
  5
BD
100
AcDbEntity
  8
Frei
  6
CONTINUOUS
 62
           7
100
AcDbCircle
 10
-13813.516525295203
 20
-5836.383815357196
 30
0.0
 40
0.799999999986
100
AcDbArc
 50
130.515004000449
 51
176.088000000456
  0
ARC
  5
BE
100
AcDbEntity
  8
Frei
  6
CONTINUOUS
 62
           7
100
AcDbCircle
 10
-13815.122822252149
 20
-5836.421255187497
 30
0.0
 40
0.8
100
AcDbArc
 50
267.087999999976
 51
356.087999999999
  0
ARC
  5
BF
100
AcDbEntity
  8
Frei
  6
CONTINUOUS
 62
           7
100
AcDbCircle
 10
-13816.085674075268
 20
-5838.775380072384
 30
0.0
 40
1.599999999999
100
AcDbArc
 50
87.087999999911
 51
176.088
  0
ARC
  5
C0
100
AcDbEntity
  8
Frei
  6
CONTINUOUS
 62
           7
100
AcDbCircle
 10
-13812.068664256927
 20
-5815.211172593477
 30
0.0
 40
0.79999999999
100
AcDbArc
 50
176.087999999609
 51
221.660995999455
  0
ARC
  5
C1
100
AcDbEntity
  8
Frei
  6
CONTINUOUS
 62
           7
100
AcDbCircle
 10
-13812.06866425692
 20
-5815.211172593481
 30
0.0
 40
0.799999999992
100
AcDbArc
 50
221.660995998901
 51
265.088000000144
  0
ARC
  5
C2
100
AcDbEntity
  8
Frei
  6
CONTINUOUS
 62
           7
100
AcDbCircle
 10
-13814.288331533789
 20
-5812.49213150863
 30
0.0
 40
1.600000000001
100
AcDbArc
 50
176.088000000032
 51
265.088000000024
  0
ARC
  5
C3
100
AcDbEntity
  8
Frei
  6
CONTINUOUS
 62
           7
100
AcDbCircle
 10
-13813.654911337926
 20
-5814.955415183411
 30
0.0
 40
0.800000000001
100
AcDbArc
 50
356.088000000064
 51
85.087999999895
  0
ARC
  5
C4
100
AcDbEntity
  8
Frei
  6
CONTINUOUS
 62
           7
100
AcDbCircle
 10
-13820.005426426847
 20
-5849.191316355324
 30
0.0
 40
1.599999999998
100
AcDbArc
 50
268.087999999915
 51
356.088000000064
  0
ARC
  5
C5
100
AcDbEntity
  8
Frei
  6
CONTINUOUS
 62
           7
100
AcDbCircle
 10
-13817.209566653069
 20
-5843.484467401248
 30
0.0
 40
2.400000000001
100
AcDbArc
 50
268.087999999977
 51
356.087999999999
  0
ARC
  5
C6
100
AcDbEntity
  8
Frei
  6
CONTINUOUS
 62
           7
100
AcDbCircle
 10
-13814.760710974973
 20
-5807.673885389886
 30
0.0
 40
2.399999999999
100
AcDbArc
 50
356.087999999999
 51
84.087999999979
  0
ARC
  5
C7
100
AcDbEntity
  8
Frei
  6
CONTINUOUS
 62
           7
100
AcDbCircle
 10
-13816.753667258145
 20
-5801.639560066151
 30
0.0
 40
1.599999999998
100
AcDbArc
 50
356.087999999934
 51
84.088000000085
  0
LINE
  5
C8
100
AcDbEntity
  8
Frei
  6
CONTINUOUS
 62
           7
100
AcDbLine
 10
-14150.634889321074
 20
-5808.70864212527
 30
0.0
 11
-14150.593954774868
 21
-5808.110040118148
 31
0.0
  0
LINE
  5
C9
100
AcDbEntity
  8
Frei
  6
CONTINUOUS
 62
           7
100
AcDbLine
 10
-14150.593954774868
 20
-5808.110040118148
 30
0.0
 11
-14149.85713294314
 21
-5797.335203990011
 31
0.0
  0
LINE
  5
CA
100
AcDbEntity
  8
Frei
  6
CONTINUOUS
 62
           7
100
AcDbLine
 10
-14149.85713294314
 20
-5797.335203990011
 30
0.0
 11
-14149.816198396933
 21
-5796.736601982891
 31
0.0
  0
LINE
  5
CB
100
AcDbEntity
  8
Frei
  6
CONTINUOUS
 62
           7
100
AcDbLine
 10
-14149.816198396933
 20
-5796.736601982891
 30
0.0
 11
-14149.591058392791
 21
-5793.444290943737
 31
0.0
  0
LINE
  5
CC
100
AcDbEntity
  8
Frei
  6
CONTINUOUS
 62
           7
100
AcDbLine
 10
-14174.988315067909
 20
-5813.057280348172
 30
0.0
 11
-14173.687181815178
 21
-5813.146256493628
 31
0.0
  0
LINE
  5
CD
100
AcDbEntity
  8
Frei
  6
CONTINUOUS
 62
           7
100
AcDbLine
 10
-14172.049799966888
 20
-5789.202176208868
 30
0.0
 11
-14173.350933219619
 21
-5789.113200063413
 31
0.0
  0
LINE
  5
CE
100
AcDbEntity
  8
Frei
  6
CONTINUOUS
 62
           7
100
AcDbLine
 10
-14173.687181815178
 20
-5813.146256493628
 30
0.0
 11
-14169.900198007395
 21
-5813.405223990931
 31
0.0
  0
LINE
  5
CF
100
AcDbEntity
  8
Frei
  6
CONTINUOUS
 62
           7
100
AcDbLine
 10
-14168.262816159106
 20
-5789.461143706174
 30
0.0
 11
-14172.049799966888
 21
-5789.202176208868
 31
0.0
  0
LINE
  5
D0
100
AcDbEntity
  8
Frei
  6
CONTINUOUS
 62
           7
100
AcDbLine
 10
-14208.804033382872
 20
-5786.688790272665
 30
0.0
 11
-14173.350933219619
 21
-5789.113200063413
 31
0.0
  0
LINE
  5
D1
100
AcDbEntity
  8
Frei
  6
CONTINUOUS
 62
           7
100
AcDbLine
 10
-14210.441415231158
 20
-5810.632870557418
 30
0.0
 11
-14174.988315067909
 21
-5813.057280348172
 31
0.0
  0
LINE
  5
D2
100
AcDbEntity
  8
Frei
  6
CONTINUOUS
 62
           7
100
AcDbLine
 10
-14167.487716787051
 20
-5791.318351546843
 30
0.0
 11
-14168.879491358093
 21
-5811.670819788886
 31
0.0
  0
LINE
  5
D3
100
AcDbEntity
  8
Frei
  6
CONTINUOUS
 62
           7
100
AcDbLine
 10
-14150.427559584157
 20
-5792.484986113748
 30
0.0
 11
-14153.141600680308
 21
-5792.29939027655
 31
0.0
  0
LINE
  5
D4
100
AcDbEntity
  8
Frei
  6
CONTINUOUS
 62
           7
100
AcDbLine
 10
-14150.860029325217
 20
-5812.000953164425
 30
0.0
 11
-14150.634889321074
 21
-5808.70864212527
 31
0.0
  0
LINE
  5
D5
100
AcDbEntity
  8
Frei
  6
CONTINUOUS
 62
           7
100
AcDbLine
 10
-14167.981588347411
 20
-5811.732221608196
 30
0.0
 11
-14166.145337898306
 21
-5811.857790981443
 31
0.0
  0
LINE
  5
D6
100
AcDbEntity
  8
Frei
  6
CONTINUOUS
 62
           7
100
AcDbLine
 10
-14164.671694234847
 20
-5790.308118725161
 30
0.0
 11
-14164.75356332726
 21
-5791.505322739398
 31
0.0
  0
LINE
  5
D7
100
AcDbEntity
  8
Frei
  6
CONTINUOUS
 62
           7
100
AcDbLine
 10
-14164.75356332726
 20
-5791.505322739398
 30
0.0
 11
-14166.589813776369
 21
-5791.379753366153
 31
0.0
  0
LINE
  5
D8
100
AcDbEntity
  8
Frei
  6
CONTINUOUS
 62
           7
100
AcDbLine
 10
-14164.75356332726
 20
-5791.505322739398
 30
0.0
 11
-14166.145337898306
 21
-5811.857790981443
 31
0.0
  0
LINE
  5
D9
100
AcDbEntity
  8
Frei
  6
CONTINUOUS
 62
           7
100
AcDbLine
 10
-14166.145337898306
 20
-5811.857790981443
 30
0.0
 11
-14166.227206990719
 21
-5813.054994995679
 31
0.0
  0
LINE
  5
DA
100
AcDbEntity
  8
Frei
  6
CONTINUOUS
 62
           7
100
AcDbLine
 10
-14154.615244343768
 20
-5813.849062532832
 30
0.0
 11
-14154.533375251354
 21
-5812.651858518595
 31
0.0
  0
LINE
  5
DB
100
AcDbEntity
  8
Frei
  6
CONTINUOUS
 62
           7
100
AcDbLine
 10
-14154.533375251354
 20
-5812.651858518595
 30
0.0
 11
-14151.819334155203
 21
-5812.837454355793
 31
0.0
  0
LINE
  5
DC
100
AcDbEntity
  8
Frei
  6
CONTINUOUS
 62
           7
100
AcDbLine
 10
-14154.533375251354
 20
-5812.651858518595
 30
0.0
 11
-14153.141600680308
 21
-5792.29939027655
 31
0.0
  0
LINE
  5
DD
100
AcDbEntity
  8
Frei
  6
CONTINUOUS
 62
           7
100
AcDbLine
 10
-14153.141600680308
 20
-5792.29939027655
 30
0.0
 11
-14153.059731587895
 21
-5791.102186262315
 31
0.0
  0
LINE
  5
DE
100
AcDbEntity
  8
Frei
  6
CONTINUOUS
 62
           7
100
AcDbLine
 10
-14164.671694234847
 20
-5790.308118725161
 30
0.0
 11
-14153.059731587895
 21
-5791.102186262315
 31
0.0
  0
LINE
  5
DF
100
AcDbEntity
  8
Frei
  6
CONTINUOUS
 62
           7
100
AcDbLine
 10
-14166.227206990719
 20
-5813.054994995679
 30
0.0
 11
-14154.615244343768
 21
-5813.849062532832
 31
0.0
  0
ARC
  5
E0
100
AcDbEntity
  8
Frei
  6
CONTINUOUS
 62
           7
100
AcDbCircle
 10
-14189.898996612403
 20
-5800.009609458701
 30
0.0
 40
20.866107311614
100
AcDbArc
 50
320.981694434247
 51
31.194305565753
  0
ARC
  5
E1
100
AcDbEntity
  8
Frei
  6
CONTINUOUS
 62
           7
100
AcDbCircle
 10
-14180.031578309165
 20
-5800.684378814091
 30
0.0
 40
29.660254037844
100
AcDbArc
 50
152.22307458395
 51
199.95292541605
  0
ARC
  5
E2
100
AcDbEntity
  8
Frei
  6
CONTINUOUS
 62
           7
100
AcDbCircle
 10
-14190.614557659901
 20
-5799.960676834995
 30
0.0
 40
22.516660498395
100
AcDbArc
 50
143.883772496028
 51
208.292227503973
  0
CIRCLE
  5
E3
100
AcDbEntity
  8
Frei
  6
CONTINUOUS
 62
           7
100
AcDbCircle
 10
-14198.113704428521
 20
-5799.447858357502
 30
0.0
 40
5.1
  0
ARC
  5
E4
100
AcDbEntity
  8
Frei
  6
CONTINUOUS
 62
           7
100
AcDbCircle
 10
-14168.324217978417
 20
-5790.359046716852
 30
0.0
 40
0.9
100
AcDbArc
 50
356.087999999999
 51
86.088
  0
ARC
  5
E5
100
AcDbEntity
  8
Frei
  6
CONTINUOUS
 62
           7
100
AcDbCircle
 10
-14166.528411957057
 20
-5790.481850355474
 30
0.0
 40
0.9
100
AcDbArc
 50
176.088
 51
266.087999999999
  0
ARC
  5
E6
100
AcDbEntity
  8
Frei
  6
CONTINUOUS
 62
           7
100
AcDbCircle
 10
-14150.488961403469
 20
-5793.382889124427
 30
0.0
 40
0.9
100
AcDbArc
 50
356.087999999999
 51
86.088
  0
ARC
  5
E7
100
AcDbEntity
  8
Frei
  6
CONTINUOUS
 62
           7
100
AcDbCircle
 10
-14151.757932335895
 20
-5811.939551345115
 30
0.0
 40
0.9
100
AcDbArc
 50
266.087999999999
 51
356.087999999999
  0
ARC
  5
E8
100
AcDbEntity
  8
Frei
  6
CONTINUOUS
 62
           7
100
AcDbCircle
 10
-14168.042990166727
 20
-5812.630124618876
 30
0.0
 40
0.9
100
AcDbArc
 50
86.088
 51
176.088
  0
ARC
  5
E9
100
AcDbEntity
  8
Frei
  6
CONTINUOUS
 62
           7
100
AcDbCircle
 10
-14169.838796188087
 20
-5812.507320980252
 30
0.0
 40
0.9
100
AcDbArc
 50
266.087999999999
 51
356.087999999999
  0
LINE
  5
EA
100
AcDbEntity
  8
Frei
  6
CONTINUOUS
 62
           7
100
AcDbLine
 10
-13892.340936205946
 20
-5840.103521523351
 30
0.0
 11
-13888.849091164418
 21
-5840.342306376226
 31
0.0
  0
LINE
  5
EB
100
AcDbEntity
  8
Frei
  6
CONTINUOUS
 62
           7
100
AcDbLine
 10
-13892.204487718587
 20
-5838.108181499621
 30
0.0
 11
-13892.340936205946
 21
-5840.103521523351
 31
0.0
  0
LINE
  5
EC
100
AcDbEntity
  8
Frei
  6
CONTINUOUS
 62
           7
100
AcDbLine
 10
-13887.203290837606
 20
-5830.932665507189
 30
0.0
 11
-13887.783196908877
 21
-5839.412860608039
 31
0.0
  0
LINE
  5
ED
100
AcDbEntity
  8
Frei
  6
CONTINUOUS
 62
           7
100
AcDbLine
 10
-13891.692805890998
 20
-5830.625656410635
 30
0.0
 11
-13887.203290837606
 21
-5830.932665507189
 31
0.0
  0
LINE
  5
EE
100
AcDbEntity
  8
Frei
  6
CONTINUOUS
 62
           7
100
AcDbLine
 10
-13891.726918012839
 20
-5831.124491416567
 30
0.0
 11
-13891.692805890998
 21
-5830.625656410635
 31
0.0
  0
LINE
  5
EF
100
AcDbEntity
  8
Frei
  6
CONTINUOUS
 62
           7
100
AcDbLine
 10
-13888.217340816678
 20
-5831.810614846849
 30
0.0
 11
-13891.726918012839
 21
-5831.124491416567
 31
0.0
  0
LINE
  5
F0
100
AcDbEntity
  8
Frei
  6
CONTINUOUS
 62
           7
100
AcDbLine
 10
-13887.954900010183
 20
-5834.389441787567
 30
0.0
 11
-13887.814439839261
 21
-5832.335437333541
 31
0.0
  0
LINE
  5
F1
100
AcDbEntity
  8
Frei
  6
CONTINUOUS
 62
           7
100
AcDbLine
 10
-13892.204487718587
 20
-5838.108181499621
 30
0.0
 11
-13891.726918012839
 21
-5831.124491416567
 31
0.0
  0
LINE
  5
F2
100
AcDbEntity
  8
Frei
  6
CONTINUOUS
 62
           7
100
AcDbLine
 10
-13888.634179139899
 20
-5837.906205980549
 30
0.0
 11
-13892.204487718587
 21
-5838.108181499621
 31
0.0
  0
LINE
  5
F3
100
AcDbEntity
  8
Frei
  6
CONTINUOUS
 62
           7
100
AcDbLine
 10
-13888.023124253861
 20
-5835.387111799433
 30
0.0
 11
-13888.163584424783
 21
-5837.44111625346
 31
0.0
  0
LINE
  5
F4
100
AcDbEntity
  8
Frei
  6
CONTINUOUS
 62
           2
100
AcDbLine
 10
-13889.571633248281
 20
-5834.780051501166
 30
0.0
 11
-13886.801248959961
 21
-5834.969500287358
 31
0.0
  0
LINE
  5
F5
100
AcDbEntity
  8
Frei
  6
CONTINUOUS
 62
           7
100
AcDbLine
 10
-13889.53752112644
 20
-5834.281216495236
 30
0.0
 11
-13887.954900010183
 21
-5834.389441787567
 31
0.0
  0
LINE
  5
F6
100
AcDbEntity
  8
Frei
  6
CONTINUOUS
 62
           7
100
AcDbLine
 10
-13889.571633248281
 20
-5834.780051501166
 30
0.0
 11
-13889.53752112644
 21
-5834.281216495236
 31
0.0
  0
LINE
  5
F7
100
AcDbEntity
  8
Frei
  6
CONTINUOUS
 62
           7
100
AcDbLine
 10
-13889.605745370118
 20
-5835.278886507098
 30
0.0
 11
-13889.571633248281
 21
-5834.780051501166
 31
0.0
  0
LINE
  5
F8
100
AcDbEntity
  8
Frei
  6
CONTINUOUS
 62
           7
100
AcDbLine
 10
-13888.023124253861
 20
-5835.387111799433
 30
0.0
 11
-13889.605745370118
 21
-5835.278886507098
 31
0.0
  0
LINE
  5
F9
100
AcDbEntity
  8
Frei
  6
CONTINUOUS
 62
           7
100
AcDbLine
 10
-14031.515902861098
 20
-5830.58623953017
 30
0.0
 11
-14029.264502819704
 21
-5797.663129138629
 31
0.0
  0
LINE
  5
FA
100
AcDbEntity
  8
Frei
  6
CONTINUOUS
 62
           7
100
AcDbLine
 10
-14045.48328302721
 20
-5829.631100118668
 30
0.0
 11
-14031.515902861098
 21
-5830.58623953017
 31
0.0
  0
LINE
  5
FB
100
AcDbEntity
  8
Frei
  6
CONTINUOUS
 62
           7
100
AcDbLine
 10
-14039.241202938349
 20
-5796.980886701842
 30
0.0
 11
-14029.763337825636
 21
-5797.62901701679
 31
0.0
  0
LINE
  5
FC
100
AcDbEntity
  8
Frei
  6
CONTINUOUS
 62
           7
100
AcDbLine
 10
-14039.377651425708
 20
-5798.976226725572
 30
0.0
 11
-14039.241202938349
 21
-5796.980886701842
 31
0.0
  0
LINE
  5
FD
100
AcDbEntity
  8
Frei
  6
CONTINUOUS
 62
           7
100
AcDbLine
 10
-14039.85522113146
 20
-5805.959916808626
 30
0.0
 11
-14039.889333253301
 21
-5806.458751814558
 31
0.0
  0
LINE
  5
FE
100
AcDbEntity
  8
Frei
  6
CONTINUOUS
 62
           7
100
AcDbLine
 10
-14044.877683312621
 20
-5806.117630596165
 30
0.0
 11
-14044.297777241354
 21
-5797.637435495313
 31
0.0
  0
LINE
  5
FF
100
AcDbEntity
  8
Frei
  6
CONTINUOUS
 62
           7
100
AcDbLine
 10
-14039.889333253301
 20
-5806.458751814558
 30
0.0
 11
-14044.877683312621
 21
-5806.117630596165
 31
0.0
  0
LINE
  5
100
100
AcDbEntity
  8
Frei
  6
CONTINUOUS
 62
           7
100
AcDbLine
 10
-14043.231882985809
 20
-5796.707989727129
 30
0.0
 11
-14039.241202938349
 21
-5796.980886701842
 31
0.0
  0
LINE
  5
101
100
AcDbEntity
  8
Frei
  6
CONTINUOUS
 62
           7
100
AcDbLine
 10
-14043.364798327617
 20
-5805.273793378345
 30
0.0
 11
-14039.85522113146
 21
-5805.959916808626
 31
0.0
  0
LINE
  5
102
100
AcDbEntity
  8
Frei
  6
CONTINUOUS
 62
           7
100
AcDbLine
 10
-14043.627239134115
 20
-5802.694966437624
 30
0.0
 11
-14043.767699305034
 21
-5804.748970891653
 31
0.0
  0
LINE
  5
103
100
AcDbEntity
  8
Frei
  6
CONTINUOUS
 62
           7
100
AcDbLine
 10
-14039.377651425708
 20
-5798.976226725572
 30
0.0
 11
-14039.85522113146
 21
-5805.959916808626
 31
0.0
  0
LINE
  5
104
100
AcDbEntity
  8
Frei
  6
CONTINUOUS
 62
           7
100
AcDbLine
 10
-14042.947960004396
 20
-5799.178202244644
 30
0.0
 11
-14039.377651425708
 21
-5798.976226725572
 31
0.0
  0
LINE
  5
105
100
AcDbEntity
  8
Frei
  6
CONTINUOUS
 62
           7
100
AcDbLine
 10
-14043.559014890438
 20
-5801.69729642576
 30
0.0
 11
-14043.418554719516
 21
-5799.643291971734
 31
0.0
  0
LINE
  5
106
100
AcDbEntity
  8
Frei
  6
CONTINUOUS
 62
           2
100
AcDbLine
 10
-14042.010505896018
 20
-5802.304356724028
 30
0.0
 11
-14044.780890184335
 21
-5802.114907937832
 31
0.0
  0
LINE
  5
107
100
AcDbEntity
  8
Frei
  6
CONTINUOUS
 62
           7
100
AcDbLine
 10
-14042.044618017859
 20
-5802.803191729958
 30
0.0
 11
-14043.627239134115
 21
-5802.694966437624
 31
0.0
  0
LINE
  5
108
100
AcDbEntity
  8
Frei
  6
CONTINUOUS
 62
           7
100
AcDbLine
 10
-14042.010505896018
 20
-5802.304356724028
 30
0.0
 11
-14042.044618017859
 21
-5802.803191729958
 31
0.0
  0
LINE
  5
109
100
AcDbEntity
  8
Frei
  6
CONTINUOUS
 62
           7
100
AcDbLine
 10
-14041.976393774181
 20
-5801.805521718094
 30
0.0
 11
-14042.010505896018
 21
-5802.304356724028
 31
0.0
  0
LINE
  5
10A
100
AcDbEntity
  8
Frei
  6
CONTINUOUS
 62
           7
100
AcDbLine
 10
-14043.559014890438
 20
-5801.69729642576
 30
0.0
 11
-14041.976393774181
 21
-5801.805521718094
 31
0.0
  0
LINE
  5
10B
100
AcDbEntity
  8
Frei
  6
CONTINUOUS
 62
           7
100
AcDbLine
 10
-14005.801622556755
 20
-5835.65238090497
 30
0.0
 11
-14005.835734678592
 21
-5836.151215910903
 31
0.0
  0
LINE
  5
10C
100
AcDbEntity
  8
Frei
  6
CONTINUOUS
 62
           7
100
AcDbLine
 10
-14005.835734678592
 20
-5836.151215910903
 30
0.0
 11
-13929.015143764991
 21
-5841.404482674165
 31
0.0
  0
LINE
  5
10D
100
AcDbEntity
  8
Frei
  6
CONTINUOUS
 62
           7
100
AcDbLine
 10
-13929.015143764991
 20
-5841.404482674165
 30
0.0
 11
-13925.808604312093
 21
-5794.513992116516
 31
0.0
  0
LINE
  5
10E
100
AcDbEntity
  8
Frei
  6
CONTINUOUS
 62
           7
100
AcDbLine
 10
-13925.808604312093
 20
-5794.513992116516
 30
0.0
 11
-14002.629195225694
 21
-5789.260725353257
 31
0.0
  0
LINE
  5
10F
100
AcDbEntity
  8
Frei
  6
CONTINUOUS
 62
           7
100
AcDbLine
 10
-14029.763337825636
 20
-5797.62901701679
 30
0.0
 11
-14029.264502819704
 21
-5797.663129138629
 31
0.0
  0
LINE
  5
110
100
AcDbEntity
  8
Frei
  6
CONTINUOUS
 62
           7
100
AcDbLine
 10
-14003.626865237555
 20
-5789.192501109577
 30
0.0
 11
-14029.067450540111
 21
-5787.452782895771
 31
0.0
  0
LINE
  5
111
100
AcDbEntity
  8
Frei
  6
CONTINUOUS
 62
           7
100
AcDbLine
 10
-14031.775154987077
 20
-5834.377385575257
 30
0.0
 11
-14031.515902861098
 21
-5830.58623953017
 31
0.0
  0
LINE
  5
112
100
AcDbEntity
  8
Frei
  6
CONTINUOUS
 62
           7
100
AcDbLine
 10
-14029.763337825636
 20
-5797.62901701679
 30
0.0
 11
-14029.067450540111
 21
-5787.452782895771
 31
0.0
  0
LINE
  5
113
100
AcDbEntity
  8
Frei
  6
CONTINUOUS
 62
           7
100
AcDbLine
 10
-14005.801622556755
 20
-5835.65238090497
 30
0.0
 11
-14006.799292568616
 21
-5835.584156661293
 31
0.0
  0
LINE
  5
114
100
AcDbEntity
  8
Frei
  6
CONTINUOUS
 62
           7
100
AcDbLine
 10
-14002.663307347531
 20
-5789.759560359187
 30
0.0
 11
-14005.801622556755
 21
-5835.65238090497
 31
0.0
  0
LINE
  5
115
100
AcDbEntity
  8
Frei
  6
CONTINUOUS
 62
           7
100
AcDbLine
 10
-14002.663307347531
 20
-5789.759560359187
 30
0.0
 11
-14003.660977359395
 21
-5789.691336115508
 31
0.0
  0
LINE
  5
116
100
AcDbEntity
  8
Frei
  6
CONTINUOUS
 62
           7
100
AcDbLine
 10
-14002.629195225694
 20
-5789.260725353257
 30
0.0
 11
-14002.663307347531
 21
-5789.759560359187
 31
0.0
  0
LINE
  5
117
100
AcDbEntity
  8
Frei
  6
CONTINUOUS
 62
           7
100
AcDbLine
 10
-14006.799292568616
 20
-5835.584156661293
 30
0.0
 11
-14003.626865237555
 21
-5789.192501109577
 31
0.0
  0
LINE
  5
118
100
AcDbEntity
  8
Frei
  6
CONTINUOUS
 62
           7
100
AcDbLine
 10
-14006.833404690453
 20
-5836.082991667225
 30
0.0
 11
-14006.799292568616
 21
-5835.584156661293
 31
0.0
  0
LINE
  5
119
100
AcDbEntity
  8
Frei
  6
CONTINUOUS
 62
           7
100
AcDbLine
 10
-14031.775154987077
 20
-5834.377385575257
 30
0.0
 11
-14006.833404690453
 21
-5836.082991667225
 31
0.0
  0
LINE
  5
11A
100
AcDbEntity
  8
Frei
  6
CONTINUOUS
 62
           7
100
AcDbLine
 10
-13928.017473753127
 20
-5841.472706917843
 30
0.0
 11
-13903.07572345651
 21
-5843.17831300981
 31
0.0
  0
LINE
  5
11B
100
AcDbEntity
  8
Frei
  6
CONTINUOUS
 62
           7
100
AcDbLine
 10
-13927.98336163129
 20
-5840.973871911911
 30
0.0
 11
-13928.017473753127
 21
-5841.472706917843
 31
0.0
  0
LINE
  5
11C
100
AcDbEntity
  8
Frei
  6
CONTINUOUS
 62
           7
100
AcDbLine
 10
-13924.810934300225
 20
-5794.582216360197
 30
0.0
 11
-13927.98336163129
 21
-5840.973871911911
 31
0.0
  0
LINE
  5
11D
100
AcDbEntity
  8
Frei
  6
CONTINUOUS
 62
           7
100
AcDbLine
 10
-13924.84504642207
 20
-5795.081051366127
 30
0.0
 11
-13925.842716433934
 21
-5795.012827122448
 31
0.0
  0
LINE
  5
11E
100
AcDbEntity
  8
Frei
  6
CONTINUOUS
 62
           7
100
AcDbLine
 10
-13927.98336163129
 20
-5840.973871911911
 30
0.0
 11
-13928.981031643154
 21
-5840.905647668233
 31
0.0
  0
LINE
  5
11F
100
AcDbEntity
  8
Frei
  6
CONTINUOUS
 62
           7
100
AcDbLine
 10
-13899.370348997676
 20
-5796.321934574004
 30
0.0
 11
-13900.066236283197
 21
-5806.498168695023
 31
0.0
  0
LINE
  5
120
100
AcDbEntity
  8
Frei
  6
CONTINUOUS
 62
           7
100
AcDbLine
 10
-13899.370348997676
 20
-5796.321934574004
 30
0.0
 11
-13924.810934300225
 21
-5794.582216360197
 31
0.0
  0
LINE
  5
121
100
AcDbEntity
  8
Frei
  6
CONTINUOUS
 62
           7
100
AcDbLine
 10
-13900.565071289133
 20
-5806.464056573184
 30
0.0
 11
-13900.066236283197
 21
-5806.498168695023
 31
0.0
  0
LINE
  5
122
100
AcDbEntity
  8
Frei
  6
CONTINUOUS
 62
           7
100
AcDbLine
 10
-13900.565071289133
 20
-5806.464056573184
 30
0.0
 11
-13903.07572345651
 21
-5843.17831300981
 31
0.0
  0
LINE
  5
123
100
AcDbEntity
  8
Frei
  6
CONTINUOUS
 62
           7
100
AcDbLine
 10
-14076.099615955332
 20
-5800.975556884692
 30
0.0
 11
-14078.094955979057
 21
-5800.839108397335
 31
0.0
  0
LINE
  5
124
100
AcDbEntity
  8
Frei
  6
CONTINUOUS
 62
           7
100
AcDbLine
 10
-14076.398206573362
 20
-5819.999511353804
 30
0.0
 11
-14075.170170187146
 21
-5802.041451140236
 31
0.0
  0
LINE
  5
125
100
AcDbEntity
  8
Frei
  6
CONTINUOUS
 62
           7
100
AcDbLine
 10
-14079.459440852632
 20
-5820.792508634631
 30
0.0
 11
-14077.464100828907
 21
-5820.928957121989
 31
0.0
  0
LINE
  5
126
100
AcDbEntity
  8
Frei
  6
CONTINUOUS
 62
           7
100
AcDbLine
 10
-14080.047765402425
 20
-5814.738264319763
 30
0.0
 11
-14080.388886620822
 21
-5819.726614379088
 31
0.0
  0
LINE
  5
127
100
AcDbEntity
  8
Frei
  6
CONTINUOUS
 62
           7
100
AcDbLine
 10
-14078.094955979057
 20
-5800.839108397335
 30
0.0
 11
-14079.160850234603
 21
-5801.768554165519
 31
0.0
  0
LINE
  5
128
100
AcDbEntity
  8
Frei
  6
CONTINUOUS
 62
           7
100
AcDbLine
 10
-14076.099615955332
 20
-5800.975556884692
 30
0.0
 11
-14075.170170187146
 21
-5802.041451140236
 31
0.0
  0
LINE
  5
129
100
AcDbEntity
  8
Frei
  6
CONTINUOUS
 62
           7
100
AcDbLine
 10
-14076.398206573362
 20
-5819.999511353804
 30
0.0
 11
-14077.464100828907
 21
-5820.928957121989
 31
0.0
  0
LINE
  5
12A
100
AcDbEntity
  8
Frei
  6
CONTINUOUS
 62
           7
100
AcDbLine
 10
-14079.459440852632
 20
-5820.792508634631
 30
0.0
 11
-14080.388886620822
 21
-5819.726614379088
 31
0.0
  0
LINE
  5
12B
100
AcDbEntity
  8
Frei
  6
CONTINUOUS
 62
           7
100
AcDbLine
 10
-14079.459440852632
 20
-5820.792508634631
 30
0.0
 11
-14078.094955979057
 21
-5800.839108397335
 31
0.0
  0
LINE
  5
12C
100
AcDbEntity
  8
Frei
  6
CONTINUOUS
 62
           7
100
AcDbLine
 10
-14077.464100828907
 20
-5820.928957121989
 30
0.0
 11
-14076.099615955332
 21
-5800.975556884692
 31
0.0
  0
LINE
  5
12D
100
AcDbEntity
  8
Frei
  6
CONTINUOUS
 62
           7
100
AcDbLine
 10
-14076.909888400951
 20
-5827.482036442789
 30
0.0
 11
-14076.398206573362
 21
-5819.999511353804
 31
0.0
  0
LINE
  5
12E
100
AcDbEntity
  8
Frei
  6
CONTINUOUS
 62
           7
100
AcDbLine
 10
-14047.329327741925
 20
-5819.982674396755
 30
0.0
 11
-14047.977458056866
 21
-5829.460539509471
 31
0.0
  0
LINE
  5
12F
100
AcDbEntity
  8
Frei
  6
CONTINUOUS
 62
           7
100
AcDbLine
 10
-14080.567865708541
 20
-5807.686349993031
 30
0.0
 11
-14079.501971452995
 21
-5806.756904224845
 31
0.0
  0
LINE
  5
130
100
AcDbEntity
  8
Frei
  6
CONTINUOUS
 62
           7
100
AcDbLine
 10
-14079.160850234603
 20
-5801.768554165519
 30
0.0
 11
-14079.501971452995
 21
-5806.756904224845
 31
0.0
  0
LINE
  5
131
100
AcDbEntity
  8
Frei
  6
CONTINUOUS
 62
           7
100
AcDbLine
 10
-14080.601977830378
 20
-5808.185184998964
 30
0.0
 11
-14080.567865708541
 21
-5807.686349993031
 31
0.0
  0
LINE
  5
132
100
AcDbEntity
  8
Frei
  6
CONTINUOUS
 62
           7
100
AcDbLine
 10
-14080.047765402425
 20
-5814.738264319763
 30
0.0
 11
-14080.977211170612
 21
-5813.67237006422
 31
0.0
  0
LINE
  5
133
100
AcDbEntity
  8
Frei
  6
CONTINUOUS
 62
           7
100
AcDbLine
 10
-14079.979541158751
 20
-5813.740594307898
 30
0.0
 11
-14080.047765402425
 21
-5814.738264319763
 31
0.0
  0
LINE
  5
134
100
AcDbEntity
  8
Frei
  6
CONTINUOUS
 62
           2
100
AcDbLine
 10
-14079.570195696677
 20
-5807.754574236709
 30
0.0
 11
-14080.567865708541
 21
-5807.686349993031
 31
0.0
  0
LINE
  5
135
100
AcDbEntity
  8
Frei
  6
CONTINUOUS
 62
           7
100
AcDbLine
 10
-14079.501971452995
 20
-5806.756904224845
 30
0.0
 11
-14079.570195696677
 21
-5807.754574236709
 31
0.0
  0
LINE
  5
136
100
AcDbEntity
  8
Frei
  6
CONTINUOUS
 62
           2
100
AcDbLine
 10
-14079.979541158751
 20
-5813.740594307898
 30
0.0
 11
-14080.977211170612
 21
-5813.67237006422
 31
0.0
  0
LINE
  5
137
100
AcDbEntity
  8
Frei
  6
CONTINUOUS
 62
           7
100
AcDbLine
 10
-14079.570195696677
 20
-5807.754574236709
 30
0.0
 11
-14079.979541158751
 21
-5813.740594307898
 31
0.0
  0
LINE
  5
138
100
AcDbEntity
  8
Frei
  6
CONTINUOUS
 62
           1
100
AcDbLine
 10
-14078.119424715638
 20
-5808.35495086005
 30
0.0
 11
-14080.601977830378
 21
-5808.185184998964
 31
0.0
  0
LINE
  5
139
100
AcDbEntity
  8
Frei
  6
CONTINUOUS
 62
           7
100
AcDbLine
 10
-14080.636089952219
 20
-5808.684020004896
 30
0.0
 11
-14080.601977830378
 21
-5808.185184998964
 31
0.0
  0
LINE
  5
13A
100
AcDbEntity
  8
Frei
  6
CONTINUOUS
 62
           1
100
AcDbLine
 10
-14078.460545934031
 20
-5813.343300919374
 30
0.0
 11
-14080.943099048774
 21
-5813.173535058288
 31
0.0
  0
LINE
  5
13B
100
AcDbEntity
  8
Frei
  6
CONTINUOUS
 62
           7
100
AcDbLine
 10
-14080.977211170612
 20
-5813.67237006422
 30
0.0
 11
-14080.943099048774
 21
-5813.173535058288
 31
0.0
  0
LINE
  5
13C
100
AcDbEntity
  8
Frei
  6
CONTINUOUS
 62
           1
100
AcDbLine
 10
-14078.153536837479
 20
-5808.853785865982
 30
0.0
 11
-14080.636089952219
 21
-5808.684020004896
 31
0.0
  0
LINE
  5
13D
100
AcDbEntity
  8
Frei
  6
CONTINUOUS
 62
           7
100
AcDbLine
 10
-14080.908986926934
 20
-5812.674700052356
 30
0.0
 11
-14080.636089952219
 21
-5808.684020004896
 31
0.0
  0
LINE
  5
13E
100
AcDbEntity
  8
Frei
  6
CONTINUOUS
 62
           1
100
AcDbLine
 10
-14078.42643381219
 20
-5812.844465913444
 30
0.0
 11
-14080.908986926934
 21
-5812.674700052356
 31
0.0
  0
LINE
  5
13F
100
AcDbEntity
  8
Frei
  6
CONTINUOUS
 62
           7
100
AcDbLine
 10
-14080.943099048774
 20
-5813.173535058288
 30
0.0
 11
-14080.908986926934
 21
-5812.674700052356
 31
0.0
  0
LINE
  5
140
100
AcDbEntity
  8
Frei
  6
CONTINUOUS
 62
           7
100
AcDbLine
 10
-14073.070173928601
 20
-5799.624388279752
 30
0.0
 11
-14045.998954990187
 21
-5800.528109165391
 31
0.0
  0
LINE
  5
141
100
AcDbEntity
  8
Frei
  6
CONTINUOUS
 62
           7
100
AcDbLine
 10
-14075.132242956377
 20
-5801.48682629243
 30
0.0
 11
-14075.170170187146
 21
-5802.041451140236
 31
0.0
  0
LINE
  5
142
100
AcDbEntity
  8
Frei
  6
CONTINUOUS
 62
           7
100
AcDbLine
 10
-14047.977458056866
 20
-5829.460539509471
 30
0.0
 11
-14076.909888400951
 21
-5827.482036442789
 31
0.0
  0
LINE
  5
143
100
AcDbEntity
  8
Frei
  6
CONTINUOUS
 62
           7
100
AcDbLine
 10
-14076.978112644629
 20
-5828.479706454655
 30
0.0
 11
-14076.909888400951
 21
-5827.482036442789
 31
0.0
  0
LINE
  5
144
100
AcDbEntity
  8
Frei
  6
CONTINUOUS
 62
           7
100
AcDbLine
 10
-14076.479277638697
 20
-5828.513818576494
 30
0.0
 11
-14076.978112644629
 21
-5828.479706454655
 31
0.0
  0
LINE
  5
145
100
AcDbEntity
  8
Frei
  6
CONTINUOUS
 62
           7
100
AcDbLine
 10
-14047.977458056866
 20
-5829.460539509471
 30
0.0
 11
-14048.045682300548
 21
-5830.458209521335
 31
0.0
  0
LINE
  5
146
100
AcDbEntity
  8
Frei
  6
CONTINUOUS
 62
           7
100
AcDbLine
 10
-14087.841727931103
 20
-5840.76717417211
 30
0.0
 11
-14077.366192806519
 21
-5841.483528730738
 31
0.0
  0
LINE
  5
147
100
AcDbEntity
  8
Frei
  6
CONTINUOUS
 62
           7
100
AcDbLine
 10
-14090.429820847759
 20
-5856.627557996431
 30
0.0
 11
-14090.463932969596
 21
-5857.126393002362
 31
0.0
  0
LINE
  5
148
100
AcDbEntity
  8
Frei
  6
CONTINUOUS
 62
           7
100
AcDbLine
 10
-14089.069764317319
 20
-5858.72523438568
 30
0.0
 11
-14078.594229192739
 21
-5859.441588944306
 31
0.0
  0
LINE
  5
149
100
AcDbEntity
  8
Frei
  6
CONTINUOUS
 62
           7
100
AcDbLine
 10
-14078.355444339864
 20
-5855.949743902778
 30
0.0
 11
-14076.479277638697
 21
-5828.513818576494
 31
0.0
  0
LINE
  5
14A
100
AcDbEntity
  8
Frei
  6
CONTINUOUS
 62
           7
100
AcDbLine
 10
-14048.54451730648
 20
-5830.424097399498
 30
0.0
 11
-14076.479277638697
 21
-5828.513818576494
 31
0.0
  0
LINE
  5
14B
100
AcDbEntity
  8
Frei
  6
CONTINUOUS
 62
           7
100
AcDbLine
 10
-14076.961275687583
 20
-5857.548585286093
 30
0.0
 11
-14071.011070358447
 21
-5857.955481608009
 31
0.0
  0
LINE
  5
14C
100
AcDbEntity
  8
Frei
  6
CONTINUOUS
 62
           7
100
AcDbLine
 10
-14050.420684007644
 20
-5857.860022725783
 30
0.0
 11
-14048.54451730648
 21
-5830.424097399498
 31
0.0
  0
LINE
  5
14D
100
AcDbEntity
  8
Frei
  6
CONTINUOUS
 62
           7
100
AcDbLine
 10
-14048.045682300548
 20
-5830.458209521335
 30
0.0
 11
-14048.54451730648
 21
-5830.424097399498
 31
0.0
  0
LINE
  5
14E
100
AcDbEntity
  8
Frei
  6
CONTINUOUS
 62
           7
100
AcDbLine
 10
-14071.011070358447
 20
-5857.955481608009
 30
0.0
 11
-14078.594229192739
 21
-5859.441588944306
 31
0.0
  0
LINE
  5
14F
100
AcDbEntity
  8
Frei
  6
CONTINUOUS
 62
           7
100
AcDbLine
 10
-14052.019525390962
 20
-5859.254191378061
 30
0.0
 11
-14071.011070358447
 21
-5857.955481608009
 31
0.0
  0
LINE
  5
150
100
AcDbEntity
  8
Frei
  6
CONTINUOUS
 62
           7
100
AcDbLine
 10
-14094.463031495579
 20
-5842.319056611928
 30
0.0
 11
-14089.474681436255
 21
-5842.660177830323
 31
0.0
  0
LINE
  5
151
100
AcDbEntity
  8
Frei
  6
CONTINUOUS
 62
           7
100
AcDbLine
 10
-14089.440569314418
 20
-5842.161342824389
 30
0.0
 11
-14089.474681436255
 21
-5842.660177830323
 31
0.0
  0
LINE
  5
152
100
AcDbEntity
  8
Frei
  6
CONTINUOUS
 62
           7
100
AcDbLine
 10
-14095.418170907084
 20
-5856.286436778037
 30
0.0
 11
-14090.429820847759
 21
-5856.627557996431
 31
0.0
  0
LINE
  5
153
100
AcDbEntity
  8
Frei
  6
CONTINUOUS
 62
           7
100
AcDbLine
 10
-14090.361596604078
 20
-5855.629887984565
 30
0.0
 11
-14090.429820847759
 21
-5856.627557996431
 31
0.0
  0
LINE
  5
154
100
AcDbEntity
  8
Frei
  6
CONTINUOUS
 62
           2
100
AcDbLine
 10
-14089.542905679933
 20
-5843.657847842187
 30
0.0
 11
-14094.531255739261
 21
-5843.316726623792
 31
0.0
  0
LINE
  5
155
100
AcDbEntity
  8
Frei
  6
CONTINUOUS
 62
           7
100
AcDbLine
 10
-14089.474681436255
 20
-5842.660177830323
 30
0.0
 11
-14089.542905679933
 21
-5843.657847842187
 31
0.0
  0
LINE
  5
156
100
AcDbEntity
  8
Frei
  6
CONTINUOUS
 62
           2
100
AcDbLine
 10
-14090.361596604078
 20
-5855.629887984565
 30
0.0
 11
-14095.349946663402
 21
-5855.288766766173
 31
0.0
  0
LINE
  5
157
100
AcDbEntity
  8
Frei
  6
CONTINUOUS
 62
           7
100
AcDbLine
 10
-14089.542905679933
 20
-5843.657847842187
 30
0.0
 11
-14090.361596604078
 21
-5855.629887984565
 31
0.0
  0
LINE
  5
158
100
AcDbEntity
  8
Frei
  6
CONTINUOUS
 62
           7
100
AcDbLine
 10
-14046.374188330421
 20
-5806.015294230647
 30
0.0
 11
-14045.619961119159
 21
-5806.066870984922
 31
0.0
  0
LINE
  5
159
100
AcDbEntity
  8
Frei
  6
CONTINUOUS
 62
           7
100
AcDbLine
 10
-14045.998954990187
 20
-5800.528109165391
 30
0.0
 11
-14046.374188330421
 21
-5806.015294230647
 31
0.0
  0
LINE
  5
15A
100
AcDbEntity
  8
Frei
  6
CONTINUOUS
 62
           7
100
AcDbLine
 10
-14046.612973183295
 20
-5809.507139272175
 30
0.0
 11
-14045.858745972033
 21
-5809.55871602645
 31
0.0
  0
LINE
  5
15B
100
AcDbEntity
  8
Frei
  6
CONTINUOUS
 62
           7
100
AcDbLine
 10
-14046.374188330421
 20
-5806.015294230647
 30
0.0
 11
-14046.612973183295
 21
-5809.507139272175
 31
0.0
  0
LINE
  5
15C
100
AcDbEntity
  8
Frei
  6
CONTINUOUS
 62
           7
100
AcDbLine
 10
-14047.090542889047
 20
-5816.490829355227
 30
0.0
 11
-14046.336315677785
 21
-5816.542406109506
 31
0.0
  0
LINE
  5
15D
100
AcDbEntity
  8
Frei
  6
CONTINUOUS
 62
           7
100
AcDbLine
 10
-14046.612973183295
 20
-5809.507139272175
 30
0.0
 11
-14047.090542889047
 21
-5816.490829355227
 31
0.0
  0
LINE
  5
15E
100
AcDbEntity
  8
Frei
  6
CONTINUOUS
 62
           7
100
AcDbLine
 10
-14047.329327741925
 20
-5819.982674396755
 30
0.0
 11
-14046.575100530659
 21
-5820.03425115103
 31
0.0
  0
LINE
  5
15F
100
AcDbEntity
  8
Frei
  6
CONTINUOUS
 62
           7
100
AcDbLine
 10
-14047.090542889047
 20
-5816.490829355227
 30
0.0
 11
-14047.329327741925
 21
-5819.982674396755
 31
0.0
  0
LINE
  5
160
100
AcDbEntity
  8
Frei
  6
CONTINUOUS
 62
           7
100
AcDbLine
 10
-14045.35525301837
 20
-5813.10132067922
 30
0.0
 11
-14044.997075739058
 21
-5807.863553116929
 31
0.0
  0
LINE
  5
161
100
AcDbEntity
  8
Frei
  6
CONTINUOUS
 62
           7
100
AcDbLine
 10
-14094.399705532218
 20
-5841.393016084168
 30
0.0
 11
-14094.310372634081
 21
-5840.086665896381
 31
0.0
  0
LINE
  5
162
100
AcDbEntity
  8
Frei
  6
CONTINUOUS
 62
           7
100
AcDbLine
 10
-14099.804958195335
 20
-5858.229282647977
 30
0.0
 11
-14095.570829768585
 21
-5858.518827493585
 31
0.0
  0
LINE
  5
163
100
AcDbEntity
  8
Frei
  6
CONTINUOUS
 62
           7
100
AcDbLine
 10
-14099.388055591538
 20
-5841.051894865774
 30
0.0
 11
-14094.399705532218
 21
-5841.393016084168
 31
0.0
  0
LINE
  5
164
100
AcDbEntity
  8
Frei
  6
CONTINUOUS
 62
           7
100
AcDbLine
 10
-14094.536154019574
 20
-5843.388356107897
 30
0.0
 11
-14094.399705532218
 21
-5841.393016084168
 31
0.0
  0
LINE
  5
165
100
AcDbEntity
  8
Frei
  6
CONTINUOUS
 62
           7
100
AcDbLine
 10
-14094.536154019574
 20
-5843.388356107897
 30
0.0
 11
-14099.524504078898
 21
-5843.047234889504
 31
0.0
  0
LINE
  5
166
100
AcDbEntity
  8
Frei
  6
CONTINUOUS
 62
           7
100
AcDbLine
 10
-14099.388055591538
 20
-5841.051894865774
 30
0.0
 11
-14099.524504078898
 21
-5843.047234889504
 31
0.0
  0
LINE
  5
167
100
AcDbEntity
  8
Frei
  6
CONTINUOUS
 62
           7
100
AcDbLine
 10
-14094.625486917703
 20
-5844.694706295681
 30
0.0
 11
-14094.536154019574
 21
-5843.388356107897
 31
0.0
  0
LINE
  5
168
100
AcDbEntity
  8
Frei
  6
CONTINUOUS
 62
           7
100
AcDbLine
 10
-14094.804152713976
 20
-5847.307406671253
 30
0.0
 11
-14094.625486917703
 21
-5844.694706295681
 31
0.0
  0
LINE
  5
169
100
AcDbEntity
  8
Frei
  6
CONTINUOUS
 62
           7
100
AcDbLine
 10
-14094.804152713976
 20
-5847.307406671253
 30
0.0
 11
-14099.7925027733
 21
-5846.96628545286
 31
0.0
  0
LINE
  5
16A
100
AcDbEntity
  8
Frei
  6
CONTINUOUS
 62
           7
100
AcDbLine
 10
-14099.524504078898
 20
-5843.047234889504
 30
0.0
 11
-14099.7925027733
 21
-5846.96628545286
 31
0.0
  0
LINE
  5
16B
100
AcDbEntity
  8
Frei
  6
CONTINUOUS
 62
           7
100
AcDbLine
 10
-14095.077049688691
 20
-5851.298086718713
 30
0.0
 11
-14094.804152713976
 21
-5847.307406671253
 31
0.0
  0
LINE
  5
16C
100
AcDbEntity
  8
Frei
  6
CONTINUOUS
 62
           7
100
AcDbLine
 10
-14095.077049688691
 20
-5851.298086718713
 30
0.0
 11
-14100.065399748015
 21
-5850.95696550032
 31
0.0
  0
LINE
  5
16D
100
AcDbEntity
  8
Frei
  6
CONTINUOUS
 62
           7
100
AcDbLine
 10
-14099.7925027733
 20
-5846.96628545286
 30
0.0
 11
-14100.065399748015
 21
-5850.95696550032
 31
0.0
  0
LINE
  5
16E
100
AcDbEntity
  8
Frei
  6
CONTINUOUS
 62
           7
100
AcDbLine
 10
-14095.255715484956
 20
-5853.910787094284
 30
0.0
 11
-14095.077049688691
 21
-5851.298086718713
 31
0.0
  0
LINE
  5
16F
100
AcDbEntity
  8
Frei
  6
CONTINUOUS
 62
           7
100
AcDbLine
 10
-14095.345048383089
 20
-5855.217137282069
 30
0.0
 11
-14095.255715484956
 21
-5853.910787094284
 31
0.0
  0
LINE
  5
170
100
AcDbEntity
  8
Frei
  6
CONTINUOUS
 62
           7
100
AcDbLine
 10
-14095.345048383089
 20
-5855.217137282069
 30
0.0
 11
-14100.333398442413
 21
-5854.876016063676
 31
0.0
  0
LINE
  5
171
100
AcDbEntity
  8
Frei
  6
CONTINUOUS
 62
           7
100
AcDbLine
 10
-14100.065399748015
 20
-5850.95696550032
 30
0.0
 11
-14100.333398442413
 21
-5854.876016063676
 31
0.0
  0
LINE
  5
172
100
AcDbEntity
  8
Frei
  6
CONTINUOUS
 62
           7
100
AcDbLine
 10
-14095.481496870449
 20
-5857.2124773058
 30
0.0
 11
-14095.345048383089
 21
-5855.217137282069
 31
0.0
  0
LINE
  5
173
100
AcDbEntity
  8
Frei
  6
CONTINUOUS
 62
           7
100
AcDbLine
 10
-14095.481496870449
 20
-5857.2124773058
 30
0.0
 11
-14100.469846929773
 21
-5856.871356087406
 31
0.0
  0
LINE
  5
174
100
AcDbEntity
  8
Frei
  6
CONTINUOUS
 62
           7
100
AcDbLine
 10
-14100.333398442413
 20
-5854.876016063676
 30
0.0
 11
-14100.469846929773
 21
-5856.871356087406
 31
0.0
  0
LINE
  5
175
100
AcDbEntity
  8
Frei
  6
CONTINUOUS
 62
           7
100
AcDbLine
 10
-14095.570829768585
 20
-5858.518827493585
 30
0.0
 11
-14095.481496870449
 21
-5857.2124773058
 31
0.0
  0
LINE
  5
176
100
AcDbEntity
  8
Frei
  6
CONTINUOUS
 62
           7
100
AcDbLine
 10
-14099.388055591538
 20
-5841.051894865774
 30
0.0
 11
-14098.544501060835
 21
-5839.797121050773
 31
0.0
  0
LINE
  5
177
100
AcDbEntity
  8
Frei
  6
CONTINUOUS
 62
           7
100
AcDbLine
 10
-14094.310372634081
 20
-5840.086665896381
 30
0.0
 11
-14098.544501060835
 21
-5839.797121050773
 31
0.0
  0
LINE
  5
178
100
AcDbEntity
  8
Frei
  6
CONTINUOUS
 62
           7
100
AcDbLine
 10
-14099.804958195335
 20
-5858.229282647977
 30
0.0
 11
-14100.469846929773
 21
-5856.871356087406
 31
0.0
  0
LINE
  5
179
100
AcDbEntity
  8
Frei
  6
CONTINUOUS
 62
           7
100
AcDbLine
 10
-14098.85961534446
 20
-5844.405161450073
 30
0.0
 11
-14099.524504078898
 21
-5843.047234889504
 31
0.0
  0
LINE
  5
17A
100
AcDbEntity
  8
Frei
  6
CONTINUOUS
 62
           7
100
AcDbLine
 10
-14094.625486917703
 20
-5844.694706295681
 30
0.0
 11
-14098.85961534446
 21
-5844.405161450073
 31
0.0
  0
LINE
  5
17B
100
AcDbEntity
  8
Frei
  6
CONTINUOUS
 62
           7
100
AcDbLine
 10
-14099.7925027733
 20
-5846.96628545286
 30
0.0
 11
-14098.85961534446
 21
-5844.405161450073
 31
0.0
  0
LINE
  5
17C
100
AcDbEntity
  8
Frei
  6
CONTINUOUS
 62
           7
100
AcDbLine
 10
-14099.489843911706
 20
-5853.621242248675
 30
0.0
 11
-14100.065399748015
 21
-5850.95696550032
 31
0.0
  0
LINE
  5
17D
100
AcDbEntity
  8
Frei
  6
CONTINUOUS
 62
           7
100
AcDbLine
 10
-14095.255715484956
 20
-5853.910787094284
 30
0.0
 11
-14099.489843911706
 21
-5853.621242248675
 31
0.0
  0
LINE
  5
17E
100
AcDbEntity
  8
Frei
  6
CONTINUOUS
 62
           7
100
AcDbLine
 10
-14100.333398442413
 20
-5854.876016063676
 30
0.0
 11
-14099.489843911706
 21
-5853.621242248675
 31
0.0
  0
LINE
  5
17F
100
AcDbEntity
  8
Frei
  6
CONTINUOUS
 62
           3
100
AcDbLine
 10
-14055.026978302369
 20
-5851.931949440945
 30
0.0
 11
-14072.985038515937
 21
-5850.703913054729
 31
0.0
  0
LINE
  5
180
100
AcDbEntity
  8
Frei
  6
CONTINUOUS
 62
           3
100
AcDbLine
 10
-14055.666514855693
 20
-5852.489616901856
 30
0.0
 11
-14055.026978302369
 21
-5851.931949440945
 31
0.0
  0
LINE
  5
181
100
AcDbEntity
  8
Frei
  6
CONTINUOUS
 62
           3
100
AcDbLine
 10
-14055.108847394782
 20
-5853.129153455184
 30
0.0
 11
-14055.666514855693
 21
-5852.489616901856
 31
0.0
  0
LINE
  5
182
100
AcDbEntity
  8
Frei
  6
CONTINUOUS
 62
           3
100
AcDbLine
 10
-14073.06690760835
 20
-5851.901117068966
 30
0.0
 11
-14055.108847394782
 21
-5853.129153455184
 31
0.0
  0
LINE
  5
183
100
AcDbEntity
  8
Frei
  6
CONTINUOUS
 62
           3
100
AcDbLine
 10
-14072.427371055026
 20
-5851.343449608054
 30
0.0
 11
-14073.06690760835
 21
-5851.901117068966
 31
0.0
  0
LINE
  5
184
100
AcDbEntity
  8
Frei
  6
CONTINUOUS
 62
           3
100
AcDbLine
 10
-14072.985038515937
 20
-5850.703913054729
 30
0.0
 11
-14072.427371055026
 21
-5851.343449608054
 31
0.0
  0
LINE
  5
185
100
AcDbEntity
  8
Frei
  6
CONTINUOUS
 62
           3
100
AcDbLine
 10
-14055.666514855693
 20
-5852.489616901856
 30
0.0
 11
-14072.427371055026
 21
-5851.343449608054
 31
0.0
  0
LINE
  5
186
100
AcDbEntity
  8
Frei
  6
CONTINUOUS
 62
           3
100
AcDbLine
 10
-14072.930459120995
 20
-5849.905777045236
 30
0.0
 11
-14072.290922567667
 21
-5849.348109584324
 31
0.0
  0
LINE
  5
187
100
AcDbEntity
  8
Frei
  6
CONTINUOUS
 62
           3
100
AcDbLine
 10
-14054.972398907423
 20
-5851.133813431454
 30
0.0
 11
-14072.930459120995
 21
-5849.905777045236
 31
0.0
  0
LINE
  5
188
100
AcDbEntity
  8
Frei
  6
CONTINUOUS
 62
           3
100
AcDbLine
 10
-14055.530066368337
 20
-5850.494276878126
 30
0.0
 11
-14054.972398907423
 21
-5851.133813431454
 31
0.0
  0
LINE
  5
189
100
AcDbEntity
  8
Frei
  6
CONTINUOUS
 62
           3
100
AcDbLine
 10
-14054.890529815009
 20
-5849.936609417217
 30
0.0
 11
-14055.530066368337
 21
-5850.494276878126
 31
0.0
  0
LINE
  5
18A
100
AcDbEntity
  8
Frei
  6
CONTINUOUS
 62
           3
100
AcDbLine
 10
-14072.848590028578
 20
-5848.708573031001
 30
0.0
 11
-14054.890529815009
 21
-5849.936609417217
 31
0.0
  0
LINE
  5
18B
100
AcDbEntity
  8
Frei
  6
CONTINUOUS
 62
           3
100
AcDbLine
 10
-14072.290922567667
 20
-5849.348109584324
 30
0.0
 11
-14072.848590028578
 21
-5848.708573031001
 31
0.0
  0
LINE
  5
18C
100
AcDbEntity
  8
Frei
  6
CONTINUOUS
 62
           3
100
AcDbLine
 10
-14072.290922567667
 20
-5849.348109584324
 30
0.0
 11
-14055.530066368337
 21
-5850.494276878126
 31
0.0
  0
LINE
  5
18D
100
AcDbEntity
  8
Frei
  6
CONTINUOUS
 62
           3
100
AcDbLine
 10
-14072.794010633635
 20
-5847.910437021505
 30
0.0
 11
-14072.154474080311
 21
-5847.352769560594
 31
0.0
  0
LINE
  5
18E
100
AcDbEntity
  8
Frei
  6
CONTINUOUS
 62
           3
100
AcDbLine
 10
-14054.835950420067
 20
-5849.138473407724
 30
0.0
 11
-14072.794010633635
 21
-5847.910437021505
 31
0.0
  0
LINE
  5
18F
100
AcDbEntity
  8
Frei
  6
CONTINUOUS
 62
           3
100
AcDbLine
 10
-14055.393617880978
 20
-5848.498936854396
 30
0.0
 11
-14054.835950420067
 21
-5849.138473407724
 31
0.0
  0
LINE
  5
190
100
AcDbEntity
  8
Frei
  6
CONTINUOUS
 62
           3
100
AcDbLine
 10
-14054.754081327654
 20
-5847.941269393485
 30
0.0
 11
-14055.393617880978
 21
-5848.498936854396
 31
0.0
  0
LINE
  5
191
100
AcDbEntity
  8
Frei
  6
CONTINUOUS
 62
           3
100
AcDbLine
 10
-14072.712141541222
 20
-5846.713233007269
 30
0.0
 11
-14054.754081327654
 21
-5847.941269393485
 31
0.0
  0
LINE
  5
192
100
AcDbEntity
  8
Frei
  6
CONTINUOUS
 62
           3
100
AcDbLine
 10
-14072.154474080311
 20
-5847.352769560594
 30
0.0
 11
-14072.712141541222
 21
-5846.713233007269
 31
0.0
  0
LINE
  5
193
100
AcDbEntity
  8
Frei
  6
CONTINUOUS
 62
           3
100
AcDbLine
 10
-14072.65756214628
 20
-5845.915096997776
 30
0.0
 11
-14072.018025592952
 21
-5845.357429536865
 31
0.0
  0
LINE
  5
194
100
AcDbEntity
  8
Frei
  6
CONTINUOUS
 62
           3
100
AcDbLine
 10
-14066.578839287919
 20
-5846.330781807998
 30
0.0
 11
-14072.65756214628
 21
-5845.915096997776
 31
0.0
  0
LINE
  5
195
100
AcDbEntity
  8
Frei
  6
CONTINUOUS
 62
           3
100
AcDbLine
 10
-14055.257169393622
 20
-5846.503596830667
 30
0.0
 11
-14054.699501932708
 21
-5847.143133383994
 31
0.0
  0
LINE
  5
196
100
AcDbEntity
  8
Frei
  6
CONTINUOUS
 62
           3
100
AcDbLine
 10
-14054.617632840294
 20
-5845.945929369756
 30
0.0
 11
-14055.257169393622
 21
-5846.503596830667
 31
0.0
  0
LINE
  5
197
100
AcDbEntity
  8
Frei
  6
CONTINUOUS
 62
           3
100
AcDbLine
 10
-14060.696355698652
 20
-5845.530244559535
 30
0.0
 11
-14054.617632840294
 21
-5845.945929369756
 31
0.0
  0
LINE
  5
198
100
AcDbEntity
  8
Frei
  6
CONTINUOUS
 62
           3
100
AcDbLine
 10
-14072.018025592952
 20
-5845.357429536865
 30
0.0
 11
-14072.575693053863
 21
-5844.717892983541
 31
0.0
  0
LINE
  5
199
100
AcDbEntity
  8
Frei
  6
CONTINUOUS
 62
           3
100
AcDbLine
 10
-14072.521113658921
 20
-5843.919756974048
 30
0.0
 11
-14071.881577105596
 21
-5843.362089513134
 31
0.0
  0
LINE
  5
19A
100
AcDbEntity
  8
Frei
  6
CONTINUOUS
 62
           3
100
AcDbLine
 10
-14067.186868224195
 20
-5844.28453175534
 30
0.0
 11
-14072.521113658921
 21
-5843.919756974048
 31
0.0
  0
LINE
  5
19B
100
AcDbEntity
  8
Frei
  6
CONTINUOUS
 62
           3
100
AcDbLine
 10
-14055.120720906263
 20
-5844.508256806936
 30
0.0
 11
-14054.563053445352
 21
-5845.147793360264
 31
0.0
  0
LINE
  5
19C
100
AcDbEntity
  8
Frei
  6
CONTINUOUS
 62
           3
100
AcDbLine
 10
-14060.454966340996
 20
-5844.143482025645
 30
0.0
 11
-14055.120720906263
 21
-5844.508256806936
 31
0.0
  0
LINE
  5
19D
100
AcDbEntity
  8
Frei
  6
CONTINUOUS
 62
           3
100
AcDbLine
 10
-14065.939302734594
 20
-5845.773114347086
 30
0.0
 11
-14072.018025592952
 21
-5845.357429536865
 31
0.0
  0
LINE
  5
19E
100
AcDbEntity
  8
Frei
  6
CONTINUOUS
 62
           3
100
AcDbLine
 10
-14055.393617880978
 20
-5848.498936854396
 30
0.0
 11
-14072.154474080311
 21
-5847.352769560594
 31
0.0
  0
LINE
  5
19F
100
AcDbEntity
  8
Frei
  6
CONTINUOUS
 62
           3
100
AcDbLine
 10
-14065.939302734594
 20
-5845.773114347086
 30
0.0
 11
-14066.496970195505
 21
-5845.133577793758
 31
0.0
  0
LINE
  5
1A0
100
AcDbEntity
  8
Frei
  6
CONTINUOUS
 62
           3
100
AcDbLine
 10
-14072.575693053863
 20
-5844.717892983541
 30
0.0
 11
-14066.496970195505
 21
-5845.133577793758
 31
0.0
  0
LINE
  5
1A1
100
AcDbEntity
  8
Frei
  6
CONTINUOUS
 62
           3
100
AcDbLine
 10
-14066.578839287919
 20
-5846.330781807998
 30
0.0
 11
-14065.939302734594
 21
-5845.773114347086
 31
0.0
  0
LINE
  5
1A2
100
AcDbEntity
  8
Frei
  6
CONTINUOUS
 62
           3
100
AcDbLine
 10
-14066.547331670867
 20
-5843.726864294431
 30
0.0
 11
-14067.186868224195
 21
-5844.28453175534
 31
0.0
  0
LINE
  5
1A3
100
AcDbEntity
  8
Frei
  6
CONTINUOUS
 62
           3
100
AcDbLine
 10
-14071.881577105596
 20
-5843.362089513134
 30
0.0
 11
-14066.547331670867
 21
-5843.726864294431
 31
0.0
  0
LINE
  5
1A4
100
AcDbEntity
  8
Frei
  6
CONTINUOUS
 62
           3
100
AcDbLine
 10
-14059.897298880078
 20
-5844.78301857897
 30
0.0
 11
-14060.454966340996
 21
-5844.143482025645
 31
0.0
  0
LINE
  5
1A5
100
AcDbEntity
  8
Frei
  6
CONTINUOUS
 62
           3
100
AcDbLine
 10
-14054.563053445352
 20
-5845.147793360264
 30
0.0
 11
-14059.897298880078
 21
-5844.78301857897
 31
0.0
  0
LINE
  5
1A6
100
AcDbEntity
  8
Frei
  6
CONTINUOUS
 62
           3
100
AcDbLine
 10
-14061.33589225198
 20
-5846.087912020448
 30
0.0
 11
-14060.696355698652
 21
-5845.530244559535
 31
0.0
  0
LINE
  5
1A7
100
AcDbEntity
  8
Frei
  6
CONTINUOUS
 62
           3
100
AcDbLine
 10
-14055.257169393622
 20
-5846.503596830667
 30
0.0
 11
-14061.33589225198
 21
-5846.087912020448
 31
0.0
  0
LINE
  5
1A8
100
AcDbEntity
  8
Frei
  6
CONTINUOUS
 62
           3
100
AcDbLine
 10
-14060.778224791065
 20
-5846.727448573774
 30
0.0
 11
-14061.33589225198
 21
-5846.087912020448
 31
0.0
  0
LINE
  5
1A9
100
AcDbEntity
  8
Frei
  6
CONTINUOUS
 62
           3
100
AcDbLine
 10
-14054.699501932708
 20
-5847.143133383994
 30
0.0
 11
-14060.778224791065
 21
-5846.727448573774
 31
0.0
  0
LINE
  5
1AA
100
AcDbEntity
  8
Frei
  6
CONTINUOUS
 62
           3
100
AcDbLine
 10
-14072.575693053863
 20
-5844.717892983541
 30
0.0
 11
-14072.65756214628
 21
-5845.915096997776
 31
0.0
  0
LINE
  5
1AB
100
AcDbEntity
  8
Frei
  6
CONTINUOUS
 62
           3
100
AcDbLine
 10
-14072.794010633635
 20
-5847.910437021505
 30
0.0
 11
-14072.712141541222
 21
-5846.713233007269
 31
0.0
  0
LINE
  5
1AC
100
AcDbEntity
  8
Frei
  6
CONTINUOUS
 62
           3
100
AcDbLine
 10
-14072.930459120995
 20
-5849.905777045236
 30
0.0
 11
-14072.848590028578
 21
-5848.708573031001
 31
0.0
  0
LINE
  5
1AD
100
AcDbEntity
  8
Frei
  6
CONTINUOUS
 62
           3
100
AcDbLine
 10
-14073.06690760835
 20
-5851.901117068966
 30
0.0
 11
-14072.985038515937
 21
-5850.703913054729
 31
0.0
  0
LINE
  5
1AE
100
AcDbEntity
  8
Frei
  6
CONTINUOUS
 62
           3
100
AcDbLine
 10
-14072.480179112714
 20
-5843.321154966927
 30
0.0
 11
-14072.521113658921
 21
-5843.919756974048
 31
0.0
  0
LINE
  5
1AF
100
AcDbEntity
  8
Frei
  6
CONTINUOUS
 62
           3
100
AcDbLine
 10
-14054.563053445352
 20
-5845.147793360264
 30
0.0
 11
-14054.522118899145
 21
-5844.549191353146
 31
0.0
  0
LINE
  5
1B0
100
AcDbEntity
  8
Frei
  6
CONTINUOUS
 62
           3
100
AcDbLine
 10
-14054.699501932708
 20
-5847.143133383994
 30
0.0
 11
-14054.617632840294
 21
-5845.945929369756
 31
0.0
  0
LINE
  5
1B1
100
AcDbEntity
  8
Frei
  6
CONTINUOUS
 62
           3
100
AcDbLine
 10
-14054.835950420067
 20
-5849.138473407724
 30
0.0
 11
-14054.754081327654
 21
-5847.941269393485
 31
0.0
  0
LINE
  5
1B2
100
AcDbEntity
  8
Frei
  6
CONTINUOUS
 62
           3
100
AcDbLine
 10
-14054.972398907423
 20
-5851.133813431454
 30
0.0
 11
-14054.890529815009
 21
-5849.936609417217
 31
0.0
  0
LINE
  5
1B3
100
AcDbEntity
  8
Frei
  6
CONTINUOUS
 62
           3
100
AcDbLine
 10
-14055.108847394782
 20
-5853.129153455184
 30
0.0
 11
-14055.026978302369
 21
-5851.931949440945
 31
0.0
  0
LINE
  5
1B4
100
AcDbEntity
  8
Frei
  6
CONTINUOUS
 62
           3
100
AcDbLine
 10
-14054.017259495926
 20
-5837.166433265345
 30
0.0
 11
-14053.935390403512
 21
-5835.969229251108
 31
0.0
  0
LINE
  5
1B5
100
AcDbEntity
  8
Frei
  6
CONTINUOUS
 62
           3
100
AcDbLine
 10
-14054.153707983281
 20
-5839.161773289075
 30
0.0
 11
-14054.071838890868
 21
-5837.964569274836
 31
0.0
  0
LINE
  5
1B6
100
AcDbEntity
  8
Frei
  6
CONTINUOUS
 62
           3
100
AcDbLine
 10
-14054.290156470637
 20
-5841.157113312805
 30
0.0
 11
-14054.208287378224
 21
-5839.959909298566
 31
0.0
  0
LINE
  5
1B7
100
AcDbEntity
  8
Frei
  6
CONTINUOUS
 62
           3
100
AcDbLine
 10
-14054.426604957993
 20
-5843.152453336536
 30
0.0
 11
-14054.344735865579
 21
-5841.955249322296
 31
0.0
  0
LINE
  5
1B8
100
AcDbEntity
  8
Frei
  6
CONTINUOUS
 62
           3
100
AcDbLine
 10
-14054.522118899145
 20
-5844.549191353146
 30
0.0
 11
-14054.481184352939
 21
-5843.950589346025
 31
0.0
  0
LINE
  5
1B9
100
AcDbEntity
  8
Frei
  6
CONTINUOUS
 62
           3
100
AcDbLine
 10
-14072.439244566507
 20
-5842.722552959811
 30
0.0
 11
-14072.480179112714
 21
-5843.321154966927
 31
0.0
  0
LINE
  5
1BA
100
AcDbEntity
  8
Frei
  6
CONTINUOUS
 62
           3
100
AcDbLine
 10
-14071.975319709491
 20
-5835.938396879128
 30
0.0
 11
-14071.893450617077
 21
-5834.741192864891
 31
0.0
  0
LINE
  5
1BB
100
AcDbEntity
  8
Frei
  6
CONTINUOUS
 62
           3
100
AcDbLine
 10
-14072.11176819685
 20
-5837.933736902858
 30
0.0
 11
-14072.029899104436
 21
-5836.736532888621
 31
0.0
  0
LINE
  5
1BC
100
AcDbEntity
  8
Frei
  6
CONTINUOUS
 62
           3
100
AcDbLine
 10
-14072.248216684206
 20
-5839.929076926588
 30
0.0
 11
-14072.166347591792
 21
-5838.731872912349
 31
0.0
  0
LINE
  5
1BD
100
AcDbEntity
  8
Frei
  6
CONTINUOUS
 62
           3
100
AcDbLine
 10
-14072.302796079151
 20
-5840.727212936081
 30
0.0
 11
-14072.384665171565
 21
-5841.924416950316
 31
0.0
  0
LINE
  5
1BE
100
AcDbEntity
  8
Frei
  6
CONTINUOUS
 62
           3
100
AcDbLine
 10
-14060.423458723937
 20
-5841.539564512077
 30
0.0
 11
-14054.344735865579
 21
-5841.955249322296
 31
0.0
  0
LINE
  5
1BF
100
AcDbEntity
  8
Frei
  6
CONTINUOUS
 62
           3
100
AcDbLine
 10
-14061.062995277265
 20
-5842.097231972988
 30
0.0
 11
-14060.423458723937
 21
-5841.539564512077
 31
0.0
  0
LINE
  5
1C0
100
AcDbEntity
  8
Frei
  6
CONTINUOUS
 62
           3
100
AcDbLine
 10
-14061.062995277265
 20
-5842.097231972988
 30
0.0
 11
-14054.984272418907
 21
-5842.512916783207
 31
0.0
  0
LINE
  5
1C1
100
AcDbEntity
  8
Frei
  6
CONTINUOUS
 62
           3
100
AcDbLine
 10
-14060.505327816354
 20
-5842.736768526314
 30
0.0
 11
-14061.062995277265
 21
-5842.097231972988
 31
0.0
  0
LINE
  5
1C2
100
AcDbEntity
  8
Frei
  6
CONTINUOUS
 62
           3
100
AcDbLine
 10
-14059.815429787664
 20
-5843.585814564734
 30
0.0
 11
-14054.481184352939
 21
-5843.950589346025
 31
0.0
  0
LINE
  5
1C3
100
AcDbEntity
  8
Frei
  6
CONTINUOUS
 62
           3
100
AcDbLine
 10
-14060.454966340996
 20
-5844.143482025645
 30
0.0
 11
-14059.815429787664
 21
-5843.585814564734
 31
0.0
  0
LINE
  5
1C4
100
AcDbEntity
  8
Frei
  6
CONTINUOUS
 62
           3
100
AcDbLine
 10
-14067.104999131778
 20
-5843.087327741103
 30
0.0
 11
-14066.547331670867
 21
-5843.726864294431
 31
0.0
  0
LINE
  5
1C5
100
AcDbEntity
  8
Frei
  6
CONTINUOUS
 62
           3
100
AcDbLine
 10
-14065.666405759879
 20
-5841.782434299626
 30
0.0
 11
-14066.22407322079
 21
-5841.142897746298
 31
0.0
  0
LINE
  5
1C6
100
AcDbEntity
  8
Frei
  6
CONTINUOUS
 62
           3
100
AcDbLine
 10
-14066.305942313204
 20
-5842.340101760537
 30
0.0
 11
-14072.384665171565
 21
-5841.924416950316
 31
0.0
  0
LINE
  5
1C7
100
AcDbEntity
  8
Frei
  6
CONTINUOUS
 62
           3
100
AcDbLine
 10
-14066.305942313204
 20
-5842.340101760537
 30
0.0
 11
-14065.666405759879
 21
-5841.782434299626
 31
0.0
  0
LINE
  5
1C8
100
AcDbEntity
  8
Frei
  6
CONTINUOUS
 62
           3
100
AcDbLine
 10
-14071.608680130881
 20
-5839.371409465675
 30
0.0
 11
-14054.847823931548
 21
-5840.517576759479
 31
0.0
  0
LINE
  5
1C9
100
AcDbEntity
  8
Frei
  6
CONTINUOUS
 62
           3
100
AcDbLine
 10
-14071.745128618237
 20
-5841.366749489405
 30
0.0
 11
-14065.666405759879
 21
-5841.782434299626
 31
0.0
  0
LINE
  5
1CA
100
AcDbEntity
  8
Frei
  6
CONTINUOUS
 62
           3
100
AcDbLine
 10
-14054.481184352939
 20
-5843.950589346025
 30
0.0
 11
-14055.120720906263
 21
-5844.508256806936
 31
0.0
  0
LINE
  5
1CB
100
AcDbEntity
  8
Frei
  6
CONTINUOUS
 62
           3
100
AcDbLine
 10
-14072.439244566507
 20
-5842.722552959811
 30
0.0
 11
-14067.104999131778
 21
-5843.087327741103
 31
0.0
  0
LINE
  5
1CC
100
AcDbEntity
  8
Frei
  6
CONTINUOUS
 62
           3
100
AcDbLine
 10
-14071.881577105596
 20
-5843.362089513134
 30
0.0
 11
-14072.439244566507
 21
-5842.722552959811
 31
0.0
  0
LINE
  5
1CD
100
AcDbEntity
  8
Frei
  6
CONTINUOUS
 62
           3
100
AcDbLine
 10
-14072.384665171565
 20
-5841.924416950316
 30
0.0
 11
-14071.745128618237
 21
-5841.366749489405
 31
0.0
  0
LINE
  5
1CE
100
AcDbEntity
  8
Frei
  6
CONTINUOUS
 62
           3
100
AcDbLine
 10
-14054.426604957993
 20
-5843.152453336536
 30
0.0
 11
-14060.505327816354
 21
-5842.736768526314
 31
0.0
  0
LINE
  5
1CF
100
AcDbEntity
  8
Frei
  6
CONTINUOUS
 62
           3
100
AcDbLine
 10
-14054.984272418907
 20
-5842.512916783207
 30
0.0
 11
-14054.426604957993
 21
-5843.152453336536
 31
0.0
  0
LINE
  5
1D0
100
AcDbEntity
  8
Frei
  6
CONTINUOUS
 62
           3
100
AcDbLine
 10
-14054.344735865579
 20
-5841.955249322296
 30
0.0
 11
-14054.984272418907
 21
-5842.512916783207
 31
0.0
  0
LINE
  5
1D1
100
AcDbEntity
  8
Frei
  6
CONTINUOUS
 62
           3
100
AcDbLine
 10
-14072.302796079151
 20
-5840.727212936081
 30
0.0
 11
-14066.22407322079
 21
-5841.142897746298
 31
0.0
  0
LINE
  5
1D2
100
AcDbEntity
  8
Frei
  6
CONTINUOUS
 62
           3
100
AcDbLine
 10
-14071.745128618237
 20
-5841.366749489405
 30
0.0
 11
-14072.302796079151
 21
-5840.727212936081
 31
0.0
  0
LINE
  5
1D3
100
AcDbEntity
  8
Frei
  6
CONTINUOUS
 62
           3
100
AcDbLine
 10
-14072.248216684206
 20
-5839.929076926588
 30
0.0
 11
-14071.608680130881
 21
-5839.371409465675
 31
0.0
  0
LINE
  5
1D4
100
AcDbEntity
  8
Frei
  6
CONTINUOUS
 62
           3
100
AcDbLine
 10
-14054.290156470637
 20
-5841.157113312805
 30
0.0
 11
-14072.248216684206
 21
-5839.929076926588
 31
0.0
  0
LINE
  5
1D5
100
AcDbEntity
  8
Frei
  6
CONTINUOUS
 62
           3
100
AcDbLine
 10
-14054.847823931548
 20
-5840.517576759479
 30
0.0
 11
-14054.290156470637
 21
-5841.157113312805
 31
0.0
  0
LINE
  5
1D6
100
AcDbEntity
  8
Frei
  6
CONTINUOUS
 62
           3
100
AcDbLine
 10
-14054.208287378224
 20
-5839.959909298566
 30
0.0
 11
-14054.847823931548
 21
-5840.517576759479
 31
0.0
  0
LINE
  5
1D7
100
AcDbEntity
  8
Frei
  6
CONTINUOUS
 62
           3
100
AcDbLine
 10
-14072.166347591792
 20
-5838.731872912349
 30
0.0
 11
-14054.208287378224
 21
-5839.959909298566
 31
0.0
  0
LINE
  5
1D8
100
AcDbEntity
  8
Frei
  6
CONTINUOUS
 62
           3
100
AcDbLine
 10
-14071.608680130881
 20
-5839.371409465675
 30
0.0
 11
-14072.166347591792
 21
-5838.731872912349
 31
0.0
  0
LINE
  5
1D9
100
AcDbEntity
  8
Frei
  6
CONTINUOUS
 62
           3
100
AcDbLine
 10
-14054.711375444193
 20
-5838.522236735747
 30
0.0
 11
-14071.472231643522
 21
-5837.376069441945
 31
0.0
  0
LINE
  5
1DA
100
AcDbEntity
  8
Frei
  6
CONTINUOUS
 62
           3
100
AcDbLine
 10
-14072.11176819685
 20
-5837.933736902858
 30
0.0
 11
-14071.472231643522
 21
-5837.376069441945
 31
0.0
  0
LINE
  5
1DB
100
AcDbEntity
  8
Frei
  6
CONTINUOUS
 62
           3
100
AcDbLine
 10
-14054.153707983281
 20
-5839.161773289075
 30
0.0
 11
-14072.11176819685
 21
-5837.933736902858
 31
0.0
  0
LINE
  5
1DC
100
AcDbEntity
  8
Frei
  6
CONTINUOUS
 62
           3
100
AcDbLine
 10
-14054.711375444193
 20
-5838.522236735747
 30
0.0
 11
-14054.153707983281
 21
-5839.161773289075
 31
0.0
  0
LINE
  5
1DD
100
AcDbEntity
  8
Frei
  6
CONTINUOUS
 62
           3
100
AcDbLine
 10
-14054.071838890868
 20
-5837.964569274836
 30
0.0
 11
-14054.711375444193
 21
-5838.522236735747
 31
0.0
  0
LINE
  5
1DE
100
AcDbEntity
  8
Frei
  6
CONTINUOUS
 62
           3
100
AcDbLine
 10
-14072.029899104436
 20
-5836.736532888621
 30
0.0
 11
-14054.071838890868
 21
-5837.964569274836
 31
0.0
  0
LINE
  5
1DF
100
AcDbEntity
  8
Frei
  6
CONTINUOUS
 62
           3
100
AcDbLine
 10
-14071.472231643522
 20
-5837.376069441945
 30
0.0
 11
-14072.029899104436
 21
-5836.736532888621
 31
0.0
  0
LINE
  5
1E0
100
AcDbEntity
  8
Frei
  6
CONTINUOUS
 62
           3
100
AcDbLine
 10
-14071.335783156166
 20
-5835.380729418215
 30
0.0
 11
-14054.574926956833
 21
-5836.526896712019
 31
0.0
  0
LINE
  5
1E1
100
AcDbEntity
  8
Frei
  6
CONTINUOUS
 62
           3
100
AcDbLine
 10
-14071.335783156166
 20
-5835.380729418215
 30
0.0
 11
-14071.975319709491
 21
-5835.938396879128
 31
0.0
  0
LINE
  5
1E2
100
AcDbEntity
  8
Frei
  6
CONTINUOUS
 62
           3
100
AcDbLine
 10
-14071.893450617077
 20
-5834.741192864891
 30
0.0
 11
-14071.335783156166
 21
-5835.380729418215
 31
0.0
  0
LINE
  5
1E3
100
AcDbEntity
  8
Frei
  6
CONTINUOUS
 62
           3
100
AcDbLine
 10
-14053.935390403512
 20
-5835.969229251108
 30
0.0
 11
-14071.893450617077
 21
-5834.741192864891
 31
0.0
  0
LINE
  5
1E4
100
AcDbEntity
  8
Frei
  6
CONTINUOUS
 62
           3
100
AcDbLine
 10
-14054.574926956833
 20
-5836.526896712019
 30
0.0
 11
-14053.935390403512
 21
-5835.969229251108
 31
0.0
  0
LINE
  5
1E5
100
AcDbEntity
  8
Frei
  6
CONTINUOUS
 62
           3
100
AcDbLine
 10
-14054.017259495926
 20
-5837.166433265345
 30
0.0
 11
-14054.574926956833
 21
-5836.526896712019
 31
0.0
  0
LINE
  5
1E6
100
AcDbEntity
  8
Frei
  6
CONTINUOUS
 62
           3
100
AcDbLine
 10
-14071.975319709491
 20
-5835.938396879128
 30
0.0
 11
-14054.017259495926
 21
-5837.166433265345
 31
0.0
  0
LINE
  5
1E7
100
AcDbEntity
  8
Frei
  6
CONTINUOUS
 62
           3
100
AcDbLine
 10
-13881.420347443298
 20
-5848.969227421761
 30
0.0
 11
-13863.46228722973
 21
-5850.197263807979
 31
0.0
  0
LINE
  5
1E8
100
AcDbEntity
  8
Frei
  6
CONTINUOUS
 62
           3
100
AcDbLine
 10
-13880.780810889974
 20
-5848.41155996085
 30
0.0
 11
-13881.420347443298
 21
-5848.969227421761
 31
0.0
  0
LINE
  5
1E9
100
AcDbEntity
  8
Frei
  6
CONTINUOUS
 62
           3
100
AcDbLine
 10
-13881.338478350885
 20
-5847.772023407526
 30
0.0
 11
-13880.780810889974
 21
-5848.41155996085
 31
0.0
  0
LINE
  5
1EA
100
AcDbEntity
  8
Frei
  6
CONTINUOUS
 62
           3
100
AcDbLine
 10
-13863.380418137316
 20
-5849.000059793742
 30
0.0
 11
-13881.338478350885
 21
-5847.772023407526
 31
0.0
  0
LINE
  5
1EB
100
AcDbEntity
  8
Frei
  6
CONTINUOUS
 62
           3
100
AcDbLine
 10
-13864.019954690641
 20
-5849.557727254653
 30
0.0
 11
-13863.380418137316
 21
-5849.000059793742
 31
0.0
  0
LINE
  5
1EC
100
AcDbEntity
  8
Frei
  6
CONTINUOUS
 62
           3
100
AcDbLine
 10
-13863.46228722973
 20
-5850.197263807979
 30
0.0
 11
-13864.019954690641
 21
-5849.557727254653
 31
0.0
  0
LINE
  5
1ED
100
AcDbEntity
  8
Frei
  6
CONTINUOUS
 62
           3
100
AcDbLine
 10
-13880.780810889974
 20
-5848.41155996085
 30
0.0
 11
-13864.019954690641
 21
-5849.557727254653
 31
0.0
  0
LINE
  5
1EE
100
AcDbEntity
  8
Frei
  6
CONTINUOUS
 62
           3
100
AcDbLine
 10
-13863.516866624672
 20
-5850.99539981747
 30
0.0
 11
-13864.156403178
 21
-5851.553067278383
 31
0.0
  0
LINE
  5
1EF
100
AcDbEntity
  8
Frei
  6
CONTINUOUS
 62
           3
100
AcDbLine
 10
-13881.47492683824
 20
-5849.767363431254
 30
0.0
 11
-13863.516866624672
 21
-5850.99539981747
 31
0.0
  0
LINE
  5
1F0
100
AcDbEntity
  8
Frei
  6
CONTINUOUS
 62
           3
100
AcDbLine
 10
-13880.917259377329
 20
-5850.406899984579
 30
0.0
 11
-13881.47492683824
 21
-5849.767363431254
 31
0.0
  0
LINE
  5
1F1
100
AcDbEntity
  8
Frei
  6
CONTINUOUS
 62
           3
100
AcDbLine
 10
-13881.556795930654
 20
-5850.964567445491
 30
0.0
 11
-13880.917259377329
 21
-5850.406899984579
 31
0.0
  0
LINE
  5
1F2
100
AcDbEntity
  8
Frei
  6
CONTINUOUS
 62
           3
100
AcDbLine
 10
-13863.598735717085
 20
-5852.192603831709
 30
0.0
 11
-13881.556795930654
 21
-5850.964567445491
 31
0.0
  0
LINE
  5
1F3
100
AcDbEntity
  8
Frei
  6
CONTINUOUS
 62
           3
100
AcDbLine
 10
-13864.156403178
 20
-5851.553067278383
 30
0.0
 11
-13863.598735717085
 21
-5852.192603831709
 31
0.0
  0
LINE
  5
1F4
100
AcDbEntity
  8
Frei
  6
CONTINUOUS
 62
           3
100
AcDbLine
 10
-13864.156403178
 20
-5851.553067278383
 30
0.0
 11
-13880.917259377329
 21
-5850.406899984579
 31
0.0
  0
LINE
  5
1F5
100
AcDbEntity
  8
Frei
  6
CONTINUOUS
 62
           3
100
AcDbLine
 10
-13863.653315112031
 20
-5852.9907398412
 30
0.0
 11
-13864.292851665356
 21
-5853.548407302113
 31
0.0
  0
LINE
  5
1F6
100
AcDbEntity
  8
Frei
  6
CONTINUOUS
 62
           3
100
AcDbLine
 10
-13881.611375325596
 20
-5851.762703454982
 30
0.0
 11
-13863.653315112031
 21
-5852.9907398412
 31
0.0
  0
LINE
  5
1F7
100
AcDbEntity
  8
Frei
  6
CONTINUOUS
 62
           3
100
AcDbLine
 10
-13881.053707864688
 20
-5852.40224000831
 30
0.0
 11
-13881.611375325596
 21
-5851.762703454982
 31
0.0
  0
LINE
  5
1F8
100
AcDbEntity
  8
Frei
  6
CONTINUOUS
 62
           3
100
AcDbLine
 10
-13881.693244418013
 20
-5852.959907469221
 30
0.0
 11
-13881.053707864688
 21
-5852.40224000831
 31
0.0
  0
LINE
  5
1F9
100
AcDbEntity
  8
Frei
  6
CONTINUOUS
 62
           3
100
AcDbLine
 10
-13863.735184204445
 20
-5854.187943855437
 30
0.0
 11
-13881.693244418013
 21
-5852.959907469221
 31
0.0
  0
LINE
  5
1FA
100
AcDbEntity
  8
Frei
  6
CONTINUOUS
 62
           3
100
AcDbLine
 10
-13864.292851665356
 20
-5853.548407302113
 30
0.0
 11
-13863.735184204445
 21
-5854.187943855437
 31
0.0
  0
LINE
  5
1FB
100
AcDbEntity
  8
Frei
  6
CONTINUOUS
 62
           3
100
AcDbLine
 10
-13863.789763599387
 20
-5854.98607986493
 30
0.0
 11
-13864.429300152715
 21
-5855.543747325841
 31
0.0
  0
LINE
  5
1FC
100
AcDbEntity
  8
Frei
  6
CONTINUOUS
 62
           3
100
AcDbLine
 10
-13869.868486457744
 20
-5854.57039505471
 30
0.0
 11
-13863.789763599387
 21
-5854.98607986493
 31
0.0
  0
LINE
  5
1FD
100
AcDbEntity
  8
Frei
  6
CONTINUOUS
 62
           3
100
AcDbLine
 10
-13881.190156352044
 20
-5854.397580032039
 30
0.0
 11
-13881.747823812955
 21
-5853.758043478714
 31
0.0
  0
LINE
  5
1FE
100
AcDbEntity
  8
Frei
  6
CONTINUOUS
 62
           3
100
AcDbLine
 10
-13881.829692905369
 20
-5854.955247492952
 30
0.0
 11
-13881.190156352044
 21
-5854.397580032039
 31
0.0
  0
LINE
  5
1FF
100
AcDbEntity
  8
Frei
  6
CONTINUOUS
 62
           3
100
AcDbLine
 10
-13875.750970047015
 20
-5855.370932303171
 30
0.0
 11
-13881.829692905369
 21
-5854.955247492952
 31
0.0
  0
LINE
  5
200
100
AcDbEntity
  8
Frei
  6
CONTINUOUS
 62
           3
100
AcDbLine
 10
-13864.429300152715
 20
-5855.543747325841
 30
0.0
 11
-13863.8716326918
 21
-5856.183283879169
 31
0.0
  0
LINE
  5
201
100
AcDbEntity
  8
Frei
  6
CONTINUOUS
 62
           3
100
AcDbLine
 10
-13863.926212086746
 20
-5856.981419888662
 30
0.0
 11
-13864.565748640071
 21
-5857.539087349573
 31
0.0
  0
LINE
  5
202
100
AcDbEntity
  8
Frei
  6
CONTINUOUS
 62
           3
100
AcDbLine
 10
-13869.260457521475
 20
-5856.616645107368
 30
0.0
 11
-13863.926212086746
 21
-5856.981419888662
 31
0.0
  0
LINE
  5
203
100
AcDbEntity
  8
Frei
  6
CONTINUOUS
 62
           3
100
AcDbLine
 10
-13881.326604839403
 20
-5856.39292005577
 30
0.0
 11
-13881.884272300314
 21
-5855.753383502442
 31
0.0
  0
LINE
  5
204
100
AcDbEntity
  8
Frei
  6
CONTINUOUS
 62
           3
100
AcDbLine
 10
-13870.508023011073
 20
-5855.128062515623
 30
0.0
 11
-13864.429300152715
 21
-5855.543747325841
 31
0.0
  0
LINE
  5
205
100
AcDbEntity
  8
Frei
  6
CONTINUOUS
 62
           3
100
AcDbLine
 10
-13881.053707864688
 20
-5852.40224000831
 30
0.0
 11
-13864.292851665356
 21
-5853.548407302113
 31
0.0
  0
LINE
  5
206
100
AcDbEntity
  8
Frei
  6
CONTINUOUS
 62
           3
100
AcDbLine
 10
-13870.508023011073
 20
-5855.128062515623
 30
0.0
 11
-13869.950355550161
 21
-5855.767599068948
 31
0.0
  0
LINE
  5
207
100
AcDbEntity
  8
Frei
  6
CONTINUOUS
 62
           3
100
AcDbLine
 10
-13863.8716326918
 20
-5856.183283879169
 30
0.0
 11
-13869.950355550161
 21
-5855.767599068948
 31
0.0
  0
LINE
  5
208
100
AcDbEntity
  8
Frei
  6
CONTINUOUS
 62
           3
100
AcDbLine
 10
-13869.868486457744
 20
-5854.57039505471
 30
0.0
 11
-13870.508023011073
 21
-5855.128062515623
 31
0.0
  0
LINE
  5
209
100
AcDbEntity
  8
Frei
  6
CONTINUOUS
 62
           3
100
AcDbLine
 10
-13869.899994074804
 20
-5857.174312568279
 30
0.0
 11
-13869.260457521475
 21
-5856.616645107368
 31
0.0
  0
LINE
  5
20A
100
AcDbEntity
  8
Frei
  6
CONTINUOUS
 62
           3
100
AcDbLine
 10
-13876.550026865585
 20
-5856.118158283736
 30
0.0
 11
-13875.992359404674
 21
-5856.757694837064
 31
0.0
  0
LINE
  5
20B
100
AcDbEntity
  8
Frei
  6
CONTINUOUS
 62
           3
100
AcDbLine
 10
-13881.884272300314
 20
-5855.753383502442
 30
0.0
 11
-13876.550026865585
 21
-5856.118158283736
 31
0.0
  0
LINE
  5
20C
100
AcDbEntity
  8
Frei
  6
CONTINUOUS
 62
           3
100
AcDbLine
 10
-13875.111433493686
 20
-5854.813264842258
 30
0.0
 11
-13875.750970047015
 21
-5855.370932303171
 31
0.0
  0
LINE
  5
20D
100
AcDbEntity
  8
Frei
  6
CONTINUOUS
 62
           3
100
AcDbLine
 10
-13881.190156352044
 20
-5854.397580032039
 30
0.0
 11
-13875.111433493686
 21
-5854.813264842258
 31
0.0
  0
LINE
  5
20E
100
AcDbEntity
  8
Frei
  6
CONTINUOUS
 62
           3
100
AcDbLine
 10
-13875.669100954598
 20
-5854.173728288935
 30
0.0
 11
-13875.111433493686
 21
-5854.813264842258
 31
0.0
  0
LINE
  5
20F
100
AcDbEntity
  8
Frei
  6
CONTINUOUS
 62
           3
100
AcDbLine
 10
-13881.747823812955
 20
-5853.758043478714
 30
0.0
 11
-13875.669100954598
 21
-5854.173728288935
 31
0.0
  0
LINE
  5
210
100
AcDbEntity
  8
Frei
  6
CONTINUOUS
 62
           3
100
AcDbLine
 10
-13863.8716326918
 20
-5856.183283879169
 30
0.0
 11
-13863.789763599387
 21
-5854.98607986493
 31
0.0
  0
LINE
  5
211
100
AcDbEntity
  8
Frei
  6
CONTINUOUS
 62
           3
100
AcDbLine
 10
-13863.653315112031
 20
-5852.9907398412
 30
0.0
 11
-13863.735184204445
 21
-5854.187943855437
 31
0.0
  0
LINE
  5
212
100
AcDbEntity
  8
Frei
  6
CONTINUOUS
 62
           3
100
AcDbLine
 10
-13863.516866624672
 20
-5850.99539981747
 30
0.0
 11
-13863.598735717085
 21
-5852.192603831709
 31
0.0
  0
LINE
  5
213
100
AcDbEntity
  8
Frei
  6
CONTINUOUS
 62
           3
100
AcDbLine
 10
-13863.380418137316
 20
-5849.000059793742
 30
0.0
 11
-13863.46228722973
 21
-5850.197263807979
 31
0.0
  0
LINE
  5
214
100
AcDbEntity
  8
Frei
  6
CONTINUOUS
 62
           3
100
AcDbLine
 10
-13863.967146632953
 20
-5857.580021895778
 30
0.0
 11
-13863.926212086746
 21
-5856.981419888662
 31
0.0
  0
LINE
  5
215
100
AcDbEntity
  8
Frei
  6
CONTINUOUS
 62
           3
100
AcDbLine
 10
-13881.884272300314
 20
-5855.753383502442
 30
0.0
 11
-13881.925206846521
 21
-5856.35198550956
 31
0.0
  0
LINE
  5
216
100
AcDbEntity
  8
Frei
  6
CONTINUOUS
 62
           3
100
AcDbLine
 10
-13881.747823812955
 20
-5853.758043478714
 30
0.0
 11
-13881.829692905369
 21
-5854.955247492952
 31
0.0
  0
LINE
  5
217
100
AcDbEntity
  8
Frei
  6
CONTINUOUS
 62
           3
100
AcDbLine
 10
-13881.611375325596
 20
-5851.762703454982
 30
0.0
 11
-13881.693244418013
 21
-5852.959907469221
 31
0.0
  0
LINE
  5
218
100
AcDbEntity
  8
Frei
  6
CONTINUOUS
 62
           3
100
AcDbLine
 10
-13881.47492683824
 20
-5849.767363431254
 30
0.0
 11
-13881.556795930654
 21
-5850.964567445491
 31
0.0
  0
LINE
  5
219
100
AcDbEntity
  8
Frei
  6
CONTINUOUS
 62
           3
100
AcDbLine
 10
-13881.338478350885
 20
-5847.772023407526
 30
0.0
 11
-13881.420347443298
 21
-5848.969227421761
 31
0.0
  0
LINE
  5
21A
100
AcDbEntity
  8
Frei
  6
CONTINUOUS
 62
           3
100
AcDbLine
 10
-13882.430066249741
 20
-5863.734743597363
 30
0.0
 11
-13882.511935342158
 21
-5864.9319476116
 31
0.0
  0
LINE
  5
21B
100
AcDbEntity
  8
Frei
  6
CONTINUOUS
 62
           3
100
AcDbLine
 10
-13882.293617762385
 20
-5861.739403573632
 30
0.0
 11
-13882.375486854802
 21
-5862.93660758787
 31
0.0
  0
LINE
  5
21C
100
AcDbEntity
  8
Frei
  6
CONTINUOUS
 62
           3
100
AcDbLine
 10
-13882.157169275029
 20
-5859.744063549902
 30
0.0
 11
-13882.239038367439
 21
-5860.941267564138
 31
0.0
  0
LINE
  5
21D
100
AcDbEntity
  8
Frei
  6
CONTINUOUS
 62
           3
100
AcDbLine
 10
-13882.02072078767
 20
-5857.748723526174
 30
0.0
 11
-13882.102589880084
 21
-5858.94592754041
 31
0.0
  0
LINE
  5
21E
100
AcDbEntity
  8
Frei
  6
CONTINUOUS
 62
           3
100
AcDbLine
 10
-13881.925206846521
 20
-5856.35198550956
 30
0.0
 11
-13881.966141392728
 21
-5856.950587516682
 31
0.0
  0
LINE
  5
21F
100
AcDbEntity
  8
Frei
  6
CONTINUOUS
 62
           3
100
AcDbLine
 10
-13864.008081179159
 20
-5858.178623902897
 30
0.0
 11
-13863.967146632953
 21
-5857.580021895778
 31
0.0
  0
LINE
  5
220
100
AcDbEntity
  8
Frei
  6
CONTINUOUS
 62
           3
100
AcDbLine
 10
-13864.472006036176
 20
-5864.962779983578
 30
0.0
 11
-13864.553875128589
 21
-5866.159983997817
 31
0.0
  0
LINE
  5
221
100
AcDbEntity
  8
Frei
  6
CONTINUOUS
 62
           3
100
AcDbLine
 10
-13864.335557548817
 20
-5862.96743995985
 30
0.0
 11
-13864.41742664123
 21
-5864.164643974089
 31
0.0
  0
LINE
  5
222
100
AcDbEntity
  8
Frei
  6
CONTINUOUS
 62
           3
100
AcDbLine
 10
-13864.199109061461
 20
-5860.972099936122
 30
0.0
 11
-13864.280978153874
 21
-5862.169303950357
 31
0.0
  0
LINE
  5
223
100
AcDbEntity
  8
Frei
  6
CONTINUOUS
 62
           3
100
AcDbLine
 10
-13864.144529666515
 20
-5860.173963926625
 30
0.0
 11
-13864.062660574102
 21
-5858.97675991239
 31
0.0
  0
LINE
  5
224
100
AcDbEntity
  8
Frei
  6
CONTINUOUS
 62
           3
100
AcDbLine
 10
-13876.02386702173
 20
-5859.361612350631
 30
0.0
 11
-13882.102589880084
 21
-5858.94592754041
 31
0.0
  0
LINE
  5
225
100
AcDbEntity
  8
Frei
  6
CONTINUOUS
 62
           3
100
AcDbLine
 10
-13875.384330468401
 20
-5858.80394488972
 30
0.0
 11
-13876.02386702173
 21
-5859.361612350631
 31
0.0
  0
LINE
  5
226
100
AcDbEntity
  8
Frei
  6
CONTINUOUS
 62
           3
100
AcDbLine
 10
-13875.384330468401
 20
-5858.80394488972
 30
0.0
 11
-13881.463053326763
 21
-5858.388260079499
 31
0.0
  0
LINE
  5
227
100
AcDbEntity
  8
Frei
  6
CONTINUOUS
 62
           3
100
AcDbLine
 10
-13875.941997929312
 20
-5858.164408336392
 30
0.0
 11
-13875.384330468401
 21
-5858.80394488972
 31
0.0
  0
LINE
  5
228
100
AcDbEntity
  8
Frei
  6
CONTINUOUS
 62
           3
100
AcDbLine
 10
-13876.631895958002
 20
-5857.315362297975
 30
0.0
 11
-13881.966141392728
 21
-5856.950587516682
 31
0.0
  0
LINE
  5
229
100
AcDbEntity
  8
Frei
  6
CONTINUOUS
 62
           3
100
AcDbLine
 10
-13875.992359404674
 20
-5856.757694837064
 30
0.0
 11
-13876.631895958002
 21
-5857.315362297975
 31
0.0
  0
LINE
  5
22A
100
AcDbEntity
  8
Frei
  6
CONTINUOUS
 62
           3
100
AcDbLine
 10
-13869.899994074804
 20
-5857.174312568279
 30
0.0
 11
-13864.565748640071
 21
-5857.539087349573
 31
0.0
  0
LINE
  5
22B
100
AcDbEntity
  8
Frei
  6
CONTINUOUS
 62
           3
100
AcDbLine
 10
-13869.342326613889
 20
-5857.813849121605
 30
0.0
 11
-13869.899994074804
 21
-5857.174312568279
 31
0.0
  0
LINE
  5
22C
100
AcDbEntity
  8
Frei
  6
CONTINUOUS
 62
           3
100
AcDbLine
 10
-13870.780919985787
 20
-5859.118742563083
 30
0.0
 11
-13870.223252524873
 21
-5859.758279116408
 31
0.0
  0
LINE
  5
22D
100
AcDbEntity
  8
Frei
  6
CONTINUOUS
 62
           3
100
AcDbLine
 10
-13870.141383432463
 20
-5858.561075102172
 30
0.0
 11
-13864.062660574102
 21
-5858.97675991239
 31
0.0
  0
LINE
  5
22E
100
AcDbEntity
  8
Frei
  6
CONTINUOUS
 62
           3
100
AcDbLine
 10
-13870.141383432463
 20
-5858.561075102172
 30
0.0
 11
-13870.780919985787
 21
-5859.118742563083
 31
0.0
  0
LINE
  5
22F
100
AcDbEntity
  8
Frei
  6
CONTINUOUS
 62
           3
100
AcDbLine
 10
-13864.838645614785
 20
-5861.529767397033
 30
0.0
 11
-13881.599501814118
 21
-5860.383600103231
 31
0.0
  0
LINE
  5
230
100
AcDbEntity
  8
Frei
  6
CONTINUOUS
 62
           3
100
AcDbLine
 10
-13864.70219712743
 20
-5859.534427373301
 30
0.0
 11
-13870.780919985787
 21
-5859.118742563083
 31
0.0
  0
LINE
  5
231
100
AcDbEntity
  8
Frei
  6
CONTINUOUS
 62
           3
100
AcDbLine
 10
-13881.326604839403
 20
-5856.39292005577
 30
0.0
 11
-13875.992359404674
 21
-5856.757694837064
 31
0.0
  0
LINE
  5
232
100
AcDbEntity
  8
Frei
  6
CONTINUOUS
 62
           3
100
AcDbLine
 10
-13881.966141392728
 20
-5856.950587516682
 30
0.0
 11
-13881.326604839403
 21
-5856.39292005577
 31
0.0
  0
LINE
  5
233
100
AcDbEntity
  8
Frei
  6
CONTINUOUS
 62
           3
100
AcDbLine
 10
-13864.008081179159
 20
-5858.178623902897
 30
0.0
 11
-13869.342326613889
 21
-5857.813849121605
 31
0.0
  0
LINE
  5
234
100
AcDbEntity
  8
Frei
  6
CONTINUOUS
 62
           3
100
AcDbLine
 10
-13864.565748640071
 20
-5857.539087349573
 30
0.0
 11
-13864.008081179159
 21
-5858.178623902897
 31
0.0
  0
LINE
  5
235
100
AcDbEntity
  8
Frei
  6
CONTINUOUS
 62
           3
100
AcDbLine
 10
-13864.062660574102
 20
-5858.97675991239
 30
0.0
 11
-13864.70219712743
 21
-5859.534427373301
 31
0.0
  0
LINE
  5
236
100
AcDbEntity
  8
Frei
  6
CONTINUOUS
 62
           3
100
AcDbLine
 10
-13882.02072078767
 20
-5857.748723526174
 30
0.0
 11
-13875.941997929312
 21
-5858.164408336392
 31
0.0
  0
LINE
  5
237
100
AcDbEntity
  8
Frei
  6
CONTINUOUS
 62
           3
100
AcDbLine
 10
-13881.463053326763
 20
-5858.388260079499
 30
0.0
 11
-13882.02072078767
 21
-5857.748723526174
 31
0.0
  0
LINE
  5
238
100
AcDbEntity
  8
Frei
  6
CONTINUOUS
 62
           3
100
AcDbLine
 10
-13882.102589880084
 20
-5858.94592754041
 30
0.0
 11
-13881.463053326763
 21
-5858.388260079499
 31
0.0
  0
LINE
  5
239
100
AcDbEntity
  8
Frei
  6
CONTINUOUS
 62
           3
100
AcDbLine
 10
-13864.144529666515
 20
-5860.173963926625
 30
0.0
 11
-13870.223252524873
 21
-5859.758279116408
 31
0.0
  0
LINE
  5
23A
100
AcDbEntity
  8
Frei
  6
CONTINUOUS
 62
           3
100
AcDbLine
 10
-13864.70219712743
 20
-5859.534427373301
 30
0.0
 11
-13864.144529666515
 21
-5860.173963926625
 31
0.0
  0
LINE
  5
23B
100
AcDbEntity
  8
Frei
  6
CONTINUOUS
 62
           3
100
AcDbLine
 10
-13864.199109061461
 20
-5860.972099936122
 30
0.0
 11
-13864.838645614785
 21
-5861.529767397033
 31
0.0
  0
LINE
  5
23C
100
AcDbEntity
  8
Frei
  6
CONTINUOUS
 62
           3
100
AcDbLine
 10
-13882.157169275029
 20
-5859.744063549902
 30
0.0
 11
-13864.199109061461
 21
-5860.972099936122
 31
0.0
  0
LINE
  5
23D
100
AcDbEntity
  8
Frei
  6
CONTINUOUS
 62
           3
100
AcDbLine
 10
-13881.599501814118
 20
-5860.383600103231
 30
0.0
 11
-13882.157169275029
 21
-5859.744063549902
 31
0.0
  0
LINE
  5
23E
100
AcDbEntity
  8
Frei
  6
CONTINUOUS
 62
           3
100
AcDbLine
 10
-13882.239038367439
 20
-5860.941267564138
 30
0.0
 11
-13881.599501814118
 21
-5860.383600103231
 31
0.0
  0
LINE
  5
23F
100
AcDbEntity
  8
Frei
  6
CONTINUOUS
 62
           3
100
AcDbLine
 10
-13864.280978153874
 20
-5862.169303950357
 30
0.0
 11
-13882.239038367439
 21
-5860.941267564138
 31
0.0
  0
LINE
  5
240
100
AcDbEntity
  8
Frei
  6
CONTINUOUS
 62
           3
100
AcDbLine
 10
-13864.838645614785
 20
-5861.529767397033
 30
0.0
 11
-13864.280978153874
 21
-5862.169303950357
 31
0.0
  0
LINE
  5
241
100
AcDbEntity
  8
Frei
  6
CONTINUOUS
 62
           3
100
AcDbLine
 10
-13881.735950301474
 20
-5862.378940126959
 30
0.0
 11
-13864.975094102145
 21
-5863.525107420761
 31
0.0
  0
LINE
  5
242
100
AcDbEntity
  8
Frei
  6
CONTINUOUS
 62
           3
100
AcDbLine
 10
-13864.335557548817
 20
-5862.96743995985
 30
0.0
 11
-13864.975094102145
 21
-5863.525107420761
 31
0.0
  0
LINE
  5
243
100
AcDbEntity
  8
Frei
  6
CONTINUOUS
 62
           3
100
AcDbLine
 10
-13882.293617762385
 20
-5861.739403573632
 30
0.0
 11
-13864.335557548817
 21
-5862.96743995985
 31
0.0
  0
LINE
  5
244
100
AcDbEntity
  8
Frei
  6
CONTINUOUS
 62
           3
100
AcDbLine
 10
-13881.735950301474
 20
-5862.378940126959
 30
0.0
 11
-13882.293617762385
 21
-5861.739403573632
 31
0.0
  0
LINE
  5
245
100
AcDbEntity
  8
Frei
  6
CONTINUOUS
 62
           3
100
AcDbLine
 10
-13882.375486854802
 20
-5862.93660758787
 30
0.0
 11
-13881.735950301474
 21
-5862.378940126959
 31
0.0
  0
LINE
  5
246
100
AcDbEntity
  8
Frei
  6
CONTINUOUS
 62
           3
100
AcDbLine
 10
-13864.41742664123
 20
-5864.164643974089
 30
0.0
 11
-13882.375486854802
 21
-5862.93660758787
 31
0.0
  0
LINE
  5
247
100
AcDbEntity
  8
Frei
  6
CONTINUOUS
 62
           3
100
AcDbLine
 10
-13864.975094102145
 20
-5863.525107420761
 30
0.0
 11
-13864.41742664123
 21
-5864.164643974089
 31
0.0
  0
LINE
  5
248
100
AcDbEntity
  8
Frei
  6
CONTINUOUS
 62
           3
100
AcDbLine
 10
-13865.1115425895
 20
-5865.520447444491
 30
0.0
 11
-13881.872398788833
 21
-5864.374280150689
 31
0.0
  0
LINE
  5
249
100
AcDbEntity
  8
Frei
  6
CONTINUOUS
 62
           3
100
AcDbLine
 10
-13865.1115425895
 20
-5865.520447444491
 30
0.0
 11
-13864.472006036176
 21
-5864.962779983578
 31
0.0
  0
LINE
  5
24A
100
AcDbEntity
  8
Frei
  6
CONTINUOUS
 62
           3
100
AcDbLine
 10
-13864.553875128589
 20
-5866.159983997817
 30
0.0
 11
-13865.1115425895
 21
-5865.520447444491
 31
0.0
  0
LINE
  5
24B
100
AcDbEntity
  8
Frei
  6
CONTINUOUS
 62
           3
100
AcDbLine
 10
-13882.511935342158
 20
-5864.9319476116
 30
0.0
 11
-13864.553875128589
 21
-5866.159983997817
 31
0.0
  0
LINE
  5
24C
100
AcDbEntity
  8
Frei
  6
CONTINUOUS
 62
           3
100
AcDbLine
 10
-13881.872398788833
 20
-5864.374280150689
 30
0.0
 11
-13882.511935342158
 21
-5864.9319476116
 31
0.0
  0
LINE
  5
24D
100
AcDbEntity
  8
Frei
  6
CONTINUOUS
 62
           3
100
AcDbLine
 10
-13882.430066249741
 20
-5863.734743597363
 30
0.0
 11
-13881.872398788833
 21
-5864.374280150689
 31
0.0
  0
LINE
  5
24E
100
AcDbEntity
  8
Frei
  6
CONTINUOUS
 62
           3
100
AcDbLine
 10
-13864.472006036176
 20
-5864.962779983578
 30
0.0
 11
-13882.430066249741
 21
-5863.734743597363
 31
0.0
  0
LINE
  5
24F
100
AcDbEntity
  8
Frei
  6
CONTINUOUS
 62
           7
100
AcDbLine
 10
-13838.611074056393
 20
-5871.461065590607
 30
0.0
 11
-13837.946185321951
 21
-5872.818992151179
 31
0.0
  0
LINE
  5
250
100
AcDbEntity
  8
Frei
  6
CONTINUOUS
 62
           7
100
AcDbLine
 10
-13838.611074056393
 20
-5871.461065590607
 30
0.0
 11
-13842.845202483142
 21
-5871.171520744998
 31
0.0
  0
LINE
  5
251
100
AcDbEntity
  8
Frei
  6
CONTINUOUS
 62
           7
100
AcDbLine
 10
-13837.678186627549
 20
-5868.899941587819
 30
0.0
 11
-13838.611074056393
 21
-5871.461065590607
 31
0.0
  0
LINE
  5
252
100
AcDbEntity
  8
Frei
  6
CONTINUOUS
 62
           7
100
AcDbLine
 10
-13837.980845489139
 20
-5862.244984792005
 30
0.0
 11
-13837.405289652834
 21
-5864.909261540362
 31
0.0
  0
LINE
  5
253
100
AcDbEntity
  8
Frei
  6
CONTINUOUS
 62
           7
100
AcDbLine
 10
-13837.980845489139
 20
-5862.244984792005
 30
0.0
 11
-13842.214973915889
 21
-5861.955439946398
 31
0.0
  0
LINE
  5
254
100
AcDbEntity
  8
Frei
  6
CONTINUOUS
 62
           7
100
AcDbLine
 10
-13837.137290958432
 20
-5860.990210977005
 30
0.0
 11
-13837.980845489139
 21
-5862.244984792005
 31
0.0
  0
LINE
  5
255
100
AcDbEntity
  8
Frei
  6
CONTINUOUS
 62
           7
100
AcDbLine
 10
-13838.082633809307
 20
-5874.814332174909
 30
0.0
 11
-13838.926188340018
 21
-5876.069105989907
 31
0.0
  0
LINE
  5
256
100
AcDbEntity
  8
Frei
  6
CONTINUOUS
 62
           7
100
AcDbLine
 10
-13837.665731205518
 20
-5857.636944392705
 30
0.0
 11
-13841.899859632267
 21
-5857.347399547094
 31
0.0
  0
LINE
  5
257
100
AcDbEntity
  8
Frei
  6
CONTINUOUS
 62
           7
100
AcDbLine
 10
-13837.665731205518
 20
-5857.636944392705
 30
0.0
 11
-13837.000842471076
 21
-5858.994870953275
 31
0.0
  0
LINE
  5
258
100
AcDbEntity
  8
Frei
  6
CONTINUOUS
 62
           7
100
AcDbLine
 10
-13843.070983868631
 20
-5874.473210956514
 30
0.0
 11
-13843.160316766767
 21
-5875.779561144298
 31
0.0
  0
LINE
  5
259
100
AcDbEntity
  8
Frei
  6
CONTINUOUS
 62
           7
100
AcDbLine
 10
-13838.082633809307
 20
-5874.814332174909
 30
0.0
 11
-13837.946185321951
 21
-5872.818992151179
 31
0.0
  0
LINE
  5
25A
100
AcDbEntity
  8
Frei
  6
CONTINUOUS
 62
           7
100
AcDbLine
 10
-13838.082633809307
 20
-5874.814332174909
 30
0.0
 11
-13843.070983868631
 21
-5874.473210956514
 31
0.0
  0
LINE
  5
25B
100
AcDbEntity
  8
Frei
  6
CONTINUOUS
 62
           7
100
AcDbLine
 10
-13842.934535381275
 20
-5872.477870932784
 30
0.0
 11
-13843.070983868631
 21
-5874.473210956514
 31
0.0
  0
LINE
  5
25C
100
AcDbEntity
  8
Frei
  6
CONTINUOUS
 62
           7
100
AcDbLine
 10
-13837.946185321951
 20
-5872.818992151179
 30
0.0
 11
-13837.678186627549
 21
-5868.899941587819
 31
0.0
  0
LINE
  5
25D
100
AcDbEntity
  8
Frei
  6
CONTINUOUS
 62
           7
100
AcDbLine
 10
-13837.946185321951
 20
-5872.818992151179
 30
0.0
 11
-13842.934535381275
 21
-5872.477870932784
 31
0.0
  0
LINE
  5
25E
100
AcDbEntity
  8
Frei
  6
CONTINUOUS
 62
           7
100
AcDbLine
 10
-13842.845202483142
 20
-5871.171520744998
 30
0.0
 11
-13842.934535381275
 21
-5872.477870932784
 31
0.0
  0
LINE
  5
25F
100
AcDbEntity
  8
Frei
  6
CONTINUOUS
 62
           7
100
AcDbLine
 10
-13842.666536686873
 20
-5868.558820369426
 30
0.0
 11
-13842.845202483142
 21
-5871.171520744998
 31
0.0
  0
LINE
  5
260
100
AcDbEntity
  8
Frei
  6
CONTINUOUS
 62
           7
100
AcDbLine
 10
-13837.678186627549
 20
-5868.899941587819
 30
0.0
 11
-13837.405289652834
 21
-5864.909261540362
 31
0.0
  0
LINE
  5
261
100
AcDbEntity
  8
Frei
  6
CONTINUOUS
 62
           7
100
AcDbLine
 10
-13837.678186627549
 20
-5868.899941587819
 30
0.0
 11
-13842.666536686873
 21
-5868.558820369426
 31
0.0
  0
LINE
  5
262
100
AcDbEntity
  8
Frei
  6
CONTINUOUS
 62
           7
100
AcDbLine
 10
-13842.393639712158
 20
-5864.568140321966
 30
0.0
 11
-13842.666536686873
 21
-5868.558820369426
 31
0.0
  0
LINE
  5
263
100
AcDbEntity
  8
Frei
  6
CONTINUOUS
 62
           7
100
AcDbLine
 10
-13837.405289652834
 20
-5864.909261540362
 30
0.0
 11
-13837.137290958432
 21
-5860.990210977005
 31
0.0
  0
LINE
  5
264
100
AcDbEntity
  8
Frei
  6
CONTINUOUS
 62
           7
100
AcDbLine
 10
-13837.405289652834
 20
-5864.909261540362
 30
0.0
 11
-13842.393639712158
 21
-5864.568140321966
 31
0.0
  0
LINE
  5
265
100
AcDbEntity
  8
Frei
  6
CONTINUOUS
 62
           7
100
AcDbLine
 10
-13842.214973915889
 20
-5861.955439946398
 30
0.0
 11
-13842.393639712158
 21
-5864.568140321966
 31
0.0
  0
LINE
  5
266
100
AcDbEntity
  8
Frei
  6
CONTINUOUS
 62
           7
100
AcDbLine
 10
-13842.125641017756
 20
-5860.64908975861
 30
0.0
 11
-13842.214973915889
 21
-5861.955439946398
 31
0.0
  0
LINE
  5
267
100
AcDbEntity
  8
Frei
  6
CONTINUOUS
 62
           7
100
AcDbLine
 10
-13837.137290958432
 20
-5860.990210977005
 30
0.0
 11
-13837.000842471076
 21
-5858.994870953275
 31
0.0
  0
LINE
  5
268
100
AcDbEntity
  8
Frei
  6
CONTINUOUS
 62
           7
100
AcDbLine
 10
-13837.137290958432
 20
-5860.990210977005
 30
0.0
 11
-13842.125641017756
 21
-5860.64908975861
 31
0.0
  0
LINE
  5
269
100
AcDbEntity
  8
Frei
  6
CONTINUOUS
 62
           7
100
AcDbLine
 10
-13841.9891925304
 20
-5858.653749734882
 30
0.0
 11
-13842.125641017756
 21
-5860.64908975861
 31
0.0
  0
LINE
  5
26A
100
AcDbEntity
  8
Frei
  6
CONTINUOUS
 62
           7
100
AcDbLine
 10
-13841.9891925304
 20
-5858.653749734882
 30
0.0
 11
-13837.000842471076
 21
-5858.994870953275
 31
0.0
  0
LINE
  5
26B
100
AcDbEntity
  8
Frei
  6
CONTINUOUS
 62
           7
100
AcDbLine
 10
-13843.160316766767
 20
-5875.779561144298
 30
0.0
 11
-13838.926188340018
 21
-5876.069105989907
 31
0.0
  0
LINE
  5
26C
100
AcDbEntity
  8
Frei
  6
CONTINUOUS
 62
           7
100
AcDbLine
 10
-13841.899859632267
 20
-5857.347399547094
 30
0.0
 11
-13841.9891925304
 21
-5858.653749734882
 31
0.0
  0
LINE
  5
26D
100
AcDbEntity
  8
Frei
  6
CONTINUOUS
 62
           7
100
AcDbLine
 10
-13886.725721131857
 20
-5823.948975424135
 30
0.0
 11
-13887.083898411169
 21
-5829.186742986423
 31
0.0
  0
LINE
  5
26E
100
AcDbEntity
  8
Frei
  6
CONTINUOUS
 62
           7
100
AcDbLine
 10
-13885.70678581981
 20
-5831.035001872706
 30
0.0
 11
-13885.468000966936
 21
-5827.543156831182
 31
0.0
  0
LINE
  5
26F
100
AcDbEntity
  8
Frei
  6
CONTINUOUS
 62
           7
100
AcDbLine
 10
-13886.461013031072
 20
-5830.983425118431
 30
0.0
 11
-13885.70678581981
 21
-5831.035001872706
 31
0.0
  0
LINE
  5
270
100
AcDbEntity
  8
Frei
  6
CONTINUOUS
 62
           7
100
AcDbLine
 10
-13885.468000966936
 20
-5827.543156831182
 30
0.0
 11
-13884.990431261183
 21
-5820.559466748126
 31
0.0
  0
LINE
  5
271
100
AcDbEntity
  8
Frei
  6
CONTINUOUS
 62
           7
100
AcDbLine
 10
-13886.222228178194
 20
-5827.491580076905
 30
0.0
 11
-13885.468000966936
 21
-5827.543156831182
 31
0.0
  0
LINE
  5
272
100
AcDbEntity
  8
Frei
  6
CONTINUOUS
 62
           7
100
AcDbLine
 10
-13884.990431261183
 20
-5820.559466748126
 30
0.0
 11
-13884.751646408309
 21
-5817.067621706599
 31
0.0
  0
LINE
  5
273
100
AcDbEntity
  8
Frei
  6
CONTINUOUS
 62
           7
100
AcDbLine
 10
-13885.744658472446
 20
-5820.507889993851
 30
0.0
 11
-13884.990431261183
 21
-5820.559466748126
 31
0.0
  0
LINE
  5
274
100
AcDbEntity
  8
Frei
  6
CONTINUOUS
 62
           7
100
AcDbLine
 10
-13884.751646408309
 20
-5817.067621706599
 30
0.0
 11
-13884.376413068076
 21
-5811.580436641341
 31
0.0
  0
LINE
  5
275
100
AcDbEntity
  8
Frei
  6
CONTINUOUS
 62
           7
100
AcDbLine
 10
-13885.505873619568
 20
-5817.016044952325
 30
0.0
 11
-13884.751646408309
 21
-5817.067621706599
 31
0.0
  0
LINE
  5
276
100
AcDbEntity
  8
Frei
  6
CONTINUOUS
 62
           7
100
AcDbLine
 10
-13847.927783720912
 20
-5872.208379198493
 30
0.0
 11
-13847.109092796767
 21
-5860.236339056113
 31
0.0
  0
LINE
  5
277
100
AcDbEntity
  8
Frei
  6
CONTINUOUS
 62
           2
100
AcDbLine
 10
-13842.939433661588
 20
-5872.549500416888
 30
0.0
 11
-13847.927783720912
 21
-5872.208379198493
 31
0.0
  0
LINE
  5
278
100
AcDbEntity
  8
Frei
  6
CONTINUOUS
 62
           7
100
AcDbLine
 10
-13847.109092796767
 20
-5860.236339056113
 30
0.0
 11
-13847.040868553089
 21
-5859.238669044249
 31
0.0
  0
LINE
  5
279
100
AcDbEntity
  8
Frei
  6
CONTINUOUS
 62
           2
100
AcDbLine
 10
-13842.120742737439
 20
-5860.577460274508
 30
0.0
 11
-13847.109092796767
 21
-5860.236339056113
 31
0.0
  0
LINE
  5
27A
100
AcDbEntity
  8
Frei
  6
CONTINUOUS
 62
           7
100
AcDbLine
 10
-13847.99600796459
 20
-5873.206049210357
 30
0.0
 11
-13847.927783720912
 21
-5872.208379198493
 31
0.0
  0
LINE
  5
27B
100
AcDbEntity
  8
Frei
  6
CONTINUOUS
 62
           7
100
AcDbLine
 10
-13847.99600796459
 20
-5873.206049210357
 30
0.0
 11
-13843.007657905269
 21
-5873.547170428752
 31
0.0
  0
LINE
  5
27C
100
AcDbEntity
  8
Frei
  6
CONTINUOUS
 62
           7
100
AcDbLine
 10
-13847.040868553089
 20
-5859.238669044249
 30
0.0
 11
-13847.006756431249
 21
-5858.739834038317
 31
0.0
  0
LINE
  5
27D
100
AcDbEntity
  8
Frei
  6
CONTINUOUS
 62
           7
100
AcDbLine
 10
-13847.040868553089
 20
-5859.238669044249
 30
0.0
 11
-13842.052518493765
 21
-5859.579790262642
 31
0.0
  0
LINE
  5
27E
100
AcDbEntity
  8
Frei
  6
CONTINUOUS
 62
           7
100
AcDbLine
 10
-13867.414758453906
 20
-5871.87812559878
 30
0.0
 11
-13886.40630342139
 21
-5870.579415828726
 31
0.0
  0
LINE
  5
27F
100
AcDbEntity
  8
Frei
  6
CONTINUOUS
 62
           7
100
AcDbLine
 10
-13860.104496594326
 20
-5874.382698309941
 30
0.0
 11
-13867.414758453906
 21
-5871.87812559878
 31
0.0
  0
LINE
  5
280
100
AcDbEntity
  8
Frei
  6
CONTINUOUS
 62
           7
100
AcDbLine
 10
-13885.924305372504
 20
-5841.544649119127
 30
0.0
 11
-13886.423140378436
 21
-5841.510536997288
 31
0.0
  0
LINE
  5
281
100
AcDbEntity
  8
Frei
  6
CONTINUOUS
 62
           7
100
AcDbLine
 10
-13885.924305372504
 20
-5841.544649119127
 30
0.0
 11
-13887.800472073668
 21
-5868.980574445412
 31
0.0
  0
LINE
  5
282
100
AcDbEntity
  8
Frei
  6
CONTINUOUS
 62
           7
100
AcDbLine
 10
-13867.414758453906
 20
-5871.87812559878
 30
0.0
 11
-13861.464553124766
 21
-5872.285021920694
 31
0.0
  0
LINE
  5
283
100
AcDbEntity
  8
Frei
  6
CONTINUOUS
 62
           7
100
AcDbLine
 10
-13857.989545040287
 20
-5843.454927942132
 30
0.0
 11
-13885.924305372504
 21
-5841.544649119127
 31
0.0
  0
LINE
  5
284
100
AcDbEntity
  8
Frei
  6
CONTINUOUS
 62
           7
100
AcDbLine
 10
-13857.989545040287
 20
-5843.454927942132
 30
0.0
 11
-13859.865711741448
 21
-5870.890853268415
 31
0.0
  0
LINE
  5
285
100
AcDbEntity
  8
Frei
  6
CONTINUOUS
 62
           7
100
AcDbLine
 10
-13860.104496594326
 20
-5874.382698309941
 30
0.0
 11
-13849.628961469745
 21
-5875.099052868569
 31
0.0
  0
LINE
  5
286
100
AcDbEntity
  8
Frei
  6
CONTINUOUS
 62
           7
100
AcDbLine
 10
-13848.030120086431
 20
-5873.704884216289
 30
0.0
 11
-13847.99600796459
 21
-5873.206049210357
 31
0.0
  0
LINE
  5
287
100
AcDbEntity
  8
Frei
  6
CONTINUOUS
 62
           7
100
AcDbLine
 10
-13858.87646020811
 20
-5856.424638096374
 30
0.0
 11
-13848.40092508353
 21
-5857.140992655002
 31
0.0
  0
LINE
  5
288
100
AcDbEntity
  8
Frei
  6
CONTINUOUS
 62
           7
100
AcDbLine
 10
-13886.423140378436
 20
-5841.510536997288
 30
0.0
 11
-13886.354916134755
 21
-5840.512866985424
 31
0.0
  0
LINE
  5
289
100
AcDbEntity
  8
Frei
  6
CONTINUOUS
 62
           7
100
AcDbLine
 10
-13857.490710034355
 20
-5843.489040063971
 30
0.0
 11
-13857.989545040287
 21
-5843.454927942132
 31
0.0
  0
LINE
  5
28A
100
AcDbEntity
  8
Frei
  6
CONTINUOUS
 62
           7
100
AcDbLine
 10
-13857.422485790677
 20
-5842.491370052107
 30
0.0
 11
-13857.490710034355
 21
-5843.489040063971
 31
0.0
  0
LINE
  5
28B
100
AcDbEntity
  8
Frei
  6
CONTINUOUS
 62
           7
100
AcDbLine
 10
-13857.422485790677
 20
-5842.491370052107
 30
0.0
 11
-13886.354916134755
 21
-5840.512866985424
 31
0.0
  0
LINE
  5
28C
100
AcDbEntity
  8
Frei
  6
CONTINUOUS
 62
           7
100
AcDbLine
 10
-13855.682767576869
 20
-5817.050784749552
 30
0.0
 11
-13855.644840346104
 21
-5816.496159901746
 31
0.0
  0
LINE
  5
28D
100
AcDbEntity
  8
Frei
  6
CONTINUOUS
 62
           7
100
AcDbLine
 10
-13884.376413068076
 20
-5811.580436641341
 30
0.0
 11
-13857.434178640626
 21
-5814.370348881423
 31
0.0
  0
LINE
  5
28E
100
AcDbEntity
  8
Frei
  6
CONTINUOUS
 62
           7
100
AcDbLine
 10
-13851.444884198012
 20
-5828.366276098461
 30
0.0
 11
-13851.478996319849
 21
-5828.865111104393
 31
0.0
  0
LINE
  5
28F
100
AcDbEntity
  8
Frei
  6
CONTINUOUS
 62
           1
100
AcDbLine
 10
-13851.444884198012
 20
-5828.366276098461
 30
0.0
 11
-13853.927437312752
 21
-5828.196510237371
 31
0.0
  0
LINE
  5
290
100
AcDbEntity
  8
Frei
  6
CONTINUOUS
 62
           7
100
AcDbLine
 10
-13851.171987223293
 20
-5824.375596050999
 30
0.0
 11
-13851.444884198012
 21
-5828.366276098461
 31
0.0
  0
LINE
  5
291
100
AcDbEntity
  8
Frei
  6
CONTINUOUS
 62
           1
100
AcDbLine
 10
-13851.171987223293
 20
-5824.375596050999
 30
0.0
 11
-13853.654540338037
 21
-5824.205830189911
 31
0.0
  0
LINE
  5
292
100
AcDbEntity
  8
Frei
  6
CONTINUOUS
 62
           7
100
AcDbLine
 10
-13851.478996319849
 20
-5828.865111104393
 30
0.0
 11
-13851.51310844169
 21
-5829.363946110325
 31
0.0
  0
LINE
  5
293
100
AcDbEntity
  8
Frei
  6
CONTINUOUS
 62
           1
100
AcDbLine
 10
-13851.478996319849
 20
-5828.865111104393
 30
0.0
 11
-13853.961549434589
 21
-5828.695345243303
 31
0.0
  0
LINE
  5
294
100
AcDbEntity
  8
Frei
  6
CONTINUOUS
 62
           7
100
AcDbLine
 10
-13851.137875101456
 20
-5823.876761045069
 30
0.0
 11
-13851.171987223293
 21
-5824.375596050999
 31
0.0
  0
LINE
  5
295
100
AcDbEntity
  8
Frei
  6
CONTINUOUS
 62
           1
100
AcDbLine
 10
-13851.137875101456
 20
-5823.876761045069
 30
0.0
 11
-13853.620428216196
 21
-5823.706995183979
 31
0.0
  0
LINE
  5
296
100
AcDbEntity
  8
Frei
  6
CONTINUOUS
 62
           7
100
AcDbLine
 10
-13852.510778453554
 20
-5829.295721866645
 30
0.0
 11
-13852.101432991483
 21
-5823.309701795455
 31
0.0
  0
LINE
  5
297
100
AcDbEntity
  8
Frei
  6
CONTINUOUS
 62
           2
100
AcDbLine
 10
-13851.51310844169
 20
-5829.363946110325
 30
0.0
 11
-13852.510778453554
 21
-5829.295721866645
 31
0.0
  0
LINE
  5
298
100
AcDbEntity
  8
Frei
  6
CONTINUOUS
 62
           7
100
AcDbLine
 10
-13852.101432991483
 20
-5823.309701795455
 30
0.0
 11
-13852.033208747802
 21
-5822.312031783591
 31
0.0
  0
LINE
  5
299
100
AcDbEntity
  8
Frei
  6
CONTINUOUS
 62
           2
100
AcDbLine
 10
-13851.103762979616
 20
-5823.377926039135
 30
0.0
 11
-13852.101432991483
 21
-5823.309701795455
 31
0.0
  0
LINE
  5
29A
100
AcDbEntity
  8
Frei
  6
CONTINUOUS
 62
           7
100
AcDbLine
 10
-13852.579002697232
 20
-5830.293391878511
 30
0.0
 11
-13852.510778453554
 21
-5829.295721866645
 31
0.0
  0
LINE
  5
29B
100
AcDbEntity
  8
Frei
  6
CONTINUOUS
 62
           7
100
AcDbLine
 10
-13851.51310844169
 20
-5829.363946110325
 30
0.0
 11
-13852.579002697232
 21
-5830.293391878511
 31
0.0
  0
LINE
  5
29C
100
AcDbEntity
  8
Frei
  6
CONTINUOUS
 62
           7
100
AcDbLine
 10
-13851.103762979616
 20
-5823.377926039135
 30
0.0
 11
-13851.137875101456
 21
-5823.876761045069
 31
0.0
  0
LINE
  5
29D
100
AcDbEntity
  8
Frei
  6
CONTINUOUS
 62
           7
100
AcDbLine
 10
-13852.033208747802
 20
-5822.312031783591
 30
0.0
 11
-13851.692087529409
 21
-5817.323681724267
 31
0.0
  0
LINE
  5
29E
100
AcDbEntity
  8
Frei
  6
CONTINUOUS
 62
           7
100
AcDbLine
 10
-13852.033208747802
 20
-5822.312031783591
 30
0.0
 11
-13851.103762979616
 21
-5823.377926039135
 31
0.0
  0
LINE
  5
29F
100
AcDbEntity
  8
Frei
  6
CONTINUOUS
 62
           7
100
AcDbLine
 10
-13886.354916134755
 20
-5840.512866985424
 30
0.0
 11
-13885.70678581981
 21
-5831.035001872706
 31
0.0
  0
LINE
  5
2A0
100
AcDbEntity
  8
Frei
  6
CONTINUOUS
 62
           7
100
AcDbLine
 10
-13856.910803963085
 20
-5835.00884496312
 30
0.0
 11
-13857.422485790677
 21
-5842.491370052107
 31
0.0
  0
LINE
  5
2A1
100
AcDbEntity
  8
Frei
  6
CONTINUOUS
 62
           7
100
AcDbLine
 10
-13854.616873321324
 20
-5816.121338981366
 30
0.0
 11
-13855.981358194902
 21
-5836.074739218662
 31
0.0
  0
LINE
  5
2A2
100
AcDbEntity
  8
Frei
  6
CONTINUOUS
 62
           7
100
AcDbLine
 10
-13852.621533297595
 20
-5816.257787468721
 30
0.0
 11
-13853.98601817117
 21
-5836.211187706022
 31
0.0
  0
LINE
  5
2A3
100
AcDbEntity
  8
Frei
  6
CONTINUOUS
 62
           7
100
AcDbLine
 10
-13852.920123915628
 20
-5835.281741937835
 30
0.0
 11
-13853.98601817117
 21
-5836.211187706022
 31
0.0
  0
LINE
  5
2A4
100
AcDbEntity
  8
Frei
  6
CONTINUOUS
 62
           7
100
AcDbLine
 10
-13855.981358194902
 20
-5836.074739218662
 30
0.0
 11
-13856.910803963085
 21
-5835.00884496312
 31
0.0
  0
LINE
  5
2A5
100
AcDbEntity
  8
Frei
  6
CONTINUOUS
 62
           7
100
AcDbLine
 10
-13855.682767576869
 20
-5817.050784749552
 30
0.0
 11
-13854.616873321324
 21
-5816.121338981366
 31
0.0
  0
LINE
  5
2A6
100
AcDbEntity
  8
Frei
  6
CONTINUOUS
 62
           7
100
AcDbLine
 10
-13851.692087529409
 20
-5817.323681724267
 30
0.0
 11
-13852.621533297595
 21
-5816.257787468721
 31
0.0
  0
LINE
  5
2A7
100
AcDbEntity
  8
Frei
  6
CONTINUOUS
 62
           7
100
AcDbLine
 10
-13852.920123915628
 20
-5835.281741937835
 30
0.0
 11
-13852.579002697232
 21
-5830.293391878511
 31
0.0
  0
LINE
  5
2A8
100
AcDbEntity
  8
Frei
  6
CONTINUOUS
 62
           7
100
AcDbLine
 10
-13855.981358194902
 20
-5836.074739218662
 30
0.0
 11
-13853.98601817117
 21
-5836.211187706022
 31
0.0
  0
LINE
  5
2A9
100
AcDbEntity
  8
Frei
  6
CONTINUOUS
 62
           7
100
AcDbLine
 10
-13855.682767576869
 20
-5817.050784749552
 30
0.0
 11
-13856.910803963085
 21
-5835.00884496312
 31
0.0
  0
LINE
  5
2AA
100
AcDbEntity
  8
Frei
  6
CONTINUOUS
 62
           7
100
AcDbLine
 10
-13852.621533297595
 20
-5816.257787468721
 30
0.0
 11
-13854.616873321324
 21
-5816.121338981366
 31
0.0
  0
LINE
  5
2AB
100
AcDbEntity
  8
Frei
  6
CONTINUOUS
 62
           7
100
AcDbLine
 10
-13902.81647133053
 20
-5839.387166964725
 30
0.0
 11
-13892.340936205946
 21
-5840.103521523351
 31
0.0
  0
LINE
  5
2AC
100
AcDbEntity
  8
Frei
  6
CONTINUOUS
 62
           7
100
AcDbLine
 10
-13886.597691123025
 20
-5807.419195984685
 30
0.0
 11
-13900.565071289133
 21
-5806.464056573184
 31
0.0
  0
LINE
  5
2AD
100
AcDbEntity
  8
Frei
  6
CONTINUOUS
 62
           7
100
AcDbLine
 10
-13885.668245354838
 20
-5808.48509024023
 30
0.0
 11
-13887.203290837606
 21
-5830.932665507189
 31
0.0
  0
LINE
  5
2AE
100
AcDbEntity
  8
Frei
  6
CONTINUOUS
 62
           7
100
AcDbLine
 10
-14046.412728795392
 20
-5828.565205863126
 30
0.0
 11
-14044.877683312621
 21
-5806.117630596165
 31
0.0
  0
LINE
  5
2AF
100
AcDbEntity
  8
Frei
  6
CONTINUOUS
 62
           7
100
AcDbLine
 10
-14045.713430297685
 20
-5818.33908824151
 30
0.0
 11
-14045.35525301837
 21
-5813.10132067922
 31
0.0
  0
LINE
  5
2B0
100
AcDbEntity
  8
Frei
  6
CONTINUOUS
 62
           7
100
AcDbLine
 10
-13886.367543852542
 20
-5818.711207861843
 30
0.0
 11
-13886.725721131857
 21
-5823.948975424135
 31
0.0
  0
ARC
  5
2B1
100
AcDbEntity
  8
Frei
  6
CONTINUOUS
 62
           7
100
AcDbCircle
 10
-14053.939611882324
 20
-5812.514291517278
 30
0.0
 40
8.604407030244
100
AcDbArc
 50
332.086014671726
 51
356.087999999999
  0
ARC
  5
2B2
100
AcDbEntity
  8
Frei
  6
CONTINUOUS
 62
           7
100
AcDbCircle
 10
-14047.421519632499
 20
-5807.697760972229
 30
0.0
 40
2.430106011614
100
AcDbArc
 50
310.022521857266
 51
356.087999999999
  0
ARC
  5
2B3
100
AcDbEntity
  8
Frei
  6
CONTINUOUS
 62
           7
100
AcDbCircle
 10
-14048.137874191125
 20
-5818.173296096809
 30
0.0
 40
2.430106011614
100
AcDbArc
 50
310.022521857266
 51
356.087999999999
  0
ARC
  5
2B4
100
AcDbEntity
  8
Frei
  6
CONTINUOUS
 62
           7
100
AcDbCircle
 10
-14047.421519632499
 20
-5807.697760972229
 30
0.0
 40
2.430106011614
100
AcDbArc
 50
356.087999999999
 51
42.153478142733
  0
ARC
  5
2B5
100
AcDbEntity
  8
Frei
  6
CONTINUOUS
 62
           7
100
AcDbCircle
 10
-14048.137874191125
 20
-5818.173296096809
 30
0.0
 40
2.430106011614
100
AcDbArc
 50
356.087999999999
 51
42.153478142733
  0
ARC
  5
2B6
100
AcDbEntity
  8
Frei
  6
CONTINUOUS
 62
           7
100
AcDbCircle
 10
-13884.659454517729
 20
-5829.352535131127
 30
0.0
 40
2.430106011614
100
AcDbArc
 50
130.022521857263
 51
176.088
  0
ARC
  5
2B7
100
AcDbEntity
  8
Frei
  6
CONTINUOUS
 62
           7
100
AcDbCircle
 10
-13883.943099959102
 20
-5818.877000006545
 30
0.0
 40
2.430106011614
100
AcDbArc
 50
130.022521857263
 51
176.088
  0
ARC
  5
2B8
100
AcDbEntity
  8
Frei
  6
CONTINUOUS
 62
           7
100
AcDbCircle
 10
-13884.659454517729
 20
-5829.352535131127
 30
0.0
 40
2.430106011614
100
AcDbArc
 50
176.088
 51
222.153478142737
  0
ARC
  5
2B9
100
AcDbEntity
  8
Frei
  6
CONTINUOUS
 62
           7
100
AcDbCircle
 10
-13883.943099959102
 20
-5818.877000006545
 30
0.0
 40
2.430106011614
100
AcDbArc
 50
176.088
 51
222.153478142737
  0
ARC
  5
2BA
100
AcDbEntity
  8
Frei
  6
CONTINUOUS
 62
           7
100
AcDbCircle
 10
-13878.141362267903
 20
-5824.536004586078
 30
0.0
 40
8.604407030244
100
AcDbArc
 50
152.086014671724
 51
176.088
  0
ARC
  5
2BB
100
AcDbEntity
  8
Frei
  6
CONTINUOUS
 62
           7
100
AcDbCircle
 10
-14022.591153382687
 20
-5822.439057231844
 30
0.0
 40
4.481959213903
100
AcDbArc
 50
184.466955885586
 51
347.709044114414
  0
ARC
  5
2BC
100
AcDbEntity
  8
Frei
  6
CONTINUOUS
 62
           7
100
AcDbCircle
 10
-14053.939611882324
 20
-5812.514291517278
 30
0.0
 40
8.604407030244
100
AcDbArc
 50
356.087999999999
 51
20.089985328274
  0
ARC
  5
2BD
100
AcDbEntity
  8
Frei
  6
CONTINUOUS
 62
           7
100
AcDbCircle
 10
-13878.141362267903
 20
-5824.536004586078
 30
0.0
 40
8.604407030244
100
AcDbArc
 50
176.088
 51
200.089985328276
  0
POLYLINE
  5
2BE
100
AcDbEntity
  8
Frei
  6
CONTINUOUS
 62
           7
100
AcDb2dPolyline
 66
           1
 10
0.0
 20
0.0
 30
0.0
  0
VERTEX
  5
2BF
100
AcDbEntity
  8
Frei
  6
CONTINUOUS
 62
           7
100
AcDbVertex
100
AcDb2dVertex
 10
-14026.751973517861
 20
-5822.455553913484
 30
0.0
 42
0.046286845788
  0
VERTEX
  5
2C0
100
AcDbEntity
  8
Frei
  6
CONTINUOUS
 62
           7
100
AcDbVertex
100
AcDb2dVertex
 10
-14026.73527268902
 20
-5823.135457513561
 30
0.0
  0
VERTEX
  5
2C1
100
AcDbEntity
  8
Frei
  6
CONTINUOUS
 62
           7
100
AcDbVertex
100
AcDb2dVertex
 10
-14026.679639531074
 20
-5823.472646406523
 30
0.0
  0
VERTEX
  5
2C2
100
AcDbEntity
  8
Frei
  6
CONTINUOUS
 62
           7
100
AcDbVertex
100
AcDb2dVertex
 10
-14026.593277457781
 20
-5823.803305367155
 30
0.0
 42
0.045273723548
  0
VERTEX
  5
2C3
100
AcDbEntity
  8
Frei
  6
CONTINUOUS
 62
           7
100
AcDbVertex
100
AcDb2dVertex
 10
-14026.330302277391
 20
-5824.438805255173
 30
0.0
  0
VERTEX
  5
2C4
100
AcDbEntity
  8
Frei
  6
CONTINUOUS
 62
           7
100
AcDbVertex
100
AcDb2dVertex
 10
-14026.155309244288
 20
-5824.739087623606
 30
0.0
  0
VERTEX
  5
2C5
100
AcDbEntity
  8
Frei
  6
CONTINUOUS
 62
           7
100
AcDbVertex
100
AcDb2dVertex
 10
-14025.954337515635
 20
-5825.022647835098
 30
0.0
 42
0.04348253534
  0
VERTEX
  5
2C6
100
AcDbEntity
  8
Frei
  6
CONTINUOUS
 62
           7
100
AcDbVertex
100
AcDb2dVertex
 10
-14025.476806671559
 20
-5825.537093345583
 30
0.0
  0
VERTEX
  5
2C7
100
AcDbEntity
  8
Frei
  6
CONTINUOUS
 62
           7
100
AcDbVertex
100
AcDb2dVertex
 10
-14025.203672096228
 20
-5825.763840129064
 30
0.0
  0
VERTEX
  5
2C8
100
AcDbEntity
  8
Frei
  6
CONTINUOUS
 62
           7
100
AcDbVertex
100
AcDb2dVertex
 10
-14024.912219278209
 20
-5825.966510620108
 30
0.0
 42
0.041825507476
  0
VERTEX
  5
2C9
100
AcDbEntity
  8
Frei
  6
CONTINUOUS
 62
           7
100
AcDbVertex
100
AcDb2dVertex
 10
-14024.27773003784
 20
-5826.297852032085
 30
0.0
  0
VERTEX
  5
2CA
100
AcDbEntity
  8
Frei
  6
CONTINUOUS
 62
           7
100
AcDbVertex
100
AcDb2dVertex
 10
-14023.939788126285
 20
-5826.423610990967
 30
0.0
  0
VERTEX
  5
2CB
100
AcDbEntity
  8
Frei
  6
CONTINUOUS
 62
           7
100
AcDbVertex
100
AcDb2dVertex
 10
-14023.592617584953
 20
-5826.521049940378
 30
0.0
 42
0.040993490696
  0
VERTEX
  5
2CC
100
AcDbEntity
  8
Frei
  6
CONTINUOUS
 62
           7
100
AcDbVertex
100
AcDb2dVertex
 10
-14022.87769871475
 20
-5826.629322589486
 30
0.0
  0
VERTEX
  5
2CD
100
AcDbEntity
  8
Frei
  6
CONTINUOUS
 62
           7
100
AcDbVertex
100
AcDb2dVertex
 10
-14022.515992826247
 20
-5826.639191357952
 30
0.0
  0
VERTEX
  5
2CE
100
AcDbEntity
  8
Frei
  6
CONTINUOUS
 62
           7
100
AcDbVertex
100
AcDb2dVertex
 10
-14022.154695875328
 20
-5826.619380169754
 30
0.0
 42
0.041278481646
  0
VERTEX
  5
2CF
100
AcDbEntity
  8
Frei
  6
CONTINUOUS
 62
           7
100
AcDbVertex
100
AcDb2dVertex
 10
-14021.445577142109
 20
-5826.491524776575
 30
0.0
  0
VERTEX
  5
2D0
100
AcDbEntity
  8
Frei
  6
CONTINUOUS
 62
           7
100
AcDbVertex
100
AcDb2dVertex
 10
-14021.103665358838
 20
-5826.384691559511
 30
0.0
  0
VERTEX
  5
2D1
100
AcDbEntity
  8
Frei
  6
CONTINUOUS
 62
           7
100
AcDbVertex
100
AcDb2dVertex
 10
-14020.77188872897
 20
-5826.249641231374
 30
0.0
 42
0.042584509173
  0
VERTEX
  5
2D2
100
AcDbEntity
  8
Frei
  6
CONTINUOUS
 62
           7
100
AcDbVertex
100
AcDb2dVertex
 10
-14020.154100317446
 20
-5825.901079043271
 30
0.0
  0
VERTEX
  5
2D3
100
AcDbEntity
  8
Frei
  6
CONTINUOUS
 62
           7
100
AcDbVertex
100
AcDb2dVertex
 10
-14019.872857090188
 20
-5825.690578900787
 30
0.0
  0
VERTEX
  5
2D4
100
AcDbEntity
  8
Frei
  6
CONTINUOUS
 62
           7
100
AcDbVertex
100
AcDb2dVertex
 10
-14019.610983095798
 20
-5825.456429097974
 30
0.0
 42
0.044417198743
  0
VERTEX
  5
2D5
100
AcDbEntity
  8
Frei
  6
CONTINUOUS
 62
           7
100
AcDbVertex
100
AcDb2dVertex
 10
-14019.159039405979
 20
-5824.929201859064
 30
0.0
  0
VERTEX
  5
2D6
100
AcDbEntity
  8
Frei
  6
CONTINUOUS
 62
           7
100
AcDbVertex
100
AcDb2dVertex
 10
-14018.972054756981
 20
-5824.640176446002
 30
0.0
  0
VERTEX
  5
2D7
100
AcDbEntity
  8
Frei
  6
CONTINUOUS
 62
           7
100
AcDbVertex
100
AcDb2dVertex
 10
-14018.812001328311
 20
-5824.335416859403
 30
0.0
 42
0.045929593742
  0
VERTEX
  5
2D8
100
AcDbEntity
  8
Frei
  6
CONTINUOUS
 62
           7
100
AcDbVertex
100
AcDb2dVertex
 10
-14018.580413439173
 20
-5823.693115955744
 30
0.0
  0
VERTEX
  5
2D9
100
AcDbEntity
  8
Frei
  6
CONTINUOUS
 62
           7
100
AcDbVertex
100
AcDb2dVertex
 10
-14018.510298849305
 20
-5823.35999442196
 30
0.0
  0
VERTEX
  5
2DA
100
AcDbEntity
  8
Frei
  6
CONTINUOUS
 62
           7
100
AcDbVertex
100
AcDb2dVertex
 10
-14018.471312419384
 20
-5823.021815136015
 30
0.0
 42
0.046286845788
  0
VERTEX
  5
2DB
100
AcDbEntity
  8
Frei
  6
CONTINUOUS
 62
           7
100
AcDbVertex
100
AcDb2dVertex
 10
-14018.488013248225
 20
-5822.341911535938
 30
0.0
  0
VERTEX
  5
2DC
100
AcDbEntity
  8
Frei
  6
CONTINUOUS
 62
           7
100
AcDbVertex
100
AcDb2dVertex
 10
-14018.543646406175
 20
-5822.00472264298
 30
0.0
  0
VERTEX
  5
2DD
100
AcDbEntity
  8
Frei
  6
CONTINUOUS
 62
           7
100
AcDbVertex
100
AcDb2dVertex
 10
-14018.630008479468
 20
-5821.674063682347
 30
0.0
 42
0.045273723548
  0
VERTEX
  5
2DE
100
AcDbEntity
  8
Frei
  6
CONTINUOUS
 62
           7
100
AcDbVertex
100
AcDb2dVertex
 10
-14018.892983659851
 20
-5821.038563794327
 30
0.0
  0
VERTEX
  5
2DF
100
AcDbEntity
  8
Frei
  6
CONTINUOUS
 62
           7
100
AcDbVertex
100
AcDb2dVertex
 10
-14019.067976692957
 20
-5820.738281425895
 30
0.0
  0
VERTEX
  5
2E0
100
AcDbEntity
  8
Frei
  6
CONTINUOUS
 62
           7
100
AcDbVertex
100
AcDb2dVertex
 10
-14019.268948421606
 20
-5820.454721214401
 30
0.0
 42
0.04348253534
  0
VERTEX
  5
2E1
100
AcDbEntity
  8
Frei
  6
CONTINUOUS
 62
           7
100
AcDbVertex
100
AcDb2dVertex
 10
-14019.746479265687
 20
-5819.940275703919
 30
0.0
  0
VERTEX
  5
2E2
100
AcDbEntity
  8
Frei
  6
CONTINUOUS
 62
           7
100
AcDbVertex
100
AcDb2dVertex
 10
-14020.019613841017
 20
-5819.713528920436
 30
0.0
  0
VERTEX
  5
2E3
100
AcDbEntity
  8
Frei
  6
CONTINUOUS
 62
           7
100
AcDbVertex
100
AcDb2dVertex
 10
-14020.311066659033
 20
-5819.510858429394
 30
0.0
 42
0.041825507476
  0
VERTEX
  5
2E4
100
AcDbEntity
  8
Frei
  6
CONTINUOUS
 62
           7
100
AcDbVertex
100
AcDb2dVertex
 10
-14020.945555899401
 20
-5819.179517017417
 30
0.0
  0
VERTEX
  5
2E5
100
AcDbEntity
  8
Frei
  6
CONTINUOUS
 62
           7
100
AcDbVertex
100
AcDb2dVertex
 10
-14021.28349781096
 20
-5819.053758058535
 30
0.0
  0
VERTEX
  5
2E6
100
AcDbEntity
  8
Frei
  6
CONTINUOUS
 62
           7
100
AcDbVertex
100
AcDb2dVertex
 10
-14021.630668352289
 20
-5818.956319109124
 30
0.0
 42
0.040993490695
  0
VERTEX
  5
2E7
100
AcDbEntity
  8
Frei
  6
CONTINUOUS
 62
           7
100
AcDbVertex
100
AcDb2dVertex
 10
-14022.345587222499
 20
-5818.848046460016
 30
0.0
  0
VERTEX
  5
2E8
100
AcDbEntity
  8
Frei
  6
CONTINUOUS
 62
           7
100
AcDbVertex
100
AcDb2dVertex
 10
-14022.707293110998
 20
-5818.838177691549
 30
0.0
  0
VERTEX
  5
2E9
100
AcDbEntity
  8
Frei
  6
CONTINUOUS
 62
           7
100
AcDbVertex
100
AcDb2dVertex
 10
-14023.068590061917
 20
-5818.857988879749
 30
0.0
 42
0.041278481646
  0
VERTEX
  5
2EA
100
AcDbEntity
  8
Frei
  6
CONTINUOUS
 62
           7
100
AcDbVertex
100
AcDb2dVertex
 10
-14023.777708795136
 20
-5818.985844272926
 30
0.0
  0
VERTEX
  5
2EB
100
AcDbEntity
  8
Frei
  6
CONTINUOUS
 62
           7
100
AcDbVertex
100
AcDb2dVertex
 10
-14024.119620578411
 20
-5819.092677489989
 30
0.0
  0
VERTEX
  5
2EC
100
AcDbEntity
  8
Frei
  6
CONTINUOUS
 62
           7
100
AcDbVertex
100
AcDb2dVertex
 10
-14024.451397208275
 20
-5819.227727818126
 30
0.0
 42
0.042584509173
  0
VERTEX
  5
2ED
100
AcDbEntity
  8
Frei
  6
CONTINUOUS
 62
           7
100
AcDbVertex
100
AcDb2dVertex
 10
-14025.069185619799
 20
-5819.576290006231
 30
0.0
  0
VERTEX
  5
2EE
100
AcDbEntity
  8
Frei
  6
CONTINUOUS
 62
           7
100
AcDbVertex
100
AcDb2dVertex
 10
-14025.350428847058
 20
-5819.786790148715
 30
0.0
  0
VERTEX
  5
2EF
100
AcDbEntity
  8
Frei
  6
CONTINUOUS
 62
           7
100
AcDbVertex
100
AcDb2dVertex
 10
-14025.612302841444
 20
-5820.020939951526
 30
0.0
 42
0.044417198743
  0
VERTEX
  5
2F0
100
AcDbEntity
  8
Frei
  6
CONTINUOUS
 62
           7
100
AcDbVertex
100
AcDb2dVertex
 10
-14026.064246531267
 20
-5820.548167190436
 30
0.0
  0
VERTEX
  5
2F1
100
AcDbEntity
  8
Frei
  6
CONTINUOUS
 62
           7
100
AcDbVertex
100
AcDb2dVertex
 10
-14026.25123118026
 20
-5820.837192603498
 30
0.0
  0
VERTEX
  5
2F2
100
AcDbEntity
  8
Frei
  6
CONTINUOUS
 62
           7
100
AcDbVertex
100
AcDb2dVertex
 10
-14026.411284608937
 20
-5821.141952190095
 30
0.0
 42
0.045929593742
  0
VERTEX
  5
2F3
100
AcDbEntity
  8
Frei
  6
CONTINUOUS
 62
           7
100
AcDbVertex
100
AcDb2dVertex
 10
-14026.642872498072
 20
-5821.784253093756
 30
0.0
  0
VERTEX
  5
2F4
100
AcDbEntity
  8
Frei
  6
CONTINUOUS
 62
           7
100
AcDbVertex
100
AcDb2dVertex
 10
-14026.71298708794
 20
-5822.11737462754
 30
0.0
  0
VERTEX
  5
2F5
100
AcDbEntity
  8
Frei
  6
CONTINUOUS
 62
           7
100
AcDbVertex
100
AcDb2dVertex
 10
-14026.751973517861
 20
-5822.455553913484
 30
0.0
  0
SEQEND
  5
2F6
100
AcDbEntity
  8
Frei
  6
CONTINUOUS
 62
           7
  0
POLYLINE
  5
2F7
100
AcDbEntity
  8
Frei
  6
CONTINUOUS
 62
           7
100
AcDb2dPolyline
 66
           1
 10
0.0
 20
0.0
 30
0.0
  0
VERTEX
  5
2F8
100
AcDbEntity
  8
Frei
  6
CONTINUOUS
 62
           7
100
AcDbVertex
100
AcDb2dVertex
 10
-14022.339895792629
 20
-5818.764818437268
 30
0.0
 42
0.046286845788
  0
VERTEX
  5
2F9
100
AcDbEntity
  8
Frei
  6
CONTINUOUS
 62
           7
100
AcDbVertex
100
AcDb2dVertex
 10
-14023.115738064651
 20
-5818.783875858046
 30
0.0
  0
VERTEX
  5
2FA
100
AcDbEntity
  8
Frei
  6
CONTINUOUS
 62
           7
100
AcDbVertex
100
AcDb2dVertex
 10
-14023.500506430028
 20
-5818.847359204299
 30
0.0
  0
VERTEX
  5
2FB
100
AcDbEntity
  8
Frei
  6
CONTINUOUS
 62
           7
100
AcDbVertex
100
AcDb2dVertex
 10
-14023.877823448576
 20
-5818.945907509016
 30
0.0
 42
0.045273723548
  0
VERTEX
  5
2FC
100
AcDbEntity
  8
Frei
  6
CONTINUOUS
 62
           7
100
AcDbVertex
100
AcDb2dVertex
 10
-14024.60299636564
 20
-5819.24599014046
 30
0.0
  0
VERTEX
  5
2FD
100
AcDbEntity
  8
Frei
  6
CONTINUOUS
 62
           7
100
AcDbVertex
100
AcDb2dVertex
 10
-14024.945650463884
 20
-5819.445675790561
 30
0.0
  0
VERTEX
  5
2FE
100
AcDbEntity
  8
Frei
  6
CONTINUOUS
 62
           7
100
AcDbVertex
100
AcDb2dVertex
 10
-14025.269222803719
 20
-5819.675005893465
 30
0.0
 42
0.04348253534
  0
VERTEX
  5
2FF
100
AcDbEntity
  8
Frei
  6
CONTINUOUS
 62
           7
100
AcDbVertex
100
AcDb2dVertex
 10
-14025.85625980961
 20
-5820.219919341473
 30
0.0
  0
VERTEX
  5
300
100
AcDbEntity
  8
Frei
  6
CONTINUOUS
 62
           7
100
AcDbVertex
100
AcDb2dVertex
 10
-14026.115001989605
 20
-5820.53159492235
 30
0.0
  0
VERTEX
  5
301
100
AcDbEntity
  8
Frei
  6
CONTINUOUS
 62
           7
100
AcDbVertex
100
AcDb2dVertex
 10
-14026.346270560953
 20
-5820.864173565105
 30
0.0
 42
0.041825507476
  0
VERTEX
  5
302
100
AcDbEntity
  8
Frei
  6
CONTINUOUS
 62
           7
100
AcDbVertex
100
AcDb2dVertex
 10
-14026.724366329021
 20
-5821.588193225785
 30
0.0
  0
VERTEX
  5
303
100
AcDbEntity
  8
Frei
  6
CONTINUOUS
 62
           7
100
AcDbVertex
100
AcDb2dVertex
 10
-14026.867870667542
 20
-5821.973820865413
 30
0.0
  0
VERTEX
  5
304
100
AcDbEntity
  8
Frei
  6
CONTINUOUS
 62
           7
100
AcDbVertex
100
AcDb2dVertex
 10
-14026.979058865229
 20
-5822.369979352488
 30
0.0
 42
0.040993490695
  0
VERTEX
  5
305
100
AcDbEntity
  8
Frei
  6
CONTINUOUS
 62
           7
100
AcDbVertex
100
AcDb2dVertex
 10
-14027.102609465746
 20
-5823.18577776937
 30
0.0
  0
VERTEX
  5
306
100
AcDbEntity
  8
Frei
  6
CONTINUOUS
 62
           7
100
AcDbVertex
100
AcDb2dVertex
 10
-14027.113870779478
 20
-5823.598522632479
 30
0.0
  0
VERTEX
  5
307
100
AcDbEntity
  8
Frei
  6
CONTINUOUS
 62
           7
100
AcDbVertex
100
AcDb2dVertex
 10
-14027.091264108087
 20
-5824.010800854338
 30
0.0
 42
0.041278481646
  0
VERTEX
  5
308
100
AcDbEntity
  8
Frei
  6
CONTINUOUS
 62
           7
100
AcDbVertex
100
AcDb2dVertex
 10
-14026.945367515214
 20
-5824.819980698439
 30
0.0
  0
VERTEX
  5
309
100
AcDbEntity
  8
Frei
  6
CONTINUOUS
 62
           7
100
AcDbVertex
100
AcDb2dVertex
 10
-14026.823459459651
 20
-5825.21013838364
 30
0.0
  0
VERTEX
  5
30A
100
AcDbEntity
  8
Frei
  6
CONTINUOUS
 62
           7
100
AcDbVertex
100
AcDb2dVertex
 10
-14026.669352681271
 20
-5825.588730781576
 30
0.0
 42
0.042584509173
  0
VERTEX
  5
30B
100
AcDbEntity
  8
Frei
  6
CONTINUOUS
 62
           7
100
AcDbVertex
100
AcDb2dVertex
 10
-14026.271606177314
 20
-5826.293693021476
 30
0.0
  0
VERTEX
  5
30C
100
AcDbEntity
  8
Frei
  6
CONTINUOUS
 62
           7
100
AcDbVertex
100
AcDb2dVertex
 10
-14026.031403141489
 20
-5826.614621436036
 30
0.0
  0
VERTEX
  5
30D
100
AcDbEntity
  8
Frei
  6
CONTINUOUS
 62
           7
100
AcDbVertex
100
AcDb2dVertex
 10
-14025.764213329599
 20
-5826.913447497214
 30
0.0
 42
0.044417198743
  0
VERTEX
  5
30E
100
AcDbEntity
  8
Frei
  6
CONTINUOUS
 62
           7
100
AcDbVertex
100
AcDb2dVertex
 10
-14025.16259101305
 20
-5827.429163282652
 30
0.0
  0
VERTEX
  5
30F
100
AcDbEntity
  8
Frei
  6
CONTINUOUS
 62
           7
100
AcDbVertex
100
AcDb2dVertex
 10
-14024.832782297348
 20
-5827.642532641034
 30
0.0
  0
VERTEX
  5
310
100
AcDbEntity
  8
Frei
  6
CONTINUOUS
 62
           7
100
AcDbVertex
100
AcDb2dVertex
 10
-14024.485019217314
 20
-5827.825170614613
 30
0.0
 42
0.045929593742
  0
VERTEX
  5
311
100
AcDbEntity
  8
Frei
  6
CONTINUOUS
 62
           7
100
AcDbVertex
100
AcDb2dVertex
 10
-14023.752085618551
 20
-5828.089437010707
 30
0.0
  0
VERTEX
  5
312
100
AcDbEntity
  8
Frei
  6
CONTINUOUS
 62
           7
100
AcDbVertex
100
AcDb2dVertex
 10
-14023.371958542295
 20
-5828.169445209955
 30
0.0
  0
VERTEX
  5
313
100
AcDbEntity
  8
Frei
  6
CONTINUOUS
 62
           7
100
AcDbVertex
100
AcDb2dVertex
 10
-14022.986060033265
 20
-5828.213932870211
 30
0.0
 42
0.046286845788
  0
VERTEX
  5
314
100
AcDbEntity
  8
Frei
  6
CONTINUOUS
 62
           7
100
AcDbVertex
100
AcDb2dVertex
 10
-14022.21021776124
 20
-5828.194875449435
 30
0.0
  0
VERTEX
  5
315
100
AcDbEntity
  8
Frei
  6
CONTINUOUS
 62
           7
100
AcDbVertex
100
AcDb2dVertex
 10
-14021.825449395863
 20
-5828.131392103182
 30
0.0
  0
VERTEX
  5
316
100
AcDbEntity
  8
Frei
  6
CONTINUOUS
 62
           7
100
AcDbVertex
100
AcDb2dVertex
 10
-14021.448132377314
 20
-5828.032843798466
 30
0.0
 42
0.045273723548
  0
VERTEX
  5
317
100
AcDbEntity
  8
Frei
  6
CONTINUOUS
 62
           7
100
AcDbVertex
100
AcDb2dVertex
 10
-14020.722959460247
 20
-5827.732761167023
 30
0.0
  0
VERTEX
  5
318
100
AcDbEntity
  8
Frei
  6
CONTINUOUS
 62
           7
100
AcDbVertex
100
AcDb2dVertex
 10
-14020.380305362007
 20
-5827.533075516918
 30
0.0
  0
VERTEX
  5
319
100
AcDbEntity
  8
Frei
  6
CONTINUOUS
 62
           7
100
AcDbVertex
100
AcDb2dVertex
 10
-14020.056733022175
 20
-5827.303745414014
 30
0.0
 42
0.04348253534
  0
VERTEX
  5
31A
100
AcDbEntity
  8
Frei
  6
CONTINUOUS
 62
           7
100
AcDbVertex
100
AcDb2dVertex
 10
-14019.46969601628
 20
-5826.758831966006
 30
0.0
  0
VERTEX
  5
31B
100
AcDbEntity
  8
Frei
  6
CONTINUOUS
 62
           7
100
AcDbVertex
100
AcDb2dVertex
 10
-14019.210953836282
 20
-5826.447156385131
 30
0.0
  0
VERTEX
  5
31C
100
AcDbEntity
  8
Frei
  6
CONTINUOUS
 62
           7
100
AcDbVertex
100
AcDb2dVertex
 10
-14018.979685264938
 20
-5826.114577742375
 30
0.0
 42
0.041825507476
  0
VERTEX
  5
31D
100
AcDbEntity
  8
Frei
  6
CONTINUOUS
 62
           7
100
AcDbVertex
100
AcDb2dVertex
 10
-14018.60158949687
 20
-5825.390558081697
 30
0.0
  0
VERTEX
  5
31E
100
AcDbEntity
  8
Frei
  6
CONTINUOUS
 62
           7
100
AcDbVertex
100
AcDb2dVertex
 10
-14018.458085158349
 20
-5825.004930442066
 30
0.0
  0
VERTEX
  5
31F
100
AcDbEntity
  8
Frei
  6
CONTINUOUS
 62
           7
100
AcDbVertex
100
AcDb2dVertex
 10
-14018.346896960662
 20
-5824.608771954989
 30
0.0
 42
0.040993490695
  0
VERTEX
  5
320
100
AcDbEntity
  8
Frei
  6
CONTINUOUS
 62
           7
100
AcDbVertex
100
AcDb2dVertex
 10
-14018.223346360144
 20
-5823.792973538109
 30
0.0
  0
VERTEX
  5
321
100
AcDbEntity
  8
Frei
  6
CONTINUOUS
 62
           7
100
AcDbVertex
100
AcDb2dVertex
 10
-14018.212085046413
 20
-5823.380228675002
 30
0.0
  0
VERTEX
  5
322
100
AcDbEntity
  8
Frei
  6
CONTINUOUS
 62
           7
100
AcDbVertex
100
AcDb2dVertex
 10
-14018.2346917178
 20
-5822.967950453141
 30
0.0
 42
0.041278481646
  0
VERTEX
  5
323
100
AcDbEntity
  8
Frei
  6
CONTINUOUS
 62
           7
100
AcDbVertex
100
AcDb2dVertex
 10
-14018.380588310676
 20
-5822.158770609041
 30
0.0
  0
VERTEX
  5
324
100
AcDbEntity
  8
Frei
  6
CONTINUOUS
 62
           7
100
AcDbVertex
100
AcDb2dVertex
 10
-14018.502496366236
 20
-5821.768612923841
 30
0.0
  0
VERTEX
  5
325
100
AcDbEntity
  8
Frei
  6
CONTINUOUS
 62
           7
100
AcDbVertex
100
AcDb2dVertex
 10
-14018.65660314462
 20
-5821.390020525903
 30
0.0
 42
0.042584509173
  0
VERTEX
  5
326
100
AcDbEntity
  8
Frei
  6
CONTINUOUS
 62
           7
100
AcDbVertex
100
AcDb2dVertex
 10
-14019.054349648573
 20
-5820.685058286003
 30
0.0
  0
VERTEX
  5
327
100
AcDbEntity
  8
Frei
  6
CONTINUOUS
 62
           7
100
AcDbVertex
100
AcDb2dVertex
 10
-14019.294552684401
 20
-5820.364129871441
 30
0.0
  0
VERTEX
  5
328
100
AcDbEntity
  8
Frei
  6
CONTINUOUS
 62
           7
100
AcDbVertex
100
AcDb2dVertex
 10
-14019.561742496295
 20
-5820.065303810265
 30
0.0
 42
0.044417198743
  0
VERTEX
  5
329
100
AcDbEntity
  8
Frei
  6
CONTINUOUS
 62
           7
100
AcDbVertex
100
AcDb2dVertex
 10
-14020.163364812837
 20
-5819.549588024827
 30
0.0
  0
VERTEX
  5
32A
100
AcDbEntity
  8
Frei
  6
CONTINUOUS
 62
           7
100
AcDbVertex
100
AcDb2dVertex
 10
-14020.493173528543
 20
-5819.336218666444
 30
0.0
  0
VERTEX
  5
32B
100
AcDbEntity
  8
Frei
  6
CONTINUOUS
 62
           7
100
AcDbVertex
100
AcDb2dVertex
 10
-14020.840936608576
 20
-5819.153580692868
 30
0.0
 42
0.045929593741
  0
VERTEX
  5
32C
100
AcDbEntity
  8
Frei
  6
CONTINUOUS
 62
           7
100
AcDbVertex
100
AcDb2dVertex
 10
-14021.573870207343
 20
-5818.889314296774
 30
0.0
  0
VERTEX
  5
32D
100
AcDbEntity
  8
Frei
  6
CONTINUOUS
 62
           7
100
AcDbVertex
100
AcDb2dVertex
 10
-14021.953997283592
 20
-5818.809306097524
 30
0.0
  0
VERTEX
  5
32E
100
AcDbEntity
  8
Frei
  6
CONTINUOUS
 62
           7
100
AcDbVertex
100
AcDb2dVertex
 10
-14022.339895792629
 20
-5818.764818437268
 30
0.0
  0
SEQEND
  5
32F
100
AcDbEntity
  8
Frei
  6
CONTINUOUS
 62
           7
  0
ARC
  5
330
100
AcDbEntity
  8
Frei
  6
CONTINUOUS
 62
           7
100
AcDbCircle
 10
-13888.662419430715
 20
-5837.407004131621
 30
0.0
 40
0.5
100
AcDbArc
 50
273.237821982568
 51
356.087999999999
  0
ARC
  5
331
100
AcDbEntity
  8
Frei
  6
CONTINUOUS
 62
           7
100
AcDbCircle
 10
-13888.313274845194
 20
-5832.3013252117
 30
0.0
 40
0.5
100
AcDbArc
 50
356.087999999999
 51
78.938178017423
  0
ARC
  5
332
100
AcDbEntity
  8
Frei
  6
CONTINUOUS
 62
           7
100
AcDbCircle
 10
-14042.919719713584
 20
-5799.677404093573
 30
0.0
 40
0.5
100
AcDbArc
 50
93.237821982565
 51
176.088
  0
ARC
  5
333
100
AcDbEntity
  8
Frei
  6
CONTINUOUS
 62
           7
100
AcDbCircle
 10
-14043.268864299102
 20
-5804.783083013494
 30
0.0
 40
0.5
100
AcDbArc
 50
176.088
 51
258.938178017419
  0
ARC
  5
334
100
AcDbEntity
  8
Frei
  6
CONTINUOUS
 62
           7
100
AcDbCircle
 10
-14073.136902932649
 20
-5801.623274779786
 30
0.0
 40
2.0
100
AcDbArc
 50
88.088
 51
176.088
  0
ARC
  5
335
100
AcDbEntity
  8
Frei
  6
CONTINUOUS
 62
           7
100
AcDbCircle
 10
-14088.9674279518
 20
-5857.22872936788
 30
0.0
 40
1.5
100
AcDbArc
 50
176.088
 51
266.088
  0
ARC
  5
336
100
AcDbEntity
  8
Frei
  6
CONTINUOUS
 62
           7
100
AcDbCircle
 10
-14087.944064296618
 20
-5842.263679189908
 30
0.0
 40
1.5
100
AcDbArc
 50
86.088
 51
176.088
  0
ARC
  5
337
100
AcDbEntity
  8
Frei
  6
CONTINUOUS
 62
           7
100
AcDbCircle
 10
-14076.858939322065
 20
-5856.052080268297
 30
0.0
 40
1.5
100
AcDbArc
 50
176.088
 51
266.088
  0
ARC
  5
338
100
AcDbEntity
  8
Frei
  6
CONTINUOUS
 62
           7
100
AcDbCircle
 10
-14051.917189025444
 20
-5857.757686360263
 30
0.0
 40
1.5
100
AcDbArc
 50
266.088
 51
356.087999999999
  0
ARC
  5
339
100
AcDbEntity
  8
Frei
  6
CONTINUOUS
 62
           7
100
AcDbCircle
 10
-13886.303967055872
 20
-5869.08291081093
 30
0.0
 40
1.5
100
AcDbArc
 50
176.088
 51
266.088
  0
ARC
  5
33A
100
AcDbEntity
  8
Frei
  6
CONTINUOUS
 62
           7
100
AcDbCircle
 10
-13861.362216759251
 20
-5870.788516902898
 30
0.0
 40
1.5
100
AcDbArc
 50
266.088
 51
356.087999999999
  0
ARC
  5
33B
100
AcDbEntity
  8
Frei
  6
CONTINUOUS
 62
           7
100
AcDbCircle
 10
-13848.503261449048
 20
-5858.637497672798
 30
0.0
 40
1.5
100
AcDbArc
 50
356.087999999999
 51
86.088
  0
ARC
  5
33C
100
AcDbEntity
  8
Frei
  6
CONTINUOUS
 62
           7
100
AcDbCircle
 10
-13849.526625104227
 20
-5873.602547850771
 30
0.0
 40
1.5
100
AcDbArc
 50
266.088
 51
356.087999999999
  0
ARC
  5
33D
100
AcDbEntity
  8
Frei
  6
CONTINUOUS
 62
           7
100
AcDbCircle
 10
-13857.640180369832
 20
-5816.359711414387
 30
0.0
 40
2.0
100
AcDbArc
 50
356.087999999999
 51
84.088
  0
ARC
  5
33E
100
AcDbEntity
  8
Frei
  6
CONTINUOUS
 62
           7
100
AcDbCircle
 10
-13886.665915366699
 20
-5808.416865996551
 30
0.0
 40
1.0
100
AcDbArc
 50
356.087999999999
 51
86.088
  0
ARC
  5
33F
100
AcDbEntity
  8
Frei
  6
CONTINUOUS
 62
           7
100
AcDbCircle
 10
-13888.780866920741
 20
-5839.344636364362
 30
0.0
 40
1.0
100
AcDbArc
 50
266.087999999999
 51
356.087999999999
  0
ARC
  5
340
100
AcDbEntity
  8
Frei
  6
CONTINUOUS
 62
           7
100
AcDbCircle
 10
-14045.415058783528
 20
-5828.633430106804
 30
0.0
 40
1.0
100
AcDbArc
 50
176.088
 51
266.088
  0
ARC
  5
341
100
AcDbEntity
  8
Frei
  6
CONTINUOUS
 62
           7
100
AcDbCircle
 10
-14043.30010722949
 20
-5797.705659738995
 30
0.0
 40
1.0
100
AcDbArc
 50
86.088
 51
176.088
  0
LINE
  5
342
100
AcDbEntity
  8
Frei
  6
CONTINUOUS
 62
           7
100
AcDbLine
 10
-14298.709501633672
 20
-5781.61618489948
 30
0.0
 11
-14298.709501633672
 21
-5851.61618489948
 31
0.0
  0
LINE
  5
343
100
AcDbEntity
  8
Frei
  6
CONTINUOUS
 62
           7
100
AcDbLine
 10
-13780.820615633671
 20
-5851.61618489948
 30
0.0
 11
-13780.820615633671
 21
-5781.61618489948
 31
0.0
  0
LINE
  5
344
100
AcDbEntity
  8
Frei
  6
CONTINUOUS
 62
          15
100
AcDbLine
 10
-14107.639301365016
 20
-5781.61618489948
 30
0.0
 11
-14298.709501633672
 21
-5781.61618489948
 31
0.0
  0
LINE
  5
345
100
AcDbEntity
  8
Frei
  6
GESTRICHELT
 62
          15
100
AcDbLine
 10
-14070.448149151987
 20
-5781.61618489948
 30
0.0
 11
-14107.639301365016
 21
-5781.61618489948
 31
0.0
  0
LINE
  5
346
100
AcDbEntity
  8
Frei
  6
CONTINUOUS
 62
          15
100
AcDbLine
 10
-13780.820554633672
 20
-5781.61618489948
 30
0.0
 11
-14070.448149151987
 21
-5781.61618489948
 31
0.0
  0
LINE
  5
347
100
AcDbEntity
  8
Frei
  6
CONTINUOUS
 62
          15
100
AcDbLine
 10
-14100.110479528288
 20
-5851.61618489948
 30
0.0
 11
-14298.709501633672
 21
-5851.61618489948
 31
0.0
  0
LINE
  5
348
100
AcDbEntity
  8
Frei
  6
GESTRICHELT
 62
          15
100
AcDbLine
 10
-14049.993708045367
 20
-5851.61618489948
 30
0.0
 11
-14100.110479528288
 21
-5851.61618489948
 31
0.0
  0
LINE
  5
349
100
AcDbEntity
  8
Frei
  6
CONTINUOUS
 62
          15
100
AcDbLine
 10
-13886.613033011028
 20
-5851.61618489948
 30
0.0
 11
-14049.993708045367
 21
-5851.61618489948
 31
0.0
  0
LINE
  5
34A
100
AcDbEntity
  8
Frei
  6
GESTRICHELT
 62
          15
100
AcDbLine
 10
-13858.547640980589
 20
-5851.61618489948
 30
0.0
 11
-13886.613033011028
 21
-5851.61618489948
 31
0.0
  0
LINE
  5
34B
100
AcDbEntity
  8
Frei
  6
CONTINUOUS
 62
          15
100
AcDbLine
 10
-13830.984170959044
 20
-5851.61618489948
 30
0.0
 11
-13858.547640980589
 21
-5851.61618489948
 31
0.0
  0
LINE
  5
34C
100
AcDbEntity
  8
Frei
  6
GESTRICHELT
 62
          15
100
AcDbLine
 10
-13824.18058932932
 20
-5851.61618489948
 30
0.0
 11
-13830.984170959044
 21
-5851.61618489948
 31
0.0
  0
LINE
  5
34D
100
AcDbEntity
  8
Frei
  6
CONTINUOUS
 62
          15
100
AcDbLine
 10
-13780.820554633672
 20
-5851.61618489948
 30
0.0
 11
-13824.18058932932
 21
-5851.61618489948
 31
0.0
  0
TEXT
  5
34E
100
AcDbEntity
  8
FREI
  6
CONTINUOUS
 62
          15
100
AcDbText
 10
-14336.957724284421
 20
-5885.548917880827
 30
0.0
 40
3.527777671814
  1
80-701
 41
0.899999979725
  7
GOTHICG
100
AcDbText
  0
ENDSEC
  0
SECTION
  2
OBJECTS
  0
DICTIONARY
  5
19
100
AcDbDictionary
  3
ACAD_GROUP
350
1A
  3
ACAD_MLINESTYLE
350
1B
  0
DICTIONARY
  5
1A
102
{ACAD_REACTORS
330
19
102
}
100
AcDbDictionary
  0
DICTIONARY
  5
1B
102
{ACAD_REACTORS
330
19
102
}
100
AcDbDictionary
  3
STANDARD
350
1C
  0
MLINESTYLE
  5
1C
102
{ACAD_REACTORS
330
1B
102
}
100
AcDbMlineStyle
  2
STANDARD
 70
           0
  3

 62
           0
 51
90.0
 52
90.0
 71
           2
 49
0.5
 62
         256
  6
BYLAYER
 49
-0.5
 62
         256
  6
BYLAYER
  0
ENDSEC
  0
EOF
